  0
SECTION
  2
HEADER
  9
$ACADVER
  1
AC1009
  9
$INSBASE
 10
262.9981573196773752
 20
27.0073652434872393
 30
0.0
  9
$EXTMIN
 10
262.0139053511774136
 20
27.0027746877619101
 30
0.0
  9
$EXTMAX
 10
263.9824092881775073
 20
31.5513242601098014
 30
0.0
  9
$LIMMIN
 10
0.0
 20
0.0
  9
$LIMMAX
 10
11.6929133858000007
 20
8.2677165353999982
  9
$ORTHOMODE
 70
     0
  9
$REGENMODE
 70
     1
  9
$FILLMODE
 70
     1
  9
$QTEXTMODE
 70
     0
  9
$MIRRTEXT
 70
     0
  9
$DRAGMODE
 70
     2
  9
$LTSCALE
 40
0.6431102362
  9
$OSMODE
 70
     7
  9
$ATTMODE
 70
     1
  9
$TEXTSIZE
 40
0.2
  9
$TRACEWID
 40
0.05
  9
$TEXTSTYLE
  7
STANDARD
  9
$CLAYER
  8
0
  9
$CELTYPE
  6
BYLAYER
  9
$CECOLOR
 62
   256
  9
$DIMSCALE
 40
1.0
  9
$DIMASZ
 40
0.1875
  9
$DIMEXO
 40
0.0625
  9
$DIMDLI
 40
0.4443307087
  9
$DIMRND
 40
0.0
  9
$DIMDLE
 40
0.0
  9
$DIMEXE
 40
0.125
  9
$DIMTP
 40
0.01
  9
$DIMTM
 40
0.01
  9
$DIMTXT
 40
1.0
  9
$DIMCEN
 40
0.1052362205
  9
$DIMTSZ
 40
0.0
  9
$DIMTOL
 70
     1
  9
$DIMLIM
 70
     0
  9
$DIMTIH
 70
     0
  9
$DIMTOH
 70
     1
  9
$DIMSE1
 70
     0
  9
$DIMSE2
 70
     0
  9
$DIMTAD
 70
     0
  9
$DIMZIN
 70
     0
  9
$DIMBLK
  1

  9
$DIMASO
 70
     1
  9
$DIMSHO
 70
     1
  9
$DIMPOST
  1
\X
  9
$DIMAPOST
  1

  9
$DIMALT
 70
     1
  9
$DIMALTD
 70
     2
  9
$DIMALTF
 40
25.3999999999999986
  9
$DIMLFAC
 40
1.0
  9
$DIMTOFL
 70
     0
  9
$DIMTVP
 40
0.0
  9
$DIMTIX
 70
     0
  9
$DIMSOXD
 70
     0
  9
$DIMSAH
 70
     0
  9
$DIMBLK1
  1

  9
$DIMBLK2
  1

  9
$DIMSTYLE
  2
STANDARD
  9
$DIMCLRD
 70
     0
  9
$DIMCLRE
 70
     0
  9
$DIMCLRT
 70
     0
  9
$DIMTFAC
 40
1.0
  9
$DIMGAP
 40
0.09
  9
$LUNITS
 70
     2
  9
$LUPREC
 70
     4
  9
$SKETCHINC
 40
0.1
  9
$FILLETRAD
 40
0.0
  9
$AUNITS
 70
     0
  9
$AUPREC
 70
     0
  9
$MENU
  1
.
  9
$ELEVATION
 40
0.0
  9
$PELEVATION
 40
0.0
  9
$THICKNESS
 40
0.0
  9
$LIMCHECK
 70
     0
  9
$BLIPMODE
 70
     0
  9
$CHAMFERA
 40
0.0
  9
$CHAMFERB
 40
0.0
  9
$SKPOLY
 70
     0
  9
$TDCREATE
 40
2458172.5207638889551163
  9
$TDUPDATE
 40
2459590.6270486121065915
  9
$TDINDWG
 40
0.3569554977
  9
$TDUSRTIMER
 40
0.3569554977
  9
$USRTIMER
 70
     1
  9
$ANGBASE
 50
0.0
  9
$ANGDIR
 70
     0
  9
$PDMODE
 70
     0
  9
$PDSIZE
 40
0.3125
  9
$PLINEWID
 40
0.0
  9
$COORDS
 70
     1
  9
$SPLFRAME
 70
     0
  9
$SPLINETYPE
 70
     6
  9
$SPLINESEGS
 70
     8
  9
$ATTDIA
 70
     1
  9
$ATTREQ
 70
     1
  9
$HANDLING
 70
     1
  9
$HANDSEED
  5
50BD
  9
$SURFTAB1
 70
     6
  9
$SURFTAB2
 70
     6
  9
$SURFTYPE
 70
     6
  9
$SURFU
 70
     6
  9
$SURFV
 70
     6
  9
$UCSNAME
  2

  9
$UCSORG
 10
0.0
 20
0.0
 30
0.0
  9
$UCSXDIR
 10
1.0
 20
0.0
 30
0.0
  9
$UCSYDIR
 10
0.0
 20
1.0
 30
0.0
  9
$PUCSNAME
  2

  9
$PUCSORG
 10
0.0
 20
0.0
 30
0.0
  9
$PUCSXDIR
 10
1.0
 20
0.0
 30
0.0
  9
$PUCSYDIR
 10
0.0
 20
1.0
 30
0.0
  9
$USERI1
 70
     0
  9
$USERI2
 70
     0
  9
$USERI3
 70
     0
  9
$USERI4
 70
     0
  9
$USERI5
 70
     0
  9
$USERR1
 40
0.0
  9
$USERR2
 40
0.0
  9
$USERR3
 40
0.0
  9
$USERR4
 40
0.0
  9
$USERR5
 40
0.0
  9
$WORLDVIEW
 70
     1
  9
$SHADEDGE
 70
     3
  9
$SHADEDIF
 70
    70
  9
$TILEMODE
 70
     1
  9
$MAXACTVP
 70
    64
  9
$PLIMCHECK
 70
     0
  9
$PEXTMIN
 10
1.0000000000000000E+20
 20
1.0000000000000000E+20
 30
1.0000000000000000E+20
  9
$PEXTMAX
 10
-1.0000000000000000E+20
 20
-1.0000000000000000E+20
 30
-1.0000000000000000E+20
  9
$PLIMMIN
 10
0.0
 20
0.0
  9
$PLIMMAX
 10
12.0
 20
9.0
  9
$UNITMODE
 70
     0
  9
$VISRETAIN
 70
     1
  9
$PLINEGEN
 70
     0
  9
$PSLTSCALE
 70
     1
  0
ENDSEC
  0
SECTION
  2
TABLES
  0
TABLE
  2
VPORT
 70
     1
  0
VPORT
  2
*ACTIVE
 70
     0
 10
0.0
 20
0.0
 11
1.0
 21
1.0
 12
-2.4550819104406401
 22
3.1461632494896752
 13
0.0
 23
0.0
 14
1.0
 24
1.0
 15
0.0
 25
0.0
 16
0.0
 26
0.0
 36
0.0353741150031495
 17
265.4566317621529947
 27
26.1310335101165094
 37
0.0
 40
4.5853029446245932
 41
2.2831541218637992
 42
50.0
 43
0.0
 44
0.0
 50
0.0
 51
0.0
 71
     0
 72
   100
 73
     1
 74
     1
 75
     0
 76
     0
 77
     0
 78
     0
  0
ENDTAB
  0
TABLE
  2
LTYPE
 70
     2
  0
LTYPE
  2
CONTINUOUS
 70
     0
  3
Solid line
 72
    65
 73
     0
 40
0.0
  0
LTYPE
  2
PHANTOM2
 70
     0
  3
___ _ _ ___ _ _ ___ _ _ ___ _ _
 72
    65
 73
     6
 40
1.25
 49
0.625
 49
-0.125
 49
0.125
 49
-0.125
 49
0.125
 49
-0.125
  0
ENDTAB
  0
TABLE
  2
LAYER
 70
     2
  0
LAYER
  2
0
 70
     0
 62
   255
  6
CONTINUOUS
  0
LAYER
  2
DEFPOINTS
 70
     0
 62
     7
  6
CONTINUOUS
  0
ENDTAB
  0
TABLE
  2
STYLE
 70
     1
  0
STYLE
  2
STANDARD
 70
     0
 40
0.0
 41
0.8
 50
0.0
 71
     0
 42
0.2
  3
txt
  4

  0
ENDTAB
  0
TABLE
  2
VIEW
 70
     0
  0
ENDTAB
  0
TABLE
  2
UCS
 70
     0
  0
ENDTAB
  0
TABLE
  2
APPID
 70
    10
  0
APPID
  2
ACAD
 70
     0
  0
APPID
  2
ACAD_MLEADERVER
 70
     0
  0
APPID
  2
ACAD_EXEMPT_FROM_CAD_STANDARDS
 70
     0
  0
APPID
  2
ACAD_DSTYLE_DIMJAG
 70
     0
  0
APPID
  2
ACAD_DSTYLE_DIMTALN
 70
     0
  0
APPID
  2
ACAD_NAV_VCDISPLAY
 70
     0
  0
APPID
  2
ACAECLAYERSTANDARD
 70
     0
  0
APPID
  2
ACCMTRANSPARENCY
 70
     0
  0
APPID
  2
DCO15
 70
     0
  0
APPID
  2
ACDBATTR
 70
     0
  0
ENDTAB
  0
TABLE
  2
DIMSTYLE
 70
     1
  0
DIMSTYLE
  2
STANDARD
 70
     0
  3

  4

  5

  6

  7

 40
1.0
 41
0.1875
 42
0.0625
 43
0.38
 44
0.125
 45
0.0
 46
0.0
 47
0.01
 48
0.01
140
0.15625
141
0.09
142
0.0
143
25.3999999999999986
144
1.0
145
0.0
146
1.0
147
0.09
 71
     1
 72
     0
 73
     1
 74
     1
 75
     0
 76
     0
 77
     0
 78
     4
170
     0
171
     2
172
     0
173
     0
174
     0
175
     0
176
     0
177
     0
178
     0
  0
ENDTAB
  0
ENDSEC
  0
SECTION
  2
BLOCKS
  0
BLOCK
  8
0
  2
$MODEL_SPACE
 70
     0
 10
0.0
 20
0.0
 30
0.0
  3
$MODEL_SPACE
  1

  0
ENDBLK
  5
21
  8
0
  0
BLOCK
 67
     1
  8
0
  2
$PAPER_SPACE
 70
     0
 10
0.0
 20
0.0
 30
0.0
  3
$PAPER_SPACE
  1

  0
ENDBLK
  5
1D
 67
     1
  8
0
  0
ENDSEC
  0
SECTION
  2
ENTITIES
  0
ATTDEF
  5
829
  8
DEFPOINTS
 10
262.9983357576816729
 20
27.0061080210952404
 30
0.0
 40
0.001
  1
K-16312BR-4ND
  3

  2
MODELNUMBER
 70
     0
1001
ACDBATTR
1070
     0
1070
     1
  0
ATTDEF
  5
82A
  8
DEFPOINTS
 10
262.9983357576816729
 20
27.0044413544285788
 30
0.0
 40
0.001
  1
JULY
  3

  2
TRADENAME
 70
     0
1001
ACDBATTR
1070
     0
1070
     1
  0
ATTDEF
  5
82B
  8
DEFPOINTS
 10
262.9983357576816729
 20
27.0027746877619101
 30
0.0
 40
0.001
  1
BATHROOM SINK FAUCET
  3

  2
PRODUCT
 70
     0
1001
ACDBATTR
1070
     0
1070
     1
  0
LINE
  5
497B
  8
0
 10
262.0139053511774136
 20
27.0073652434872393
 30
0.0
 11
263.9824092881775073
 21
27.0073652434872393
 31
0.0
  0
LINE
  5
497C
  8
0
 10
263.9824092881775073
 20
27.0865328989402698
 30
0.0
 11
263.9824092881775073
 21
27.0073652434872393
 31
0.0
  0
LINE
  5
497D
  8
0
 10
263.6280516473775037
 20
30.0388257031464185
 30
0.0
 11
263.6280516473775037
 21
27.1254754796872284
 31
0.0
  0
LINE
  5
497E
  8
0
 10
263.6280516473775037
 20
30.13575042724176
 30
0.0
 11
263.6280516473775037
 21
31.4594721229872398
 31
0.0
  0
LINE
  5
497F
  8
0
 10
263.6344120949823946
 20
30.0388078745305585
 30
0.0
 11
263.6344120949823946
 21
29.8866565875924195
 31
0.0
  0
LINE
  5
4980
  8
0
 10
263.5851517513593762
 20
31.5000531960281691
 30
0.0
 11
262.4111628879954878
 21
31.5000531960281691
 31
0.0
  0
LINE
  5
4981
  8
0
 10
263.5794204158091247
 20
30.0823355696910113
 30
0.0
 11
262.4168942235457962
 21
30.0823355696910113
 31
0.0
  0
ARC
  5
4982
  8
0
 10
262.8370908626839082
 20
21.9089500803632795
 30
0.0
 40
8.2070412891512294
 50
84.8138343925399454
 51
88.8754752922251754
  0
ARC
  5
4983
  8
0
 10
263.574413844864921
 20
30.0432644014048513
 30
0.0
 40
0.0393906326918545
 50
0.0237331959503738
 51
83.3979564304260066
  0
ARC
  5
4984
  8
0
 10
258.4870776390347942
 20
29.9600724756087509
 30
0.0
 40
5.12740203746052
 50
356.0739226364798924
 51
0.9298452409526323
  0
ARC
  5
4985
  8
0
 10
263.0763276087217832
 20
29.6502125784852097
 30
0.0
 40
0.5277306707246839
 50
339.4308500180658257
 51
355.5212585681584869
  0
ARC
  5
4986
  8
0
 10
263.3640691500144158
 20
29.5482870397057305
 30
0.0
 40
0.2225948550903003
 50
299.8208022789959273
 51
337.9720739047425013
  0
LINE
  5
4987
  8
0
 10
263.6113866016268048
 20
30.1176014639872385
 30
0.0
 11
262.3849280377281161
 21
30.1176014639872385
 31
0.0
  0
ARC
  5
4988
  8
0
 10
263.6077574837922839
 20
30.13765956417636
 30
0.0
 40
0.0203837650951134
 50
280.2555941116588087
 51
354.6258187814688085
  0
ARC
  5
4989
  8
0
 10
263.5945086003650886
 20
30.0383403294914508
 30
0.0
 40
0.039906233611206
 50
0.6712978885875933
 51
92.7295012441131234
  0
LINE
  5
498A
  8
0
 10
263.9446935759751796
 20
27.1254754796872284
 30
0.0
 11
262.0516210633796277
 21
27.1254754796872284
 31
0.0
  0
ARC
  5
498B
  8
0
 10
263.9429764862712773
 20
27.086077447950629
 30
0.0
 40
0.0394354320601446
 50
0.6617399198942314
 51
87.5044496440266641
  0
ARC
  5
498C
  8
0
 10
263.5867378934102021
 20
30.0353183400922497
 30
0.0
 40
0.0414623668217664
 50
4.8525339025995811
 51
75.5234154285013091
  0
ARC
  5
498D
  8
0
 10
353.3685842788909781
 20
28.5927393154640797
 30
0.0
 40
89.7435004857647982
 50
179.1738837118842866
 51
179.5340293002859937
  0
ARC
  5
498E
  8
0
 10
263.5829303729125854
 20
31.4547387415216413
 30
0.0
 40
0.0453688693867051
 50
5.988626467873698
 51
87.1935267479088054
  0
ARC
  5
498F
  8
0
 10
263.0009840209440881
 20
28.1866704631362488
 30
0.0
 40
3.3644846666146302
 50
80.0011914495314755
 51
83.7388210007707556
  0
LINE
  5
4990
  8
0
 10
262.0139053511774136
 20
27.0865328989402698
 30
0.0
 11
262.0139053511774136
 21
27.0073652434872393
 31
0.0
  0
LINE
  5
4991
  8
0
 10
262.3682629919774172
 20
30.0388257031464185
 30
0.0
 11
262.3682629919774172
 21
27.1254754796872284
 31
0.0
  0
LINE
  5
4992
  8
0
 10
262.3682629919774172
 20
30.13575042724176
 30
0.0
 11
262.3682629919774172
 21
31.4594721229872398
 31
0.0
  0
LINE
  5
4993
  8
0
 10
262.3619025443725263
 20
30.0388078745305585
 30
0.0
 11
262.3619025443724126
 21
29.8866565875924195
 31
0.0
  0
ARC
  5
4994
  8
0
 10
263.1345699179980215
 20
22.3561701687601015
 30
0.0
 40
7.7594397257144561
 50
91.0073238647105285
 51
95.3033664505255445
  0
ARC
  5
4995
  8
0
 10
262.4219007944898863
 20
30.0432644014048513
 30
0.0
 40
0.0393906326918545
 50
96.6020435695739934
 51
179.976266804049601
  0
ARC
  5
4996
  8
0
 10
267.5092370003200131
 20
29.9600724756087509
 30
0.0
 40
5.12740203746052
 50
179.0701547590473126
 51
183.9260773635201076
  0
ARC
  5
4997
  8
0
 10
262.9199870306330808
 20
29.6502125784852097
 30
0.0
 40
0.5277306707246839
 50
184.4787414318412004
 51
200.5691499819340891
  0
ARC
  5
4998
  8
0
 10
262.6322454893403915
 20
29.5482870397057305
 30
0.0
 40
0.2225948550903003
 50
202.0279260952574987
 51
244.105788532033614
  0
ARC
  5
4999
  8
0
 10
262.3885571555625233
 20
30.13765956417636
 30
0.0
 40
0.0203837650951134
 50
185.3741812185309925
 51
259.7444058883413049
  0
ARC
  5
499A
  8
0
 10
262.4018060389897187
 20
30.0383403294914508
 30
0.0
 40
0.039906233611206
 50
87.2704987558868766
 51
179.3287021114124116
  0
ARC
  5
499B
  8
0
 10
262.0533381530834731
 20
27.086077447950629
 30
0.0
 40
0.0394354320601446
 50
92.4955503559733501
 51
179.3382600801058118
  0
ARC
  5
499C
  8
0
 10
262.4095767459447188
 20
30.0353183400922497
 30
0.0
 40
0.0414623668217664
 50
104.4765845714987051
 51
175.1474660974004109
  0
ARC
  5
499D
  8
0
 10
172.6277303604638007
 20
28.5927393154640797
 30
0.0
 40
89.7435004857647982
 50
0.4659706997139594
 51
0.826116288115664
  0
ARC
  5
499E
  8
0
 10
262.4133842664422218
 20
31.4547387415216413
 30
0.0
 40
0.0453688693867051
 50
92.8064732520911946
 51
174.0113735321262993
  0
ARC
  5
499F
  8
0
 10
262.995330618410776
 20
28.1866704631362488
 30
0.0
 40
3.3644846666146302
 50
96.2611789992292444
 51
99.9988085504685245
  0
ARC
  5
49A0
  8
0
 10
262.9981573196773752
 20
28.1633403319631199
 30
0.0
 40
3.387983928146685
 50
83.734332073343495
 51
96.2656679266565192
  0
ARC
  5
49A1
  8
0
 10
263.4992354951151015
 20
31.46084858281084
 30
0.0
 40
0.0396198436894542
 50
348.6277320504208888
 51
81.6975572799040464
  0
ARC
  5
49A2
  8
0
 10
263.3988407952629132
 20
31.4810411419088503
 30
0.0
 40
0.1420250935613865
 50
310.6501598721948199
 51
348.6277320504208888
  0
ARC
  5
49A3
  8
0
 10
263.2959860487376886
 20
31.6469195756432917
 30
0.0
 40
0.3362240182761673
 50
276.0674691761657868
 51
305.5270284578659812
  0
ARC
  5
49A4
  8
0
 10
262.4970791442398195
 20
31.46084858281084
 30
0.0
 40
0.0396198436894542
 50
98.3024427200959963
 51
191.3722679495789123
  0
ARC
  5
49A5
  8
0
 10
262.5974738440920078
 20
31.4810411419088503
 30
0.0
 40
0.1420250935613865
 50
191.3722679495789123
 51
229.3498401278050949
  0
ARC
  5
49A6
  8
0
 10
262.7003285906171186
 20
31.6469195756432917
 30
0.0
 40
0.3362240182761673
 50
234.4729715421339904
 51
263.9325308238342132
  0
ARC
  5
49A7
  8
0
 10
262.9981573196773752
 20
34.5434658223101394
 30
0.0
 40
3.248039904071319
 50
264.1089879335486899
 51
275.8910120664513101
  0
LINE
  5
49A8
  8
0
 10
263.5394959023773822
 20
30.1176014639872385
 30
0.0
 11
263.5394959023773822
 21
30.0858782249690613
 31
0.0
  0
LINE
  5
49A9
  8
0
 10
262.456818736977425
 20
30.1176014639872385
 30
0.0
 11
262.456818736977425
 21
30.0858782249690613
 31
0.0
  0
LINE
  5
49AA
  8
0
 10
262.7651688131065839
 20
29.113931906557319
 30
0.0
 11
262.7804211297774941
 21
29.1061859047872389
 31
0.0
  0
ARC
  5
49AB
  8
0
 10
262.7833232334745048
 20
29.1119003115113202
 30
0.0
 40
0.0064091068080466
 50
243.0759256004855047
 51
270.6531912676508114
  0
LINE
  5
49AC
  8
0
 10
262.7833962978775162
 20
29.1054916211872303
 30
0.0
 11
262.7842302474775238
 21
29.105275297087239
 31
0.0
  0
LINE
  5
49AD
  8
0
 10
262.7842302474775238
 20
29.105275297087239
 30
0.0
 11
262.8166575568773737
 21
29.105294811387239
 31
0.0
  0
LINE
  5
49AE
  8
0
 10
262.8166575568773737
 20
29.105294811387239
 30
0.0
 11
262.8174917794773933
 21
29.1055121392872316
 31
0.0
  0
ARC
  5
49AF
  8
0
 10
262.8175124353110732
 20
29.1121111807543791
 30
0.0
 40
0.0065990737947535
 50
269.8206575564432228
 51
296.5743156099471207
  0
LINE
  5
49B0
  8
0
 10
262.8204645851773762
 20
29.1062092669872392
 30
0.0
 11
262.8357183479611194
 21
29.1139743622300315
 31
0.0
  0
LINE
  5
49B1
  8
0
 10
262.7862272656520872
 20
29.1226126595647692
 30
0.0
 11
262.786234489977403
 21
29.1116424439872397
 31
0.0
  0
ARC
  5
49B2
  8
0
 10
262.7771817738008053
 20
29.1116669943774511
 30
0.0
 40
0.0090527494662203
 50
339.3313187529101924
 51
359.8446178728058271
  0
ARC
  5
49B3
  8
0
 10
262.7800950907266042
 20
29.1103338743735307
 30
0.0
 40
0.0058604935434695
 50
304.2842185031906865
 51
341.4731120316848205
  0
LINE
  5
49B4
  8
0
 10
262.8146473912773899
 20
29.1116595424872386
 30
0.0
 11
262.8146473912773899
 21
29.1226297623977715
 31
0.0
  0
ARC
  5
49B5
  8
0
 10
262.8241033560416895
 20
29.1118036256373607
 30
0.0
 40
0.009457062417918
 50
180.8729640815213884
 51
200.4826478433047896
  0
ARC
  5
49B6
  8
0
 10
262.8213950689425928
 20
29.1107919733455311
 30
0.0
 40
0.0065659969793024
 50
200.4826478433085981
 51
233.5251277158502887
  0
LINE
  5
49B7
  8
0
 10
262.7651688131065839
 20
29.1312680672573201
 30
0.0
 11
262.7804211297774941
 21
29.12352206548724
 31
0.0
  0
ARC
  5
49B8
  8
0
 10
262.7833232334745048
 20
29.1292364722113213
 30
0.0
 40
0.0064091068080466
 50
243.0759256004855047
 51
270.6531912676508114
  0
LINE
  5
49B9
  8
0
 10
262.7833962978775162
 20
29.1228277818872314
 30
0.0
 11
262.7842302474775238
 21
29.1226114577872401
 31
0.0
  0
LINE
  5
49BA
  8
0
 10
262.7842302474775238
 20
29.1226114577872401
 30
0.0
 11
262.8166575568773737
 21
29.1226309720872401
 31
0.0
  0
LINE
  5
49BB
  8
0
 10
262.8166575568773737
 20
29.1226309720872401
 30
0.0
 11
262.8174917794773933
 21
29.1228482999872291
 31
0.0
  0
ARC
  5
49BC
  8
0
 10
262.8175124353110732
 20
29.1294473414543909
 30
0.0
 40
0.0065990737947535
 50
269.8206575564432228
 51
296.5743156099471207
  0
LINE
  5
49BD
  8
0
 10
262.8204645851773762
 20
29.1235454276872403
 30
0.0
 11
262.8357183479611194
 21
29.1313105229300291
 31
0.0
  0
LINE
  5
49BE
  8
0
 10
262.7862272656520872
 20
29.1399488202647703
 30
0.0
 11
262.786234489977403
 21
29.1289786046872301
 31
0.0
  0
ARC
  5
49BF
  8
0
 10
262.7771817738008053
 20
29.1290031550774486
 30
0.0
 40
0.0090527494662203
 50
339.3313187529101924
 51
359.8446178728058271
  0
ARC
  5
49C0
  8
0
 10
262.7800950907266042
 20
29.1276700350735283
 30
0.0
 40
0.0058604935434695
 50
304.2842185031906865
 51
341.4731120316848205
  0
LINE
  5
49C1
  8
0
 10
262.8146473912773899
 20
29.1289957031872397
 30
0.0
 11
262.8146473912773899
 21
29.139965923097769
 31
0.0
  0
ARC
  5
49C2
  8
0
 10
262.8241033560416895
 20
29.1291397863373582
 30
0.0
 40
0.009457062417918
 50
180.8729640815213884
 51
200.4826478433047896
  0
ARC
  5
49C3
  8
0
 10
262.8213950689425928
 20
29.1281281340455287
 30
0.0
 40
0.0065659969793024
 50
200.4826478433085981
 51
233.5251277158502887
  0
LINE
  5
49C4
  8
0
 10
262.7651688131065839
 20
29.1659403885573205
 30
0.0
 11
262.7804211297774941
 21
29.1581943867872404
 31
0.0
  0
ARC
  5
49C5
  8
0
 10
262.7833232334745048
 20
29.1639087935113217
 30
0.0
 40
0.0064091068080466
 50
243.0759256004855047
 51
270.6531912676508114
  0
ARC
  5
49C6
  8
0
 10
262.8175124353110732
 20
29.1641196627543806
 30
0.0
 40
0.0065990737947535
 50
269.8206575564432228
 51
296.5743156099471207
  0
LINE
  5
49C7
  8
0
 10
262.8204645851773762
 20
29.1582177489872407
 30
0.0
 11
262.8357183479611194
 21
29.1659828442300295
 31
0.0
  0
LINE
  5
49C8
  8
0
 10
262.7862272656520872
 20
29.1746211415647707
 30
0.0
 11
262.786234489977403
 21
29.1636509259872412
 31
0.0
  0
ARC
  5
49C9
  8
0
 10
262.7771817738008053
 20
29.1636754763774491
 30
0.0
 40
0.0090527494662203
 50
339.3313187529101924
 51
359.8446178728058271
  0
ARC
  5
49CA
  8
0
 10
262.7800950907266042
 20
29.1623423563735287
 30
0.0
 40
0.0058604935434695
 50
304.2842185031906865
 51
341.4731120316848205
  0
LINE
  5
49CB
  8
0
 10
262.8146473912773899
 20
29.1636680244872402
 30
0.0
 11
262.8146473912773899
 21
29.1746382443977694
 31
0.0
  0
ARC
  5
49CC
  8
0
 10
262.8241033560416895
 20
29.1638121076373587
 30
0.0
 40
0.009457062417918
 50
180.8729640815213884
 51
200.4826478433047896
  0
ARC
  5
49CD
  8
0
 10
262.8213950689425928
 20
29.1628004553455291
 30
0.0
 40
0.0065659969793024
 50
200.4826478433085981
 51
233.5251277158502887
  0
LINE
  5
49CE
  8
0
 10
262.7651688131065839
 20
29.1832765492573216
 30
0.0
 11
262.7804211297774941
 21
29.1755305474872415
 31
0.0
  0
ARC
  5
49CF
  8
0
 10
262.7833232334745048
 20
29.1812449542113193
 30
0.0
 40
0.0064091068080466
 50
243.0759256004855047
 51
270.6531912676508114
  0
LINE
  5
49D0
  8
0
 10
262.7833962978775162
 20
29.1748362638872401
 30
0.0
 11
262.7842302474775238
 21
29.1746199397872417
 31
0.0
  0
LINE
  5
49D1
  8
0
 10
262.7842302474775238
 20
29.1746199397872417
 30
0.0
 11
262.8166575568773737
 21
29.1746394540872309
 31
0.0
  0
LINE
  5
49D2
  8
0
 10
262.8166575568773737
 20
29.1746394540872309
 30
0.0
 11
262.8174917794773933
 21
29.1748567819872413
 31
0.0
  0
ARC
  5
49D3
  8
0
 10
262.8175124353110732
 20
29.1814558234543817
 30
0.0
 40
0.0065990737947535
 50
269.8206575564432228
 51
296.5743156099471207
  0
LINE
  5
49D4
  8
0
 10
262.8204645851773762
 20
29.1755539096872383
 30
0.0
 11
262.8357183479611194
 21
29.1833190049300306
 31
0.0
  0
LINE
  5
49D5
  8
0
 10
262.7862272656520872
 20
29.1919573022647683
 30
0.0
 11
262.786234489977403
 21
29.1809870866872387
 31
0.0
  0
ARC
  5
49D6
  8
0
 10
262.7771817738008053
 20
29.1810116370774502
 30
0.0
 40
0.0090527494662203
 50
339.3313187529101924
 51
359.8446178728058271
  0
ARC
  5
49D7
  8
0
 10
262.7800950907266042
 20
29.1796785170735404
 30
0.0
 40
0.0058604935434695
 50
304.2842185031906865
 51
341.4731120316848205
  0
LINE
  5
49D8
  8
0
 10
262.8146473912773899
 20
29.1810041851872413
 30
0.0
 11
262.8146473912773899
 21
29.1919744050977705
 31
0.0
  0
ARC
  5
49D9
  8
0
 10
262.8241033560416895
 20
29.1811482683373598
 30
0.0
 40
0.009457062417918
 50
180.8729640815213884
 51
200.4826478433047896
  0
ARC
  5
49DA
  8
0
 10
262.8213950689425928
 20
29.1801366160455302
 30
0.0
 40
0.0065659969793024
 50
200.4826478433085981
 51
233.5251277158502887
  0
LINE
  5
49DB
  8
0
 10
262.7751890956265015
 20
29.1955238354073003
 30
0.0
 11
262.7804211297774941
 21
29.1928667081872391
 31
0.0
  0
ARC
  5
49DC
  8
0
 10
262.7833232334745048
 20
29.1985811149113204
 30
0.0
 40
0.0064091068080466
 50
243.0759256004855047
 51
270.6531912676508114
  0
LINE
  5
49DD
  8
0
 10
262.7833962978775162
 20
29.1921724245872305
 30
0.0
 11
262.7842302474775238
 21
29.1919561004872392
 31
0.0
  0
LINE
  5
49DE
  8
0
 10
262.7842302474775238
 20
29.1919561004872392
 30
0.0
 11
262.8166575568773737
 21
29.1919756147872285
 31
0.0
  0
LINE
  5
49DF
  8
0
 10
262.8166575568773737
 20
29.1919756147872285
 30
0.0
 11
262.8174917794773933
 21
29.1921929426872389
 31
0.0
  0
ARC
  5
49E0
  8
0
 10
262.8175124353110732
 20
29.1987919841543793
 30
0.0
 40
0.0065990737947535
 50
269.8206575564432228
 51
296.5743156099471207
  0
LINE
  5
49E1
  8
0
 10
262.8204645851773762
 20
29.1928900703872394
 30
0.0
 11
262.8357183479611194
 21
29.2006551656300317
 31
0.0
  0
LINE
  5
49E2
  8
0
 10
262.7862341807669964
 20
29.1987927867632209
 30
0.0
 11
262.786234489977403
 21
29.1983232473872398
 31
0.0
  0
ARC
  5
49E3
  8
0
 10
262.7771817738008053
 20
29.1983477977774513
 30
0.0
 40
0.0090527494662203
 50
339.3313187529101924
 51
359.8446178728058271
  0
ARC
  5
49E4
  8
0
 10
262.7800950907266042
 20
29.1970146777735309
 30
0.0
 40
0.0058604935434695
 50
304.2842185031906865
 51
341.4731120316848205
  0
LINE
  5
49E5
  8
0
 10
262.8146473912773899
 20
29.1983403458872388
 30
0.0
 11
262.8146473912773899
 21
29.2059380913797497
 31
0.0
  0
ARC
  5
49E6
  8
0
 10
262.8241033560416895
 20
29.1984844290373609
 30
0.0
 40
0.009457062417918
 50
180.8729640815213884
 51
200.4826478433047896
  0
ARC
  5
49E7
  8
0
 10
262.8213950689425928
 20
29.1974727767455313
 30
0.0
 40
0.0065659969793024
 50
200.4826478433085981
 51
233.5251277158502887
  0
LINE
  5
49E8
  8
0
 10
262.7651688131065839
 20
29.0965957458573214
 30
0.0
 11
262.7804211297774941
 21
29.0888497440872413
 31
0.0
  0
ARC
  5
49E9
  8
0
 10
262.7833232334745048
 20
29.0945641508113191
 30
0.0
 40
0.0064091068080466
 50
243.0759256004855047
 51
270.6531912676508114
  0
LINE
  5
49EA
  8
0
 10
262.7833962978775162
 20
29.0881554604872399
 30
0.0
 11
262.7842302474775238
 21
29.0879391363872415
 31
0.0
  0
LINE
  5
49EB
  8
0
 10
262.7842302474775238
 20
29.0879391363872415
 30
0.0
 11
262.8166575568773737
 21
29.0879586506872414
 31
0.0
  0
LINE
  5
49EC
  8
0
 10
262.8166575568773737
 20
29.0879586506872414
 30
0.0
 11
262.8174917794773933
 21
29.0881759785872411
 31
0.0
  0
ARC
  5
49ED
  8
0
 10
262.8175124353110732
 20
29.0947750200543886
 30
0.0
 40
0.0065990737947535
 50
269.8206575564432228
 51
296.5743156099471207
  0
LINE
  5
49EE
  8
0
 10
262.8204645851773762
 20
29.0888731062872417
 30
0.0
 11
262.8357183479611194
 21
29.0966382015300304
 31
0.0
  0
LINE
  5
49EF
  8
0
 10
262.7862272656520872
 20
29.1052764988647716
 30
0.0
 11
262.786234489977403
 21
29.0943062832872386
 31
0.0
  0
ARC
  5
49F0
  8
0
 10
262.7771817738008053
 20
29.0943308336774606
 30
0.0
 40
0.0090527494662203
 50
339.3313187529101924
 51
359.8446178728058271
  0
ARC
  5
49F1
  8
0
 10
262.7800950907266042
 20
29.0929977136735296
 30
0.0
 40
0.0058604935434695
 50
304.2842185031906865
 51
341.4731120316848205
  0
LINE
  5
49F2
  8
0
 10
262.8146473912773899
 20
29.0943233817872411
 30
0.0
 11
262.8146473912773899
 21
29.1052936016977704
 31
0.0
  0
ARC
  5
49F3
  8
0
 10
262.8241033560416895
 20
29.0944674649373596
 30
0.0
 40
0.009457062417918
 50
180.8729640815213884
 51
200.4826478433047896
  0
ARC
  5
49F4
  8
0
 10
262.8213950689425928
 20
29.09345581264553
 30
0.0
 40
0.0065659969793024
 50
200.4826478433085981
 51
233.5251277158502887
  0
LINE
  5
49F5
  8
0
 10
262.8163120355067122
 20
29.0879584427573192
 30
0.0
 11
262.8315643521775087
 21
29.0802124409872391
 31
0.0
  0
ARC
  5
49F6
  8
0
 10
262.8344664558745762
 20
29.0859268477113204
 30
0.0
 40
0.0064091068080466
 50
243.0759256004855047
 51
270.6531912676508114
  0
LINE
  5
49F7
  8
0
 10
262.8345395202774739
 20
29.0795181573872306
 30
0.0
 11
262.8353734698774815
 21
29.0793018332872393
 31
0.0
  0
LINE
  5
49F8
  8
0
 10
262.8353734698774815
 20
29.0793018332872393
 30
0.0
 11
262.867800779277502
 21
29.0793213475872392
 31
0.0
  0
LINE
  5
49F9
  8
0
 10
262.867800779277502
 20
29.0793213475872392
 30
0.0
 11
262.8686350018774078
 21
29.0795386754872283
 31
0.0
  0
ARC
  5
49FA
  8
0
 10
262.8686556577109741
 20
29.0861377169543793
 30
0.0
 40
0.0065990737947535
 50
269.8206575564432228
 51
296.5743156099471207
  0
LINE
  5
49FB
  8
0
 10
262.8716078075775044
 20
29.0802358031872394
 30
0.0
 11
262.8868615703610772
 21
29.0880008984300282
 31
0.0
  0
LINE
  5
49FC
  8
0
 10
262.8373704880521018
 20
29.0966391957647694
 30
0.0
 11
262.8373777123774744
 21
29.0856689801872399
 31
0.0
  0
ARC
  5
49FD
  8
0
 10
262.8283249962007062
 20
29.0856935305774513
 30
0.0
 40
0.0090527494662203
 50
339.3313187529101924
 51
359.8446178728058271
  0
ARC
  5
49FE
  8
0
 10
262.8312383131266188
 20
29.0843604105735309
 30
0.0
 40
0.0058604935434695
 50
304.2842185031906865
 51
341.4731120316848205
  0
LINE
  5
49FF
  8
0
 10
262.8657906136774045
 20
29.0856860786872389
 30
0.0
 11
262.8657906136774045
 21
29.0966562985977717
 31
0.0
  0
ARC
  5
4A00
  8
0
 10
262.8752465784417041
 20
29.0858301618373609
 30
0.0
 40
0.009457062417918
 50
180.8729640815213884
 51
200.4826478433047896
  0
ARC
  5
4A01
  8
0
 10
262.8725382913426074
 20
29.0848185095455314
 30
0.0
 40
0.0065659969793024
 50
200.4826478433085981
 51
233.5251277158502887
  0
LINE
  5
4A02
  8
0
 10
262.8163120355067122
 20
29.1052946034573203
 30
0.0
 11
262.8315643521775087
 21
29.0975486016872402
 31
0.0
  0
ARC
  5
4A03
  8
0
 10
262.8344664558745762
 20
29.1032630084113215
 30
0.0
 40
0.0064091068080466
 50
243.0759256004855047
 51
270.6531912676508114
  0
LINE
  5
4A04
  8
0
 10
262.8345395202774739
 20
29.0968543180872317
 30
0.0
 11
262.8353734698774815
 21
29.0966379939872404
 31
0.0
  0
LINE
  5
4A05
  8
0
 10
262.8353734698774815
 20
29.0966379939872404
 30
0.0
 11
262.867800779277502
 21
29.0966575082872403
 31
0.0
  0
LINE
  5
4A06
  8
0
 10
262.867800779277502
 20
29.0966575082872403
 30
0.0
 11
262.8686350018774078
 21
29.09687483618724
 31
0.0
  0
ARC
  5
4A07
  8
0
 10
262.8686556577109741
 20
29.1034738776543911
 30
0.0
 40
0.0065990737947535
 50
269.8206575564432228
 51
296.5743156099471207
  0
LINE
  5
4A08
  8
0
 10
262.8716078075775044
 20
29.0975719638872405
 30
0.0
 11
262.8868615703610772
 21
29.1053370591300293
 31
0.0
  0
LINE
  5
4A09
  8
0
 10
262.8373704880521018
 20
29.1139753564647705
 30
0.0
 11
262.8373777123774744
 21
29.1030051408872303
 31
0.0
  0
ARC
  5
4A0A
  8
0
 10
262.8283249962007062
 20
29.1030296912774489
 30
0.0
 40
0.0090527494662203
 50
339.3313187529101924
 51
359.8446178728058271
  0
ARC
  5
4A0B
  8
0
 10
262.8312383131266188
 20
29.1016965712735285
 30
0.0
 40
0.0058604935434695
 50
304.2842185031906865
 51
341.4731120316848205
  0
LINE
  5
4A0C
  8
0
 10
262.8657906136774045
 20
29.10302223938724
 30
0.0
 11
262.8657906136774045
 21
29.1139924592977692
 31
0.0
  0
ARC
  5
4A0D
  8
0
 10
262.8752465784417041
 20
29.1031663225373585
 30
0.0
 40
0.009457062417918
 50
180.8729640815213884
 51
200.4826478433047896
  0
ARC
  5
4A0E
  8
0
 10
262.8725382913426074
 20
29.1021546702455289
 30
0.0
 40
0.0065659969793024
 50
200.4826478433085981
 51
233.5251277158502887
  0
LINE
  5
4A0F
  8
0
 10
262.8163120355067122
 20
29.1226307641573214
 30
0.0
 11
262.8315643521775087
 21
29.1148847623872307
 31
0.0
  0
ARC
  5
4A10
  8
0
 10
262.8344664558745762
 20
29.1205991691113191
 30
0.0
 40
0.0064091068080466
 50
243.0759256004855047
 51
270.6531912676508114
  0
LINE
  5
4A11
  8
0
 10
262.8345395202774739
 20
29.1141904787872292
 30
0.0
 11
262.8353734698774815
 21
29.1139741546872308
 31
0.0
  0
LINE
  5
4A12
  8
0
 10
262.8353734698774815
 20
29.1139741546872308
 30
0.0
 11
262.867800779277502
 21
29.1139936689872414
 31
0.0
  0
LINE
  5
4A13
  8
0
 10
262.867800779277502
 20
29.1139936689872414
 30
0.0
 11
262.8686350018774078
 21
29.1142109968872411
 31
0.0
  0
ARC
  5
4A14
  8
0
 10
262.8686556577109741
 20
29.1208100383543886
 30
0.0
 40
0.0065990737947535
 50
269.8206575564432228
 51
296.5743156099471207
  0
LINE
  5
4A15
  8
0
 10
262.8716078075775044
 20
29.1149081245872416
 30
0.0
 11
262.8868615703610772
 21
29.1226732198300304
 31
0.0
  0
LINE
  5
4A16
  8
0
 10
262.8373704880521018
 20
29.1313115171647716
 30
0.0
 11
262.8373777123774744
 21
29.1203413015872385
 31
0.0
  0
ARC
  5
4A17
  8
0
 10
262.8283249962007062
 20
29.12036585197745
 30
0.0
 40
0.0090527494662203
 50
339.3313187529101924
 51
359.8446178728058271
  0
ARC
  5
4A18
  8
0
 10
262.8312383131266188
 20
29.1190327319735296
 30
0.0
 40
0.0058604935434695
 50
304.2842185031906865
 51
341.4731120316848205
  0
LINE
  5
4A19
  8
0
 10
262.8657906136774045
 20
29.1203584000872304
 30
0.0
 11
262.8657906136774045
 21
29.1313286199977703
 31
0.0
  0
ARC
  5
4A1A
  8
0
 10
262.8752465784417041
 20
29.1205024832373596
 30
0.0
 40
0.009457062417918
 50
180.8729640815213884
 51
200.4826478433047896
  0
ARC
  5
4A1B
  8
0
 10
262.8725382913426074
 20
29.11949083094553
 30
0.0
 40
0.0065659969793024
 50
200.4826478433085981
 51
233.5251277158502887
  0
LINE
  5
4A1C
  8
0
 10
262.8163120355067122
 20
29.139966924857319
 30
0.0
 11
262.8315643521775087
 21
29.1322209230872318
 31
0.0
  0
ARC
  5
4A1D
  8
0
 10
262.8344664558745762
 20
29.1379353298113202
 30
0.0
 40
0.0064091068080466
 50
243.0759256004855047
 51
270.6531912676508114
  0
LINE
  5
4A1E
  8
0
 10
262.8345395202774739
 20
29.131526639487241
 30
0.0
 11
262.8353734698774815
 21
29.1313103153872284
 31
0.0
  0
LINE
  5
4A1F
  8
0
 10
262.8353734698774815
 20
29.1313103153872284
 30
0.0
 11
262.867800779277502
 21
29.1313298296872389
 31
0.0
  0
LINE
  5
4A20
  8
0
 10
262.867800779277502
 20
29.1313298296872389
 30
0.0
 11
262.8686350018774078
 21
29.1315471575872387
 31
0.0
  0
ARC
  5
4A21
  8
0
 10
262.8686556577109741
 20
29.1381461990543791
 30
0.0
 40
0.0065990737947535
 50
269.8206575564432228
 51
296.5743156099471207
  0
LINE
  5
4A22
  8
0
 10
262.8716078075775044
 20
29.1322442852872392
 30
0.0
 11
262.8868615703610772
 21
29.1400093805300315
 31
0.0
  0
LINE
  5
4A23
  8
0
 10
262.8373704880521018
 20
29.1486476778647692
 30
0.0
 11
262.8373777123774744
 21
29.1376774622872396
 31
0.0
  0
ARC
  5
4A24
  8
0
 10
262.8283249962007062
 20
29.1377020126774511
 30
0.0
 40
0.0090527494662203
 50
339.3313187529101924
 51
359.8446178728058271
  0
ARC
  5
4A25
  8
0
 10
262.8312383131266188
 20
29.1363688926735307
 30
0.0
 40
0.0058604935434695
 50
304.2842185031906865
 51
341.4731120316848205
  0
LINE
  5
4A26
  8
0
 10
262.8657906136774045
 20
29.1376945607872315
 30
0.0
 11
262.8657906136774045
 21
29.1486647806977714
 31
0.0
  0
ARC
  5
4A27
  8
0
 10
262.8752465784417041
 20
29.1378386439373607
 30
0.0
 40
0.009457062417918
 50
180.8729640815213884
 51
200.4826478433047896
  0
ARC
  5
4A28
  8
0
 10
262.8725382913426074
 20
29.1368269916455311
 30
0.0
 40
0.0065659969793024
 50
200.4826478433085981
 51
233.5251277158502887
  0
LINE
  5
4A29
  8
0
 10
262.8345395202774739
 20
29.1488628000872403
 30
0.0
 11
262.8353734698774815
 21
29.1486464759872383
 31
0.0
  0
LINE
  5
4A2A
  8
0
 10
262.8353734698774815
 20
29.1486464759872383
 30
0.0
 11
262.867800779277502
 21
29.1486659902872312
 31
0.0
  0
LINE
  5
4A2B
  8
0
 10
262.867800779277502
 20
29.1486659902872312
 30
0.0
 11
262.8686350018774078
 21
29.1488833181872415
 31
0.0
  0
ARC
  5
4A2C
  8
0
 10
262.8686556577109741
 20
29.1554823596543784
 30
0.0
 40
0.0065990737947535
 50
269.8206575564432228
 51
296.5743156099471207
  0
LINE
  5
4A2D
  8
0
 10
262.8716078075775044
 20
29.1495804458872385
 30
0.0
 11
262.8868615703610772
 21
29.1573455411300309
 31
0.0
  0
LINE
  5
4A2E
  8
0
 10
262.8373704880521018
 20
29.1659838384647685
 30
0.0
 11
262.8373777123774744
 21
29.155013622887239
 31
0.0
  0
ARC
  5
4A2F
  8
0
 10
262.8283249962007062
 20
29.1550381732774504
 30
0.0
 40
0.0090527494662203
 50
339.3313187529101924
 51
359.8446178728058271
  0
ARC
  5
4A30
  8
0
 10
262.8312383131266188
 20
29.15370505327353
 30
0.0
 40
0.0058604935434695
 50
304.2842185031906865
 51
341.4731120316848205
  0
LINE
  5
4A31
  8
0
 10
262.8657906136774045
 20
29.1550307213872415
 30
0.0
 11
262.8657906136774045
 21
29.1660009412977708
 31
0.0
  0
ARC
  5
4A32
  8
0
 10
262.8752465784417041
 20
29.15517480453736
 30
0.0
 40
0.009457062417918
 50
180.8729640815213884
 51
200.4826478433047896
  0
ARC
  5
4A33
  8
0
 10
262.8725382913426074
 20
29.1541631522455305
 30
0.0
 40
0.0065659969793024
 50
200.4826478433085981
 51
233.5251277158502887
  0
LINE
  5
4A34
  8
0
 10
262.8163120355067122
 20
29.1746392461573194
 30
0.0
 11
262.8315643521775087
 21
29.1668932443872393
 31
0.0
  0
ARC
  5
4A35
  8
0
 10
262.8344664558745762
 20
29.1726076511113206
 30
0.0
 40
0.0064091068080466
 50
243.0759256004855047
 51
270.6531912676508114
  0
LINE
  5
4A36
  8
0
 10
262.8345395202774739
 20
29.1661989607872307
 30
0.0
 11
262.8353734698774815
 21
29.1659826366872394
 31
0.0
  0
LINE
  5
4A37
  8
0
 10
262.8353734698774815
 20
29.1659826366872394
 30
0.0
 11
262.867800779277502
 21
29.1660021509872287
 31
0.0
  0
LINE
  5
4A38
  8
0
 10
262.867800779277502
 20
29.1660021509872287
 30
0.0
 11
262.8686350018774078
 21
29.1662194788872391
 31
0.0
  0
ARC
  5
4A39
  8
0
 10
262.8686556577109741
 20
29.1728185203543902
 30
0.0
 40
0.0065990737947535
 50
269.8206575564432228
 51
296.5743156099471207
  0
LINE
  5
4A3A
  8
0
 10
262.8716078075775044
 20
29.1669166065872396
 30
0.0
 11
262.8868615703610772
 21
29.1746817018300284
 31
0.0
  0
LINE
  5
4A3B
  8
0
 10
262.8373704880521018
 20
29.1833199991647696
 30
0.0
 11
262.8373777123774744
 21
29.1723497835872401
 31
0.0
  0
ARC
  5
4A3C
  8
0
 10
262.8283249962007062
 20
29.1723743339774515
 30
0.0
 40
0.0090527494662203
 50
339.3313187529101924
 51
359.8446178728058271
  0
ARC
  5
4A3D
  8
0
 10
262.8312383131266188
 20
29.1710412139735311
 30
0.0
 40
0.0058604935434695
 50
304.2842185031906865
 51
341.4731120316848205
  0
LINE
  5
4A3E
  8
0
 10
262.8657906136774045
 20
29.172366882087239
 30
0.0
 11
262.8657906136774045
 21
29.1833371019977683
 31
0.0
  0
ARC
  5
4A3F
  8
0
 10
262.8752465784417041
 20
29.1725109652373611
 30
0.0
 40
0.009457062417918
 50
180.8729640815213884
 51
200.4826478433047896
  0
ARC
  5
4A40
  8
0
 10
262.8725382913426074
 20
29.1714993129455316
 30
0.0
 40
0.0065659969793024
 50
200.4826478433085981
 51
233.5251277158502887
  0
LINE
  5
4A41
  8
0
 10
262.8163120355067122
 20
29.1919754068573205
 30
0.0
 11
262.8315643521775087
 21
29.1842294050872404
 31
0.0
  0
ARC
  5
4A42
  8
0
 10
262.8344664558745762
 20
29.1899438118113217
 30
0.0
 40
0.0064091068080466
 50
243.0759256004855047
 51
270.6531912676508114
  0
LINE
  5
4A43
  8
0
 10
262.8345395202774739
 20
29.1835351214872389
 30
0.0
 11
262.8353734698774815
 21
29.1833187973872406
 31
0.0
  0
LINE
  5
4A44
  8
0
 10
262.8353734698774815
 20
29.1833187973872406
 30
0.0
 11
262.867800779277502
 21
29.1833383116872405
 31
0.0
  0
LINE
  5
4A45
  8
0
 10
262.867800779277502
 20
29.1833383116872405
 30
0.0
 11
262.8686350018774078
 21
29.1835556395872402
 31
0.0
  0
ARC
  5
4A46
  8
0
 10
262.8686556577109741
 20
29.1901546810543913
 30
0.0
 40
0.0065990737947535
 50
269.8206575564432228
 51
296.5743156099471207
  0
LINE
  5
4A47
  8
0
 10
262.8716078075775044
 20
29.1842527672872407
 30
0.0
 11
262.8868615703610772
 21
29.1920178625300295
 31
0.0
  0
LINE
  5
4A48
  8
0
 10
262.8373704880521018
 20
29.2006561598647707
 30
0.0
 11
262.8373777123774744
 21
29.1896859442872412
 31
0.0
  0
ARC
  5
4A49
  8
0
 10
262.8283249962007062
 20
29.189710494677449
 30
0.0
 40
0.0090527494662203
 50
339.3313187529101924
 51
359.8446178728058271
  0
ARC
  5
4A4A
  8
0
 10
262.8312383131266188
 20
29.1883773746735287
 30
0.0
 40
0.0058604935434695
 50
304.2842185031906865
 51
341.4731120316848205
  0
LINE
  5
4A4B
  8
0
 10
262.8657906136774045
 20
29.1897030427872402
 30
0.0
 11
262.8657906136774045
 21
29.2006732626977694
 31
0.0
  0
ARC
  5
4A4C
  8
0
 10
262.8752465784417041
 20
29.1898471259373586
 30
0.0
 40
0.009457062417918
 50
180.8729640815213884
 51
200.4826478433047896
  0
ARC
  5
4A4D
  8
0
 10
262.8725382913426074
 20
29.1888354736455291
 30
0.0
 40
0.0065659969793024
 50
200.4826478433085981
 51
233.5251277158502887
  0
LINE
  5
4A4E
  8
0
 10
262.8204863845081718
 20
29.2071915935590809
 30
0.0
 11
262.8315643521775087
 21
29.2015655657872308
 31
0.0
  0
ARC
  5
4A4F
  8
0
 10
262.8344664558745762
 20
29.2072799725113192
 30
0.0
 40
0.0064091068080466
 50
243.0759256004855047
 51
270.6531912676508114
  0
LINE
  5
4A50
  8
0
 10
262.8345395202774739
 20
29.20087128218724
 30
0.0
 11
262.8353734698774815
 21
29.200654958087231
 31
0.0
  0
LINE
  5
4A51
  8
0
 10
262.8353734698774815
 20
29.200654958087231
 30
0.0
 11
262.867800779277502
 21
29.2006744723872416
 31
0.0
  0
LINE
  5
4A52
  8
0
 10
262.867800779277502
 20
29.2006744723872416
 30
0.0
 11
262.8686350018774078
 21
29.2008918002872413
 31
0.0
  0
ARC
  5
4A53
  8
0
 10
262.8686556577109741
 20
29.2074908417543888
 30
0.0
 40
0.0065990737947535
 50
269.8206575564432228
 51
296.5743156099471207
  0
LINE
  5
4A54
  8
0
 10
262.8716078075775044
 20
29.2015889279872383
 30
0.0
 11
262.8868615703610772
 21
29.2093540232300306
 31
0.0
  0
LINE
  5
4A55
  8
0
 10
262.8373754028451117
 20
29.2105291547228383
 30
0.0
 11
262.8373777123774744
 21
29.2070221049872387
 31
0.0
  0
ARC
  5
4A56
  8
0
 10
262.8283249962007062
 20
29.2070466553774502
 30
0.0
 40
0.0090527494662203
 50
339.3313187529101924
 51
359.8446178728058271
  0
ARC
  5
4A57
  8
0
 10
262.8312383131266188
 20
29.2057135353735298
 30
0.0
 40
0.0058604935434695
 50
304.2842185031906865
 51
341.4731120316848205
  0
LINE
  5
4A58
  8
0
 10
262.8657906136774045
 20
29.2070392034872306
 30
0.0
 11
262.8657906136774045
 21
29.2152031743159704
 31
0.0
  0
ARC
  5
4A59
  8
0
 10
262.8752465784417041
 20
29.2071832866373597
 30
0.0
 40
0.009457062417918
 50
180.8729640815213884
 51
200.4826478433047896
  0
ARC
  5
4A5A
  8
0
 10
262.8725382913426074
 20
29.2061716343455302
 30
0.0
 40
0.0065659969793024
 50
200.4826478433085981
 51
233.5251277158502887
  0
LINE
  5
4A5B
  8
0
 10
262.7197199577781248
 20
29.1716857652459183
 30
0.0
 11
262.7292779073774796
 21
29.1668316898872391
 31
0.0
  0
ARC
  5
4A5C
  8
0
 10
262.7321800110744903
 20
29.1725460966113204
 30
0.0
 40
0.0064091068080466
 50
243.0759256004855047
 51
270.6531912676508114
  0
LINE
  5
4A5D
  8
0
 10
262.7322530754773879
 20
29.1661374062872412
 30
0.0
 11
262.7330870250775092
 21
29.1659210821872392
 31
0.0
  0
LINE
  5
4A5E
  8
0
 10
262.7330870250775092
 20
29.1659210821872392
 30
0.0
 11
262.7655143344774729
 21
29.1659405964872391
 31
0.0
  0
LINE
  5
4A5F
  8
0
 10
262.7655143344774729
 20
29.1659405964872391
 30
0.0
 11
262.7663485570773787
 21
29.1661579243872389
 31
0.0
  0
ARC
  5
4A60
  8
0
 10
262.7663692129110018
 20
29.1727569658543793
 30
0.0
 40
0.0065990737947535
 50
269.8206575564432228
 51
296.5743156099471207
  0
LINE
  5
4A61
  8
0
 10
262.7693213627774753
 20
29.1668550520872394
 30
0.0
 11
262.7845751255612186
 21
29.1746201473300317
 31
0.0
  0
LINE
  5
4A62
  8
0
 10
262.7350861836957279
 20
29.1800081580472295
 30
0.0
 11
262.7350912675773884
 21
29.1722882290872398
 31
0.0
  0
ARC
  5
4A63
  8
0
 10
262.7260385514006771
 20
29.1723127794774513
 30
0.0
 40
0.0090527494662203
 50
339.3313187529101924
 51
359.8446178728058271
  0
ARC
  5
4A64
  8
0
 10
262.7289518683265896
 20
29.1709796594735309
 30
0.0
 40
0.0058604935434695
 50
304.2842185031906865
 51
341.4731120316848205
  0
LINE
  5
4A65
  8
0
 10
262.7635041688773754
 20
29.1723053275872388
 30
0.0
 11
262.7635041688773754
 21
29.1832755474977716
 31
0.0
  0
ARC
  5
4A66
  8
0
 10
262.7729601336416749
 20
29.1724494107373609
 30
0.0
 40
0.009457062417918
 50
180.8729640815213884
 51
200.4826478433047896
  0
ARC
  5
4A67
  8
0
 10
262.7702518465425783
 20
29.1714377584455313
 30
0.0
 40
0.0065659969793024
 50
200.4826478433085981
 51
233.5251277158502887
  0
LINE
  5
4A68
  8
0
 10
262.7422244682887822
 20
29.1832627416724115
 30
0.0
 11
262.7655143344774729
 21
29.1832767571872402
 31
0.0
  0
LINE
  5
4A69
  8
0
 10
262.7655143344774729
 20
29.1832767571872402
 30
0.0
 11
262.7663485570773787
 21
29.18349408508724
 31
0.0
  0
ARC
  5
4A6A
  8
0
 10
262.7663692129110018
 20
29.1900931265543804
 30
0.0
 40
0.0065990737947535
 50
269.8206575564432228
 51
296.5743156099471207
  0
LINE
  5
4A6B
  8
0
 10
262.7693213627774753
 20
29.1841912127872405
 30
0.0
 11
262.7845751255612186
 21
29.1919563080300293
 31
0.0
  0
LINE
  5
4A6C
  8
0
 10
262.7635041688773754
 20
29.1896414882872399
 30
0.0
 11
262.7635041688773754
 21
29.1916771569541496
 31
0.0
  0
ARC
  5
4A6D
  8
0
 10
262.7729601336416749
 20
29.1897855714373584
 30
0.0
 40
0.009457062417918
 50
180.8729640815213884
 51
200.4826478433047896
  0
ARC
  5
4A6E
  8
0
 10
262.7702518465425783
 20
29.1887739191455289
 30
0.0
 40
0.0065659969793024
 50
200.4826478433085981
 51
233.5251277158502887
  0
LINE
  5
4A6F
  8
0
 10
262.7140255907066262
 20
29.1572415309573216
 30
0.0
 11
262.7292779073774796
 21
29.1494955291872415
 31
0.0
  0
ARC
  5
4A70
  8
0
 10
262.7321800110744903
 20
29.1552099359113193
 30
0.0
 40
0.0064091068080466
 50
243.0759256004855047
 51
270.6531912676508114
  0
LINE
  5
4A71
  8
0
 10
262.7322530754773879
 20
29.1488012455872401
 30
0.0
 11
262.7330870250775092
 21
29.1485849214872417
 31
0.0
  0
LINE
  5
4A72
  8
0
 10
262.7330870250775092
 20
29.1485849214872417
 30
0.0
 11
262.7655143344774729
 21
29.1486044357872309
 31
0.0
  0
LINE
  5
4A73
  8
0
 10
262.7655143344774729
 20
29.1486044357872309
 30
0.0
 11
262.7663485570773787
 21
29.1488217636872413
 31
0.0
  0
LINE
  5
4A74
  8
0
 10
262.7350840432520727
 20
29.1659222839647683
 30
0.0
 11
262.7350912675773884
 21
29.1549520683872387
 31
0.0
  0
ARC
  5
4A75
  8
0
 10
262.7260385514006771
 20
29.1549766187774608
 30
0.0
 40
0.0090527494662203
 50
339.3313187529101924
 51
359.8446178728058271
  0
ARC
  5
4A76
  8
0
 10
262.7289518683265896
 20
29.1536434987735404
 30
0.0
 40
0.0058604935434695
 50
304.2842185031906865
 51
341.4731120316848205
  0
LINE
  5
4A77
  8
0
 10
262.7635041688773754
 20
29.1549691668872413
 30
0.0
 11
262.7635041688773754
 21
29.1659393867977705
 31
0.0
  0
ARC
  5
4A78
  8
0
 10
262.7729601336416749
 20
29.1551132500373598
 30
0.0
 40
0.009457062417918
 50
180.8729640815213884
 51
200.4826478433047896
  0
ARC
  5
4A79
  8
0
 10
262.7702518465425783
 20
29.1541015977455409
 30
0.0
 40
0.0065659969793024
 50
200.4826478433085981
 51
233.5251277158502887
  0
LINE
  5
4A7A
  8
0
 10
262.7140255907066262
 20
29.1399053703573188
 30
0.0
 11
262.7292779073774796
 21
29.1321593685872386
 31
0.0
  0
ARC
  5
4A7B
  8
0
 10
262.7321800110744903
 20
29.1378737753113199
 30
0.0
 40
0.0064091068080466
 50
243.0759256004855047
 51
270.6531912676508114
  0
LINE
  5
4A7C
  8
0
 10
262.7322530754773879
 20
29.1314650849872301
 30
0.0
 11
262.7330870250775092
 21
29.1312487608872388
 31
0.0
  0
LINE
  5
4A7D
  8
0
 10
262.7330870250775092
 20
29.1312487608872388
 30
0.0
 11
262.7655143344774729
 21
29.1312682751872387
 31
0.0
  0
LINE
  5
4A7E
  8
0
 10
262.7655143344774729
 20
29.1312682751872387
 30
0.0
 11
262.7663485570773787
 21
29.1314856030872313
 31
0.0
  0
ARC
  5
4A7F
  8
0
 10
262.7663692129110018
 20
29.1380846445543789
 30
0.0
 40
0.0065990737947535
 50
269.8206575564432228
 51
296.5743156099471207
  0
LINE
  5
4A80
  8
0
 10
262.7693213627774753
 20
29.132182730787239
 30
0.0
 11
262.7845751255612186
 21
29.1399478260300313
 31
0.0
  0
LINE
  5
4A81
  8
0
 10
262.7350840432520727
 20
29.148586123364769
 30
0.0
 11
262.7350912675773884
 21
29.1376159077872394
 31
0.0
  0
ARC
  5
4A82
  8
0
 10
262.7260385514006771
 20
29.1376404581774509
 30
0.0
 40
0.0090527494662203
 50
339.3313187529101924
 51
359.8446178728058271
  0
ARC
  5
4A83
  8
0
 10
262.7289518683265896
 20
29.1363073381735305
 30
0.0
 40
0.0058604935434695
 50
304.2842185031906865
 51
341.4731120316848205
  0
LINE
  5
4A84
  8
0
 10
262.7635041688773754
 20
29.1376330062872384
 30
0.0
 11
262.7635041688773754
 21
29.1486032261977712
 31
0.0
  0
ARC
  5
4A85
  8
0
 10
262.7729601336416749
 20
29.1377770894373604
 30
0.0
 40
0.009457062417918
 50
180.8729640815213884
 51
200.4826478433047896
  0
ARC
  5
4A86
  8
0
 10
262.7702518465425783
 20
29.1367654371455309
 30
0.0
 40
0.0065659969793024
 50
200.4826478433085981
 51
233.5251277158502887
  0
LINE
  5
4A87
  8
0
 10
262.7140255907066262
 20
29.1225692096573212
 30
0.0
 11
262.7292779073774796
 21
29.1148232078872411
 31
0.0
  0
ARC
  5
4A88
  8
0
 10
262.7321800110744903
 20
29.1205376146113188
 30
0.0
 40
0.0064091068080466
 50
243.0759256004855047
 51
270.6531912676508114
  0
LINE
  5
4A89
  8
0
 10
262.7322530754773879
 20
29.1141289242872396
 30
0.0
 11
262.7330870250775092
 21
29.1139126001872413
 31
0.0
  0
LINE
  5
4A8A
  8
0
 10
262.7330870250775092
 20
29.1139126001872413
 30
0.0
 11
262.7655143344774729
 21
29.1139321144872412
 31
0.0
  0
LINE
  5
4A8B
  8
0
 10
262.7655143344774729
 20
29.1139321144872412
 30
0.0
 11
262.7663485570773787
 21
29.1141494423872409
 31
0.0
  0
ARC
  5
4A8C
  8
0
 10
262.7663692129110018
 20
29.1207484838543884
 30
0.0
 40
0.0065990737947535
 50
269.8206575564432228
 51
296.5743156099471207
  0
LINE
  5
4A8D
  8
0
 10
262.7693213627774753
 20
29.1148465700872414
 30
0.0
 11
262.7845751255612186
 21
29.1226116653300302
 31
0.0
  0
LINE
  5
4A8E
  8
0
 10
262.7350840432520727
 20
29.1312499626647714
 30
0.0
 11
262.7350912675773884
 21
29.1202797470872383
 31
0.0
  0
ARC
  5
4A8F
  8
0
 10
262.7260385514006771
 20
29.1203042974774604
 30
0.0
 40
0.0090527494662203
 50
339.3313187529101924
 51
359.8446178728058271
  0
ARC
  5
4A90
  8
0
 10
262.7289518683265896
 20
29.1189711774735294
 30
0.0
 40
0.0058604935434695
 50
304.2842185031906865
 51
341.4731120316848205
  0
LINE
  5
4A91
  8
0
 10
262.7635041688773754
 20
29.1202968455872409
 30
0.0
 11
262.7635041688773754
 21
29.1312670654977701
 31
0.0
  0
ARC
  5
4A92
  8
0
 10
262.7729601336416749
 20
29.1204409287373593
 30
0.0
 40
0.009457062417918
 50
180.8729640815213884
 51
200.4826478433047896
  0
ARC
  5
4A93
  8
0
 10
262.7702518465425783
 20
29.1194292764455298
 30
0.0
 40
0.0065659969793024
 50
200.4826478433085981
 51
233.5251277158502887
  0
LINE
  5
4A94
  8
0
 10
262.7380689489070278
 20
29.0965794375391305
 30
0.0
 11
262.7655143344774729
 21
29.0965959537872401
 31
0.0
  0
LINE
  5
4A95
  8
0
 10
262.7655143344774729
 20
29.0965959537872401
 30
0.0
 11
262.7663485570773787
 21
29.0968132816872398
 31
0.0
  0
ARC
  5
4A96
  8
0
 10
262.7663692129110018
 20
29.1034123231543909
 30
0.0
 40
0.0065990737947535
 50
269.8206575564432228
 51
296.5743156099471207
  0
LINE
  5
4A97
  8
0
 10
262.7693213627774753
 20
29.0975104093872403
 30
0.0
 11
262.7845751255612186
 21
29.1052755046300291
 31
0.0
  0
LINE
  5
4A98
  8
0
 10
262.7635041688773754
 20
29.1029606848872398
 30
0.0
 11
262.7635041688773754
 21
29.113930904797769
 31
0.0
  0
ARC
  5
4A99
  8
0
 10
262.7729601336416749
 20
29.1031047680373582
 30
0.0
 40
0.009457062417918
 50
180.8729640815213884
 51
200.4826478433047896
  0
ARC
  5
4A9A
  8
0
 10
262.7702518465425783
 20
29.1020931157455287
 30
0.0
 40
0.0065659969793024
 50
200.4826478433085981
 51
233.5251277158502887
  0
LINE
  5
4A9B
  8
0
 10
262.867455257906613
 20
29.0793211396573206
 30
0.0
 11
262.8827075745775232
 21
29.0715751378872405
 31
0.0
  0
ARC
  5
4A9C
  8
0
 10
262.8856096782744771
 20
29.0772895446113218
 30
0.0
 40
0.0064091068080466
 50
243.0759256004855047
 51
270.6531912676508114
  0
LINE
  5
4A9D
  8
0
 10
262.8856827426773748
 20
29.0708808542872283
 30
0.0
 11
262.8865166922773824
 21
29.0706645301872406
 31
0.0
  0
LINE
  5
4A9E
  8
0
 10
262.8865166922773824
 20
29.0706645301872406
 30
0.0
 11
262.9189440016775166
 21
29.0706840444872405
 31
0.0
  0
LINE
  5
4A9F
  8
0
 10
262.9189440016775166
 20
29.0706840444872405
 30
0.0
 11
262.9197782242774792
 21
29.0709013723872403
 31
0.0
  0
ARC
  5
4AA0
  8
0
 10
262.9197988801109886
 20
29.0775004138543913
 30
0.0
 40
0.0065990737947535
 50
269.8206575564432228
 51
296.5743156099471207
  0
LINE
  5
4AA1
  8
0
 10
262.922751029977519
 20
29.0715985000872408
 30
0.0
 11
262.9380047927610917
 21
29.0793635953300296
 31
0.0
  0
LINE
  5
4AA2
  8
0
 10
262.8885137104520027
 20
29.0880018926647708
 30
0.0
 11
262.8885209347774889
 21
29.0770316770872306
 31
0.0
  0
ARC
  5
4AA3
  8
0
 10
262.8794682186007208
 20
29.0770562274774491
 30
0.0
 40
0.0090527494662203
 50
339.3313187529101924
 51
359.8446178728058271
  0
ARC
  5
4AA4
  8
0
 10
262.8823815355265765
 20
29.0757231074735287
 30
0.0
 40
0.0058604935434695
 50
304.2842185031906865
 51
341.4731120316848205
  0
LINE
  5
4AA5
  8
0
 10
262.9169338360774759
 20
29.0770487755872402
 30
0.0
 11
262.9169338360774759
 21
29.0880189954977695
 31
0.0
  0
ARC
  5
4AA6
  8
0
 10
262.9263898008417186
 20
29.0771928587373587
 30
0.0
 40
0.009457062417918
 50
180.8729640815213884
 51
200.4826478433047896
  0
ARC
  5
4AA7
  8
0
 10
262.923681513742622
 20
29.0761812064455292
 30
0.0
 40
0.0065659969793024
 50
200.4826478433085981
 51
233.5251277158502887
  0
LINE
  5
4AA8
  8
0
 10
262.867455257906613
 20
29.0966573003573217
 30
0.0
 11
262.8827075745775232
 21
29.0889112985872309
 31
0.0
  0
ARC
  5
4AA9
  8
0
 10
262.8856096782744771
 20
29.0946257053113193
 30
0.0
 40
0.0064091068080466
 50
243.0759256004855047
 51
270.6531912676508114
  0
LINE
  5
4AAA
  8
0
 10
262.8856827426773748
 20
29.0882170149872401
 30
0.0
 11
262.8865166922773824
 21
29.0880006908872311
 31
0.0
  0
LINE
  5
4AAB
  8
0
 10
262.8865166922773824
 20
29.0880006908872311
 30
0.0
 11
262.9189440016775166
 21
29.0880202051872416
 31
0.0
  0
LINE
  5
4AAC
  8
0
 10
262.9189440016775166
 20
29.0880202051872416
 30
0.0
 11
262.9197782242774792
 21
29.0882375330872414
 31
0.0
  0
ARC
  5
4AAD
  8
0
 10
262.9197988801109886
 20
29.0948365745543889
 30
0.0
 40
0.0065990737947535
 50
269.8206575564432228
 51
296.5743156099471207
  0
LINE
  5
4AAE
  8
0
 10
262.922751029977519
 20
29.0889346607872383
 30
0.0
 11
262.9380047927610917
 21
29.0966997560300307
 31
0.0
  0
LINE
  5
4AAF
  8
0
 10
262.8885137104520027
 20
29.1053380533647683
 30
0.0
 11
262.8885209347774889
 21
29.0943678377872388
 31
0.0
  0
ARC
  5
4AB0
  8
0
 10
262.8794682186007208
 20
29.0943923881774502
 30
0.0
 40
0.0090527494662203
 50
339.3313187529101924
 51
359.8446178728058271
  0
ARC
  5
4AB1
  8
0
 10
262.8823815355265765
 20
29.0930592681735298
 30
0.0
 40
0.0058604935434695
 50
304.2842185031906865
 51
341.4731120316848205
  0
LINE
  5
4AB2
  8
0
 10
262.9169338360774759
 20
29.0943849362872307
 30
0.0
 11
262.9169338360774759
 21
29.1053551561977706
 31
0.0
  0
ARC
  5
4AB3
  8
0
 10
262.9263898008417186
 20
29.0945290194373598
 30
0.0
 40
0.009457062417918
 50
180.8729640815213884
 51
200.4826478433047896
  0
ARC
  5
4AB4
  8
0
 10
262.923681513742622
 20
29.0935173671455303
 30
0.0
 40
0.0065659969793024
 50
200.4826478433085981
 51
233.5251277158502887
  0
LINE
  5
4AB5
  8
0
 10
262.867455257906613
 20
29.1139934610573192
 30
0.0
 11
262.8827075745775232
 21
29.1062474592872285
 31
0.0
  0
ARC
  5
4AB6
  8
0
 10
262.8856096782744771
 20
29.1119618660113204
 30
0.0
 40
0.0064091068080466
 50
243.0759256004855047
 51
270.6531912676508114
  0
LINE
  5
4AB7
  8
0
 10
262.8856827426773748
 20
29.1055531756872412
 30
0.0
 11
262.8865166922773824
 21
29.1053368515872286
 31
0.0
  0
LINE
  5
4AB8
  8
0
 10
262.8865166922773824
 20
29.1053368515872286
 30
0.0
 11
262.9189440016775166
 21
29.1053563658872392
 31
0.0
  0
LINE
  5
4AB9
  8
0
 10
262.9189440016775166
 20
29.1053563658872392
 30
0.0
 11
262.9197782242774792
 21
29.1055736937872389
 31
0.0
  0
ARC
  5
4ABA
  8
0
 10
262.9197988801109886
 20
29.1121727352543793
 30
0.0
 40
0.0065990737947535
 50
269.8206575564432228
 51
296.5743156099471207
  0
LINE
  5
4ABB
  8
0
 10
262.922751029977519
 20
29.1062708214872394
 30
0.0
 11
262.9380047927610917
 21
29.1140359167300318
 31
0.0
  0
LINE
  5
4ABC
  8
0
 10
262.8885137104520027
 20
29.1226742140647694
 30
0.0
 11
262.8885209347774889
 21
29.1117039984872399
 31
0.0
  0
ARC
  5
4ABD
  8
0
 10
262.8794682186007208
 20
29.1117285488774513
 30
0.0
 40
0.0090527494662203
 50
339.3313187529101924
 51
359.8446178728058271
  0
ARC
  5
4ABE
  8
0
 10
262.8823815355265765
 20
29.1103954288735309
 30
0.0
 40
0.0058604935434695
 50
304.2842185031906865
 51
341.4731120316848205
  0
LINE
  5
4ABF
  8
0
 10
262.9169338360774759
 20
29.1117210969872318
 30
0.0
 11
262.9169338360774759
 21
29.1226913168977717
 31
0.0
  0
ARC
  5
4AC0
  8
0
 10
262.9263898008417186
 20
29.1118651801373609
 30
0.0
 40
0.009457062417918
 50
180.8729640815213884
 51
200.4826478433047896
  0
ARC
  5
4AC1
  8
0
 10
262.923681513742622
 20
29.1108535278455314
 30
0.0
 40
0.0065659969793024
 50
200.4826478433085981
 51
233.5251277158502887
  0
LINE
  5
4AC2
  8
0
 10
262.867455257906613
 20
29.1313296217573203
 30
0.0
 11
262.8827075745775232
 21
29.1235836199872402
 31
0.0
  0
ARC
  5
4AC3
  8
0
 10
262.8856096782744771
 20
29.1292980267113215
 30
0.0
 40
0.0064091068080466
 50
243.0759256004855047
 51
270.6531912676508114
  0
LINE
  5
4AC4
  8
0
 10
262.8856827426773748
 20
29.1228893363872388
 30
0.0
 11
262.8865166922773824
 21
29.1226730122872404
 31
0.0
  0
LINE
  5
4AC5
  8
0
 10
262.8865166922773824
 20
29.1226730122872404
 30
0.0
 11
262.9189440016775166
 21
29.1226925265872403
 31
0.0
  0
LINE
  5
4AC6
  8
0
 10
262.9189440016775166
 20
29.1226925265872403
 30
0.0
 11
262.9197782242774792
 21
29.12290985448724
 31
0.0
  0
ARC
  5
4AC7
  8
0
 10
262.9197988801109886
 20
29.1295088959543911
 30
0.0
 40
0.0065990737947535
 50
269.8206575564432228
 51
296.5743156099471207
  0
LINE
  5
4AC8
  8
0
 10
262.922751029977519
 20
29.1236069821872405
 30
0.0
 11
262.9380047927610917
 21
29.1313720774300293
 31
0.0
  0
LINE
  5
4AC9
  8
0
 10
262.8885137104520027
 20
29.1400103747647599
 30
0.0
 11
262.8885209347774889
 21
29.1290401591872303
 31
0.0
  0
ARC
  5
4ACA
  8
0
 10
262.8794682186007208
 20
29.1290647095774489
 30
0.0
 40
0.0090527494662203
 50
339.3313187529101924
 51
359.8446178728058271
  0
ARC
  5
4ACB
  8
0
 10
262.8823815355265765
 20
29.1277315895735285
 30
0.0
 40
0.0058604935434695
 50
304.2842185031906865
 51
341.4731120316848205
  0
LINE
  5
4ACC
  8
0
 10
262.9169338360774759
 20
29.1290572576872293
 30
0.0
 11
262.9169338360774759
 21
29.1400274775977692
 31
0.0
  0
ARC
  5
4ACD
  8
0
 10
262.9263898008417186
 20
29.1292013408373585
 30
0.0
 40
0.009457062417918
 50
180.8729640815213884
 51
200.4826478433047896
  0
ARC
  5
4ACE
  8
0
 10
262.923681513742622
 20
29.1281896885455289
 30
0.0
 40
0.0065659969793024
 50
200.4826478433085981
 51
233.5251277158502887
  0
LINE
  5
4ACF
  8
0
 10
262.867455257906613
 20
29.1486657823573196
 30
0.0
 11
262.8827075745775232
 21
29.1409197805872395
 31
0.0
  0
ARC
  5
4AD0
  8
0
 10
262.8856096782744771
 20
29.1466341873113208
 30
0.0
 40
0.0064091068080466
 50
243.0759256004855047
 51
270.6531912676508114
  0
LINE
  5
4AD1
  8
0
 10
262.8856827426773748
 20
29.140225496987231
 30
0.0
 11
262.8865166922773824
 21
29.1400091728872397
 31
0.0
  0
LINE
  5
4AD2
  8
0
 10
262.8865166922773824
 20
29.1400091728872397
 30
0.0
 11
262.9189440016775166
 21
29.1400286871872289
 31
0.0
  0
LINE
  5
4AD3
  8
0
 10
262.9189440016775166
 20
29.1400286871872289
 30
0.0
 11
262.9197782242774792
 21
29.1402460150872393
 31
0.0
  0
ARC
  5
4AD4
  8
0
 10
262.9197988801109886
 20
29.1468450565543904
 30
0.0
 40
0.0065990737947535
 50
269.8206575564432228
 51
296.5743156099471207
  0
LINE
  5
4AD5
  8
0
 10
262.922751029977519
 20
29.1409431427872399
 30
0.0
 11
262.9380047927610917
 21
29.1487082380300286
 31
0.0
  0
LINE
  5
4AD6
  8
0
 10
262.8885137104520027
 20
29.1573465353647698
 30
0.0
 11
262.8885209347774889
 21
29.1463763197872403
 31
0.0
  0
ARC
  5
4AD7
  8
0
 10
262.8794682186007208
 20
29.1464008701774517
 30
0.0
 40
0.0090527494662203
 50
339.3313187529101924
 51
359.8446178728058271
  0
ARC
  5
4AD8
  8
0
 10
262.8823815355265765
 20
29.1450677501735314
 30
0.0
 40
0.0058604935434695
 50
304.2842185031906865
 51
341.4731120316848205
  0
LINE
  5
4AD9
  8
0
 10
262.9169338360774759
 20
29.1463934182872393
 30
0.0
 11
262.9169338360774759
 21
29.1573636381977686
 31
0.0
  0
ARC
  5
4ADA
  8
0
 10
262.9263898008417186
 20
29.1465375014373613
 30
0.0
 40
0.009457062417918
 50
180.8729640815213884
 51
200.4826478433047896
  0
ARC
  5
4ADB
  8
0
 10
262.923681513742622
 20
29.1455258491455282
 30
0.0
 40
0.0065659969793024
 50
200.4826478433085981
 51
233.5251277158502887
  0
LINE
  5
4ADC
  8
0
 10
262.867455257906613
 20
29.1660019430573207
 30
0.0
 11
262.8827075745775232
 21
29.1582559412872406
 31
0.0
  0
ARC
  5
4ADD
  8
0
 10
262.8856096782744771
 20
29.1639703480113184
 30
0.0
 40
0.0064091068080466
 50
243.0759256004855047
 51
270.6531912676508114
  0
LINE
  5
4ADE
  8
0
 10
262.8856827426773748
 20
29.1575616576872392
 30
0.0
 11
262.8865166922773824
 21
29.1573453335872408
 31
0.0
  0
LINE
  5
4ADF
  8
0
 10
262.8865166922773824
 20
29.1573453335872408
 30
0.0
 11
262.9189440016775166
 21
29.1573648478872407
 31
0.0
  0
LINE
  5
4AE0
  8
0
 10
262.9189440016775166
 20
29.1573648478872407
 30
0.0
 11
262.9197782242774792
 21
29.1575821757872404
 31
0.0
  0
ARC
  5
4AE1
  8
0
 10
262.9197988801109886
 20
29.1641812172543915
 30
0.0
 40
0.0065990737947535
 50
269.8206575564432228
 51
296.5743156099471207
  0
LINE
  5
4AE2
  8
0
 10
262.922751029977519
 20
29.158279303487241
 30
0.0
 11
262.9380047927610917
 21
29.1660443987300297
 31
0.0
  0
LINE
  5
4AE3
  8
0
 10
262.8885137104520027
 20
29.1746826960647709
 30
0.0
 11
262.8885209347774889
 21
29.1637124804872414
 31
0.0
  0
ARC
  5
4AE4
  8
0
 10
262.8794682186007208
 20
29.1637370308774493
 30
0.0
 40
0.0090527494662203
 50
339.3313187529101924
 51
359.8446178728058271
  0
ARC
  5
4AE5
  8
0
 10
262.8823815355265765
 20
29.1624039108735289
 30
0.0
 40
0.0058604935434695
 50
304.2842185031906865
 51
341.4731120316848205
  0
LINE
  5
4AE6
  8
0
 10
262.9169338360774759
 20
29.1637295789872404
 30
0.0
 11
262.9169338360774759
 21
29.1746997988977697
 31
0.0
  0
ARC
  5
4AE7
  8
0
 10
262.9263898008417186
 20
29.1638736621373589
 30
0.0
 40
0.009457062417918
 50
180.8729640815213884
 51
200.4826478433047896
  0
ARC
  5
4AE8
  8
0
 10
262.923681513742622
 20
29.1628620098455293
 30
0.0
 40
0.0065659969793024
 50
200.4826478433085981
 51
233.5251277158502887
  0
LINE
  5
4AE9
  8
0
 10
262.867455257906613
 20
29.1833381037573183
 30
0.0
 11
262.8827075745775232
 21
29.1755921019872311
 31
0.0
  0
ARC
  5
4AEA
  8
0
 10
262.8856096782744771
 20
29.1813065087113195
 30
0.0
 40
0.0064091068080466
 50
243.0759256004855047
 51
270.6531912676508114
  0
LINE
  5
4AEB
  8
0
 10
262.8856827426773748
 20
29.1748978183872403
 30
0.0
 11
262.8865166922773824
 21
29.1746814942872383
 31
0.0
  0
LINE
  5
4AEC
  8
0
 10
262.8865166922773824
 20
29.1746814942872383
 30
0.0
 11
262.9189440016775166
 21
29.1747010085872382
 31
0.0
  0
LINE
  5
4AED
  8
0
 10
262.9189440016775166
 20
29.1747010085872382
 30
0.0
 11
262.9197782242774792
 21
29.1749183364872415
 31
0.0
  0
ARC
  5
4AEE
  8
0
 10
262.9197988801109886
 20
29.181517377954389
 30
0.0
 40
0.0065990737947535
 50
269.8206575564432228
 51
296.5743156099471207
  0
LINE
  5
4AEF
  8
0
 10
262.922751029977519
 20
29.1756154641872385
 30
0.0
 11
262.9380047927610917
 21
29.1833805594300308
 31
0.0
  0
LINE
  5
4AF0
  8
0
 10
262.8885137104520027
 20
29.1920188567647685
 30
0.0
 11
262.8885209347774889
 21
29.181048641187239
 31
0.0
  0
ARC
  5
4AF1
  8
0
 10
262.8794682186007208
 20
29.1810731915774504
 30
0.0
 40
0.0090527494662203
 50
339.3313187529101924
 51
359.8446178728058271
  0
ARC
  5
4AF2
  8
0
 10
262.8823815355265765
 20
29.17974007157353
 30
0.0
 40
0.0058604935434695
 50
304.2842185031906865
 51
341.4731120316848205
  0
LINE
  5
4AF3
  8
0
 10
262.9169338360774759
 20
29.1810657396872308
 30
0.0
 11
262.9169338360774759
 21
29.1920359595977708
 31
0.0
  0
ARC
  5
4AF4
  8
0
 10
262.9263898008417186
 20
29.18120982283736
 30
0.0
 40
0.009457062417918
 50
180.8729640815213884
 51
200.4826478433047896
  0
ARC
  5
4AF5
  8
0
 10
262.923681513742622
 20
29.1801981705455304
 30
0.0
 40
0.0065659969793024
 50
200.4826478433085981
 51
233.5251277158502887
  0
LINE
  5
4AF6
  8
0
 10
262.867455257906613
 20
29.2006742644573194
 30
0.0
 11
262.8827075745775232
 21
29.1929282626872393
 31
0.0
  0
ARC
  5
4AF7
  8
0
 10
262.8856096782744771
 20
29.1986426694113206
 30
0.0
 40
0.0064091068080466
 50
243.0759256004855047
 51
270.6531912676508114
  0
LINE
  5
4AF8
  8
0
 10
262.8856827426773748
 20
29.1922339790872307
 30
0.0
 11
262.8865166922773824
 21
29.1920176549872394
 31
0.0
  0
LINE
  5
4AF9
  8
0
 10
262.8865166922773824
 20
29.1920176549872394
 30
0.0
 11
262.9189440016775166
 21
29.1920371692872394
 31
0.0
  0
LINE
  5
4AFA
  8
0
 10
262.9189440016775166
 20
29.1920371692872394
 30
0.0
 11
262.9197782242774792
 21
29.1922544971872284
 31
0.0
  0
ARC
  5
4AFB
  8
0
 10
262.9197988801109886
 20
29.1988535386543901
 30
0.0
 40
0.0065990737947535
 50
269.8206575564432228
 51
296.5743156099471207
  0
LINE
  5
4AFC
  8
0
 10
262.922751029977519
 20
29.1929516248872396
 30
0.0
 11
262.9380047927610917
 21
29.2007167201300284
 31
0.0
  0
LINE
  5
4AFD
  8
0
 10
262.8885137104520027
 20
29.2093550174647696
 30
0.0
 11
262.8885209347774889
 21
29.1983848018872401
 31
0.0
  0
ARC
  5
4AFE
  8
0
 10
262.8794682186007208
 20
29.1984093522774515
 30
0.0
 40
0.0090527494662203
 50
339.3313187529101924
 51
359.8446178728058271
  0
ARC
  5
4AFF
  8
0
 10
262.8823815355265765
 20
29.1970762322735311
 30
0.0
 40
0.0058604935434695
 50
304.2842185031906865
 51
341.4731120316848205
  0
LINE
  5
4B00
  8
0
 10
262.9169338360774759
 20
29.198401900387239
 30
0.0
 11
262.9169338360774759
 21
29.2093721202977683
 31
0.0
  0
ARC
  5
4B01
  8
0
 10
262.9263898008417186
 20
29.1985459835373611
 30
0.0
 40
0.009457062417918
 50
180.8729640815213884
 51
200.4826478433047896
  0
ARC
  5
4B02
  8
0
 10
262.923681513742622
 20
29.1975343312455315
 30
0.0
 40
0.0065659969793024
 50
200.4826478433085981
 51
233.5251277158502887
  0
LINE
  5
4B03
  8
0
 10
262.8714262717306269
 20
29.2159937164321413
 30
0.0
 11
262.8827075745775232
 21
29.2102644233872404
 31
0.0
  0
ARC
  5
4B04
  8
0
 10
262.8856096782744771
 20
29.2159788301113217
 30
0.0
 40
0.0064091068080466
 50
243.0759256004855047
 51
270.6531912676508114
  0
LINE
  5
4B05
  8
0
 10
262.8856827426773748
 20
29.2095701397872283
 30
0.0
 11
262.8865166922773824
 21
29.2093538156872405
 31
0.0
  0
LINE
  5
4B06
  8
0
 10
262.8865166922773824
 20
29.2093538156872405
 30
0.0
 11
262.9189440016775166
 21
29.2093733299872405
 31
0.0
  0
LINE
  5
4B07
  8
0
 10
262.9189440016775166
 20
29.2093733299872405
 30
0.0
 11
262.9197782242774792
 21
29.2095906578872402
 31
0.0
  0
ARC
  5
4B08
  8
0
 10
262.9197988801109886
 20
29.2161896993543913
 30
0.0
 40
0.0065990737947535
 50
269.8206575564432228
 51
296.5743156099471207
  0
LINE
  5
4B09
  8
0
 10
262.922751029977519
 20
29.2102877855872407
 30
0.0
 11
262.9380047927610917
 21
29.2180528808300295
 31
0.0
  0
LINE
  5
4B0A
  8
0
 10
262.8885193232081861
 20
29.2181681478330297
 30
0.0
 11
262.8885209347774889
 21
29.2157209625872305
 31
0.0
  0
ARC
  5
4B0B
  8
0
 10
262.8794682186007208
 20
29.215745512977449
 30
0.0
 40
0.0090527494662203
 50
339.3313187529101924
 51
359.8446178728058271
  0
ARC
  5
4B0C
  8
0
 10
262.8823815355265765
 20
29.2144123929735287
 30
0.0
 40
0.0058604935434695
 50
304.2842185031906865
 51
341.4731120316848205
  0
LINE
  5
4B0D
  8
0
 10
262.9169338360774759
 20
29.2157380610872401
 30
0.0
 11
262.9169338360774759
 21
29.2210492838764111
 31
0.0
  0
ARC
  5
4B0E
  8
0
 10
262.9263898008417186
 20
29.2158821442373586
 30
0.0
 40
0.009457062417918
 50
180.8729640815213884
 51
200.4826478433047896
  0
ARC
  5
4B0F
  8
0
 10
262.923681513742622
 20
29.2148704919455291
 30
0.0
 40
0.0065659969793024
 50
200.4826478433085981
 51
233.5251277158502887
  0
LINE
  5
4B10
  8
0
 10
262.9185984802066969
 20
29.2093731220573183
 30
0.0
 11
262.9338507968773797
 21
29.2016271202872311
 31
0.0
  0
ARC
  5
4B11
  8
0
 10
262.9367529005746178
 20
29.2073415270113195
 30
0.0
 40
0.0064091068080466
 50
243.0759256004855047
 51
270.6531912676508114
  0
LINE
  5
4B12
  8
0
 10
262.9368259649774018
 20
29.2009328366872403
 30
0.0
 11
262.9376599145775231
 21
29.2007165125872312
 31
0.0
  0
LINE
  5
4B13
  8
0
 10
262.9376599145775231
 20
29.2007165125872312
 30
0.0
 11
262.970087223977373
 21
29.2007360268872382
 31
0.0
  0
LINE
  5
4B14
  8
0
 10
262.970087223977373
 20
29.2007360268872382
 30
0.0
 11
262.9709214465773925
 21
29.2009533547872415
 31
0.0
  0
ARC
  5
4B15
  8
0
 10
262.9709421024110156
 20
29.207552396254389
 30
0.0
 40
0.0065990737947535
 50
269.8206575564432228
 51
296.5743156099471207
  0
LINE
  5
4B16
  8
0
 10
262.9738942522773755
 20
29.2016504824872385
 30
0.0
 11
262.9891480150611187
 21
29.2094155777300308
 31
0.0
  0
LINE
  5
4B17
  8
0
 10
262.9396569327520865
 20
29.2180538750647685
 30
0.0
 11
262.9396641570775159
 21
29.2070836594872389
 31
0.0
  0
ARC
  5
4B18
  8
0
 10
262.9306114409008046
 20
29.2071082098774504
 30
0.0
 40
0.0090527494662203
 50
339.3313187529101924
 51
359.8446178728058271
  0
ARC
  5
4B19
  8
0
 10
262.9335247578266035
 20
29.20577508987353
 30
0.0
 40
0.0058604935434695
 50
304.2842185031906865
 51
341.4731120316848205
  0
LINE
  5
4B1A
  8
0
 10
262.9680770583775029
 20
29.2071007579872308
 30
0.0
 11
262.9680770583775029
 21
29.2180709778977707
 31
0.0
  0
ARC
  5
4B1B
  8
0
 10
262.9775330231416888
 20
29.20724484113736
 30
0.0
 40
0.009457062417918
 50
180.8729640815213884
 51
200.4826478433047896
  0
ARC
  5
4B1C
  8
0
 10
262.9748247360427058
 20
29.2062331888455304
 30
0.0
 40
0.0065659969793024
 50
200.4826478433085981
 51
233.5251277158502887
  0
LINE
  5
4B1D
  8
0
 10
262.9185984802066969
 20
29.1920369613573207
 30
0.0
 11
262.9338507968773797
 21
29.1842909595872406
 31
0.0
  0
ARC
  5
4B1E
  8
0
 10
262.9367529005746178
 20
29.1900053663113184
 30
0.0
 40
0.0064091068080466
 50
243.0759256004855047
 51
270.6531912676508114
  0
LINE
  5
4B1F
  8
0
 10
262.9368259649774018
 20
29.1835966759872285
 30
0.0
 11
262.9376599145775231
 21
29.1833803518872408
 31
0.0
  0
LINE
  5
4B20
  8
0
 10
262.9376599145775231
 20
29.1833803518872408
 30
0.0
 11
262.970087223977373
 21
29.1833998661872407
 31
0.0
  0
LINE
  5
4B21
  8
0
 10
262.970087223977373
 20
29.1833998661872407
 30
0.0
 11
262.9709214465773925
 21
29.1836171940872404
 31
0.0
  0
ARC
  5
4B22
  8
0
 10
262.9709421024110156
 20
29.1902162355543915
 30
0.0
 40
0.0065990737947535
 50
269.8206575564432228
 51
296.5743156099471207
  0
LINE
  5
4B23
  8
0
 10
262.9738942522773755
 20
29.1843143217872409
 30
0.0
 11
262.9891480150611187
 21
29.1920794170300297
 31
0.0
  0
LINE
  5
4B24
  8
0
 10
262.9396569327520865
 20
29.2007177143647709
 30
0.0
 11
262.9396641570775159
 21
29.1897474987872307
 31
0.0
  0
ARC
  5
4B25
  8
0
 10
262.9306114409008046
 20
29.1897720491774493
 30
0.0
 40
0.0090527494662203
 50
339.3313187529101924
 51
359.8446178728058271
  0
ARC
  5
4B26
  8
0
 10
262.9335247578266035
 20
29.1884389291735289
 30
0.0
 40
0.0058604935434695
 50
304.2842185031906865
 51
341.4731120316848205
  0
LINE
  5
4B27
  8
0
 10
262.9680770583775029
 20
29.1897645972872404
 30
0.0
 11
262.9680770583775029
 21
29.2007348171977696
 31
0.0
  0
ARC
  5
4B28
  8
0
 10
262.9775330231416888
 20
29.1899086804373589
 30
0.0
 40
0.009457062417918
 50
180.8729640815213884
 51
200.4826478433047896
  0
ARC
  5
4B29
  8
0
 10
262.9748247360427058
 20
29.1888970281455293
 30
0.0
 40
0.0065659969793024
 50
200.4826478433085981
 51
233.5251277158502887
  0
LINE
  5
4B2A
  8
0
 10
262.9185984802066969
 20
29.1747008006573196
 30
0.0
 11
262.9338507968773797
 21
29.1669547988872395
 31
0.0
  0
ARC
  5
4B2B
  8
0
 10
262.9367529005746178
 20
29.1726692056113208
 30
0.0
 40
0.0064091068080466
 50
243.0759256004855047
 51
270.6531912676508114
  0
LINE
  5
4B2C
  8
0
 10
262.9368259649774018
 20
29.166260515287231
 30
0.0
 11
262.9376599145775231
 21
29.1660441911872397
 31
0.0
  0
LINE
  5
4B2D
  8
0
 10
262.9376599145775231
 20
29.1660441911872397
 30
0.0
 11
262.970087223977373
 21
29.1660637054872396
 31
0.0
  0
LINE
  5
4B2E
  8
0
 10
262.970087223977373
 20
29.1660637054872396
 30
0.0
 11
262.9709214465773925
 21
29.1662810333872287
 31
0.0
  0
ARC
  5
4B2F
  8
0
 10
262.9709421024110156
 20
29.1728800748543904
 30
0.0
 40
0.0065990737947535
 50
269.8206575564432228
 51
296.5743156099471207
  0
LINE
  5
4B30
  8
0
 10
262.9738942522773755
 20
29.1669781610872398
 30
0.0
 11
262.9891480150611187
 21
29.1747432563300286
 31
0.0
  0
LINE
  5
4B31
  8
0
 10
262.9396569327520865
 20
29.1833815536647698
 30
0.0
 11
262.9396641570775159
 21
29.1724113380872403
 31
0.0
  0
ARC
  5
4B32
  8
0
 10
262.9306114409008046
 20
29.1724358884774517
 30
0.0
 40
0.0090527494662203
 50
339.3313187529101924
 51
359.8446178728058271
  0
ARC
  5
4B33
  8
0
 10
262.9335247578266035
 20
29.1711027684735313
 30
0.0
 40
0.0058604935434695
 50
304.2842185031906865
 51
341.4731120316848205
  0
LINE
  5
4B34
  8
0
 10
262.9680770583775029
 20
29.1724284365872393
 30
0.0
 11
262.9680770583775029
 21
29.1833986564977685
 31
0.0
  0
ARC
  5
4B35
  8
0
 10
262.9775330231416888
 20
29.1725725197373613
 30
0.0
 40
0.009457062417918
 50
180.8729640815213884
 51
200.4826478433047896
  0
ARC
  5
4B36
  8
0
 10
262.9748247360427058
 20
29.1715608674455282
 30
0.0
 40
0.0065659969793024
 50
200.4826478433085981
 51
233.5251277158502887
  0
LINE
  5
4B37
  8
0
 10
262.9185984802066969
 20
29.1573646399573185
 30
0.0
 11
262.9338507968773797
 21
29.1496186381872384
 31
0.0
  0
ARC
  5
4B38
  8
0
 10
262.9367529005746178
 20
29.1553330449113197
 30
0.0
 40
0.0064091068080466
 50
243.0759256004855047
 51
270.6531912676508114
  0
LINE
  5
4B39
  8
0
 10
262.9368259649774018
 20
29.1489243545872405
 30
0.0
 11
262.9376599145775231
 21
29.1487080304872386
 31
0.0
  0
LINE
  5
4B3A
  8
0
 10
262.9376599145775231
 20
29.1487080304872386
 30
0.0
 11
262.970087223977373
 21
29.1487275447872385
 31
0.0
  0
LINE
  5
4B3B
  8
0
 10
262.970087223977373
 20
29.1487275447872385
 30
0.0
 11
262.9709214465773925
 21
29.1489448726872418
 31
0.0
  0
LINE
  5
4B3C
  8
0
 10
262.9396569327520865
 20
29.1660453929647687
 30
0.0
 11
262.9396641570775159
 21
29.1550751773872392
 31
0.0
  0
ARC
  5
4B3D
  8
0
 10
262.9306114409008046
 20
29.1550997277774506
 30
0.0
 40
0.0090527494662203
 50
339.3313187529101924
 51
359.8446178728058271
  0
ARC
  5
4B3E
  8
0
 10
262.9335247578266035
 20
29.1537666077735302
 30
0.0
 40
0.0058604935434695
 50
304.2842185031906865
 51
341.4731120316848205
  0
LINE
  5
4B3F
  8
0
 10
262.9680770583775029
 20
29.1550922758872311
 30
0.0
 11
262.9680770583775029
 21
29.166062495797771
 31
0.0
  0
ARC
  5
4B40
  8
0
 10
262.9775330231416888
 20
29.1552363590373602
 30
0.0
 40
0.009457062417918
 50
180.8729640815213884
 51
200.4826478433047896
  0
ARC
  5
4B41
  8
0
 10
262.9748247360427058
 20
29.1542247067455307
 30
0.0
 40
0.0065659969793024
 50
200.4826478433085981
 51
233.5251277158502887
  0
LINE
  5
4B42
  8
0
 10
262.9185984802066969
 20
29.140028479257321
 30
0.0
 11
262.9338507968773797
 21
29.1322824774872409
 31
0.0
  0
ARC
  5
4B43
  8
0
 10
262.9367529005746178
 20
29.1379968842113186
 30
0.0
 40
0.0064091068080466
 50
243.0759256004855047
 51
270.6531912676508114
  0
LINE
  5
4B44
  8
0
 10
262.9368259649774018
 20
29.1315881938872394
 30
0.0
 11
262.9376599145775231
 21
29.131371869787241
 31
0.0
  0
LINE
  5
4B45
  8
0
 10
262.9376599145775231
 20
29.131371869787241
 30
0.0
 11
262.970087223977373
 21
29.1313913840872409
 31
0.0
  0
LINE
  5
4B46
  8
0
 10
262.970087223977373
 20
29.1313913840872409
 30
0.0
 11
262.9709214465773925
 21
29.1316087119872407
 31
0.0
  0
ARC
  5
4B47
  8
0
 10
262.9709421024110156
 20
29.1382077534543917
 30
0.0
 40
0.0065990737947535
 50
269.8206575564432228
 51
296.5743156099471207
  0
LINE
  5
4B48
  8
0
 10
262.9738942522773755
 20
29.1323058396872412
 30
0.0
 11
262.9891480150611187
 21
29.14007093493003
 31
0.0
  0
LINE
  5
4B49
  8
0
 10
262.9396569327520865
 20
29.1487092322647712
 30
0.0
 11
262.9396641570775159
 21
29.1377390166872416
 31
0.0
  0
ARC
  5
4B4A
  8
0
 10
262.9306114409008046
 20
29.1377635670774495
 30
0.0
 40
0.0090527494662203
 50
339.3313187529101924
 51
359.8446178728058271
  0
ARC
  5
4B4B
  8
0
 10
262.9335247578266035
 20
29.1364304470735291
 30
0.0
 40
0.0058604935434695
 50
304.2842185031906865
 51
341.4731120316848205
  0
LINE
  5
4B4C
  8
0
 10
262.9680770583775029
 20
29.1377561151872406
 30
0.0
 11
262.9680770583775029
 21
29.1487263350977699
 31
0.0
  0
ARC
  5
4B4D
  8
0
 10
262.9775330231416888
 20
29.1379001983373591
 30
0.0
 40
0.009457062417918
 50
180.8729640815213884
 51
200.4826478433047896
  0
ARC
  5
4B4E
  8
0
 10
262.9748247360427058
 20
29.1368885460455296
 30
0.0
 40
0.0065659969793024
 50
200.4826478433085981
 51
233.5251277158502887
  0
LINE
  5
4B4F
  8
0
 10
262.9185984802066969
 20
29.1226923186573217
 30
0.0
 11
262.9338507968773797
 21
29.1149463168872416
 31
0.0
  0
ARC
  5
4B50
  8
0
 10
262.9367529005746178
 20
29.1206607236113086
 30
0.0
 40
0.0064091068080466
 50
243.0759256004855047
 51
270.6531912676508114
  0
LINE
  5
4B51
  8
0
 10
262.9368259649774018
 20
29.1142520332872401
 30
0.0
 11
262.9376599145775231
 21
29.1140357091872417
 31
0.0
  0
LINE
  5
4B52
  8
0
 10
262.9376599145775231
 20
29.1140357091872417
 30
0.0
 11
262.970087223977373
 21
29.1140552234872416
 31
0.0
  0
LINE
  5
4B53
  8
0
 10
262.970087223977373
 20
29.1140552234872416
 30
0.0
 11
262.9709214465773925
 21
29.1142725513872414
 31
0.0
  0
ARC
  5
4B54
  8
0
 10
262.9709421024110156
 20
29.1208715928543889
 30
0.0
 40
0.0065990737947535
 50
269.8206575564432228
 51
296.5743156099471207
  0
LINE
  5
4B55
  8
0
 10
262.9738942522773755
 20
29.1149696790872383
 30
0.0
 11
262.9891480150611187
 21
29.1227347743300307
 31
0.0
  0
LINE
  5
4B56
  8
0
 10
262.9396569327520865
 20
29.1313730716647683
 30
0.0
 11
262.9396641570775159
 21
29.1204028560872317
 31
0.0
  0
ARC
  5
4B57
  8
0
 10
262.9306114409008046
 20
29.1204274064774502
 30
0.0
 40
0.0090527494662203
 50
339.3313187529101924
 51
359.8446178728058271
  0
ARC
  5
4B58
  8
0
 10
262.9335247578266035
 20
29.1190942864735405
 30
0.0
 40
0.0058604935434695
 50
304.2842185031906865
 51
341.4731120316848205
  0
LINE
  5
4B59
  8
0
 10
262.9680770583775029
 20
29.1204199545872413
 30
0.0
 11
262.9680770583775029
 21
29.1313901744977706
 31
0.0
  0
ARC
  5
4B5A
  8
0
 10
262.9775330231416888
 20
29.1205640377373598
 30
0.0
 40
0.009457062417918
 50
180.8729640815213884
 51
200.4826478433047896
  0
ARC
  5
4B5B
  8
0
 10
262.9748247360427058
 20
29.1195523854455303
 30
0.0
 40
0.0065659969793024
 50
200.4826478433085981
 51
233.5251277158502887
  0
LINE
  5
4B5C
  8
0
 10
262.9185984802066969
 20
29.1053561579573206
 30
0.0
 11
262.9338507968773797
 21
29.0976101561872404
 31
0.0
  0
ARC
  5
4B5D
  8
0
 10
262.9367529005746178
 20
29.1033245629113217
 30
0.0
 40
0.0064091068080466
 50
243.0759256004855047
 51
270.6531912676508114
  0
LINE
  5
4B5E
  8
0
 10
262.9368259649774018
 20
29.096915872587239
 30
0.0
 11
262.9376599145775231
 21
29.0966995484872406
 31
0.0
  0
LINE
  5
4B5F
  8
0
 10
262.9376599145775231
 20
29.0966995484872406
 30
0.0
 11
262.970087223977373
 21
29.0967190627872405
 31
0.0
  0
LINE
  5
4B60
  8
0
 10
262.970087223977373
 20
29.0967190627872405
 30
0.0
 11
262.9709214465773925
 21
29.0969363906872402
 31
0.0
  0
ARC
  5
4B61
  8
0
 10
262.9709421024110156
 20
29.1035354321543913
 30
0.0
 40
0.0065990737947535
 50
269.8206575564432228
 51
296.5743156099471207
  0
LINE
  5
4B62
  8
0
 10
262.9738942522773755
 20
29.0976335183872408
 30
0.0
 11
262.9891480150611187
 21
29.1053986136300296
 31
0.0
  0
LINE
  5
4B63
  8
0
 10
262.9396569327520865
 20
29.1140369109647601
 30
0.0
 11
262.9396641570775159
 21
29.1030666953872306
 31
0.0
  0
ARC
  5
4B64
  8
0
 10
262.9306114409008046
 20
29.1030912457774491
 30
0.0
 40
0.0090527494662203
 50
339.3313187529101924
 51
359.8446178728058271
  0
ARC
  5
4B65
  8
0
 10
262.9335247578266035
 20
29.1017581257735287
 30
0.0
 40
0.0058604935434695
 50
304.2842185031906865
 51
341.4731120316848205
  0
LINE
  5
4B66
  8
0
 10
262.9680770583775029
 20
29.1030837938872402
 30
0.0
 11
262.9680770583775029
 21
29.1140540137977695
 31
0.0
  0
ARC
  5
4B67
  8
0
 10
262.9775330231416888
 20
29.1032278770373587
 30
0.0
 40
0.009457062417918
 50
180.8729640815213884
 51
200.4826478433047896
  0
ARC
  5
4B68
  8
0
 10
262.9748247360427058
 20
29.1022162247455292
 30
0.0
 40
0.0065659969793024
 50
200.4826478433085981
 51
233.5251277158502887
  0
LINE
  5
4B69
  8
0
 10
262.9185984802066969
 20
29.0880199972573195
 30
0.0
 11
262.9338507968773797
 21
29.0802739954872287
 31
0.0
  0
ARC
  5
4B6A
  8
0
 10
262.9367529005746178
 20
29.0859884022113206
 30
0.0
 40
0.0064091068080466
 50
243.0759256004855047
 51
270.6531912676508114
  0
LINE
  5
4B6B
  8
0
 10
262.9368259649774018
 20
29.0795797118872414
 30
0.0
 11
262.9376599145775231
 21
29.0793633877872288
 31
0.0
  0
LINE
  5
4B6C
  8
0
 10
262.9376599145775231
 20
29.0793633877872288
 30
0.0
 11
262.970087223977373
 21
29.0793829020872394
 31
0.0
  0
LINE
  5
4B6D
  8
0
 10
262.970087223977373
 20
29.0793829020872394
 30
0.0
 11
262.9709214465773925
 21
29.0796002299872391
 31
0.0
  0
ARC
  5
4B6E
  8
0
 10
262.9709421024110156
 20
29.0861992714543902
 30
0.0
 40
0.0065990737947535
 50
269.8206575564432228
 51
296.5743156099471207
  0
LINE
  5
4B6F
  8
0
 10
262.9738942522773755
 20
29.0802973576872397
 30
0.0
 11
262.9891480150611187
 21
29.0880624529300285
 31
0.0
  0
LINE
  5
4B70
  8
0
 10
262.9396569327520865
 20
29.0967007502647697
 30
0.0
 11
262.9396641570775159
 21
29.0857305346872401
 31
0.0
  0
ARC
  5
4B71
  8
0
 10
262.9306114409008046
 20
29.0857550850774516
 30
0.0
 40
0.0090527494662203
 50
339.3313187529101924
 51
359.8446178728058271
  0
ARC
  5
4B72
  8
0
 10
262.9335247578266035
 20
29.0844219650735312
 30
0.0
 40
0.0058604935434695
 50
304.2842185031906865
 51
341.4731120316848205
  0
LINE
  5
4B73
  8
0
 10
262.9680770583775029
 20
29.0857476331872284
 30
0.0
 11
262.9680770583775029
 21
29.0967178530977684
 31
0.0
  0
ARC
  5
4B74
  8
0
 10
262.9775330231416888
 20
29.0858917163373611
 30
0.0
 40
0.009457062417918
 50
180.8729640815213884
 51
200.4826478433047896
  0
ARC
  5
4B75
  8
0
 10
262.9748247360427058
 20
29.0848800640455316
 30
0.0
 40
0.0065659969793024
 50
200.4826478433085981
 51
233.5251277158502887
  0
LINE
  5
4B76
  8
0
 10
262.9185984802066969
 20
29.0706838365573184
 30
0.0
 11
262.9338507968773797
 21
29.0629378347872311
 31
0.0
  0
ARC
  5
4B77
  8
0
 10
262.9367529005746178
 20
29.0686522415113195
 30
0.0
 40
0.0064091068080466
 50
243.0759256004855047
 51
270.6531912676508114
  0
LINE
  5
4B78
  8
0
 10
262.9368259649774018
 20
29.0622435511872403
 30
0.0
 11
262.9376599145775231
 21
29.0620272270872313
 31
0.0
  0
LINE
  5
4B79
  8
0
 10
262.9376599145775231
 20
29.0620272270872313
 30
0.0
 11
262.970087223977373
 21
29.0620467413872383
 31
0.0
  0
LINE
  5
4B7A
  8
0
 10
262.970087223977373
 20
29.0620467413872383
 30
0.0
 11
262.9709214465773925
 21
29.0622640692872416
 31
0.0
  0
ARC
  5
4B7B
  8
0
 10
262.9709421024110156
 20
29.0688631107543891
 30
0.0
 40
0.0065990737947535
 50
269.8206575564432228
 51
296.5743156099471207
  0
LINE
  5
4B7C
  8
0
 10
262.9738942522773755
 20
29.0629611969872386
 30
0.0
 11
262.9891480150611187
 21
29.0707262922300309
 31
0.0
  0
LINE
  5
4B7D
  8
0
 10
262.9396569327520865
 20
29.0793645895647686
 30
0.0
 11
262.9396641570775159
 21
29.068394373987239
 31
0.0
  0
ARC
  5
4B7E
  8
0
 10
262.9306114409008046
 20
29.0684189243774505
 30
0.0
 40
0.0090527494662203
 50
339.3313187529101924
 51
359.8446178728058271
  0
ARC
  5
4B7F
  8
0
 10
262.9335247578266035
 20
29.0670858043735301
 30
0.0
 40
0.0058604935434695
 50
304.2842185031906865
 51
341.4731120316848205
  0
LINE
  5
4B80
  8
0
 10
262.9680770583775029
 20
29.0684114724872309
 30
0.0
 11
262.9680770583775029
 21
29.0793816923977708
 31
0.0
  0
ARC
  5
4B81
  8
0
 10
262.9775330231416888
 20
29.06855555563736
 30
0.0
 40
0.009457062417918
 50
180.8729640815213884
 51
200.4826478433047896
  0
ARC
  5
4B82
  8
0
 10
262.9748247360427058
 20
29.0675439033455305
 30
0.0
 40
0.0065659969793024
 50
200.4826478433085981
 51
233.5251277158502887
  0
LINE
  5
4B83
  8
0
 10
262.6909208576361152
 20
29.1398914662529513
 30
0.0
 11
262.7143711121775027
 21
29.1399055782872409
 31
0.0
  0
LINE
  5
4B84
  8
0
 10
262.7143711121775027
 20
29.1399055782872409
 30
0.0
 11
262.7152053347775222
 21
29.1401229061872407
 31
0.0
  0
ARC
  5
4B85
  8
0
 10
262.7152259906110885
 20
29.1467219476543917
 30
0.0
 40
0.0065990737947535
 50
269.8206575564432228
 51
296.5743156099471207
  0
LINE
  5
4B86
  8
0
 10
262.7181781404773915
 20
29.1408200338872412
 30
0.0
 11
262.7334319032610779
 21
29.14858512913003
 31
0.0
  0
LINE
  5
4B87
  8
0
 10
262.7123609465775189
 20
29.1462703093872406
 30
0.0
 11
262.7123609465775189
 21
29.1572405292977699
 31
0.0
  0
ARC
  5
4B88
  8
0
 10
262.7218169113417048
 20
29.1464143925373591
 30
0.0
 40
0.009457062417918
 50
180.8729640815213884
 51
200.4826478433047896
  0
ARC
  5
4B89
  8
0
 10
262.7191086242427218
 20
29.1454027402455296
 30
0.0
 40
0.0065659969793024
 50
200.4826478433085981
 51
233.5251277158502887
  0
LINE
  5
4B8A
  8
0
 10
262.6967024058591278
 20
29.1225587848075804
 30
0.0
 11
262.7143711121775027
 21
29.1225694175872292
 31
0.0
  0
LINE
  5
4B8B
  8
0
 10
262.7143711121775027
 20
29.1225694175872292
 30
0.0
 11
262.7152053347775222
 21
29.1227867454872396
 31
0.0
  0
ARC
  5
4B8C
  8
0
 10
262.7152259906110885
 20
29.1293857869543906
 30
0.0
 40
0.0065990737947535
 50
269.8206575564432228
 51
296.5743156099471207
  0
LINE
  5
4B8D
  8
0
 10
262.7181781404773915
 20
29.1234838731872401
 30
0.0
 11
262.7334319032610779
 21
29.1312489684300289
 31
0.0
  0
LINE
  5
4B8E
  8
0
 10
262.7123609465775189
 20
29.1289341486872395
 30
0.0
 11
262.7123609465775189
 21
29.1399043685977688
 31
0.0
  0
ARC
  5
4B8F
  8
0
 10
262.7218169113417048
 20
29.1290782318373616
 30
0.0
 40
0.009457062417918
 50
180.8729640815213884
 51
200.4826478433047896
  0
ARC
  5
4B90
  8
0
 10
262.7191086242427218
 20
29.1280665795455285
 30
0.0
 40
0.0065659969793024
 50
200.4826478433085981
 51
233.5251277158502887
  0
LINE
  5
4B91
  8
0
 10
262.7011999571057004
 20
29.1572338126708388
 30
0.0
 11
262.7143711121775027
 21
29.1572417388872402
 31
0.0
  0
LINE
  5
4B92
  8
0
 10
262.7143711121775027
 20
29.1572417388872402
 30
0.0
 11
262.7152053347775222
 21
29.15745906678724
 31
0.0
  0
ARC
  5
4B93
  8
0
 10
262.7152259906110885
 20
29.1640581082543804
 30
0.0
 40
0.0065990737947535
 50
269.8206575564432228
 51
296.5743156099471207
  0
LINE
  5
4B94
  8
0
 10
262.7181781404773915
 20
29.1581561944872405
 30
0.0
 11
262.7334319032610779
 21
29.1659212897300293
 31
0.0
  0
LINE
  5
4B95
  8
0
 10
262.7123609465775189
 20
29.1636064699872399
 30
0.0
 11
262.7123609465775189
 21
29.1666208741384096
 31
0.0
  0
ARC
  5
4B96
  8
0
 10
262.7218169113417048
 20
29.1637505531373584
 30
0.0
 40
0.009457062417918
 50
180.8729640815213884
 51
200.4826478433047896
  0
ARC
  5
4B97
  8
0
 10
262.7191086242427218
 20
29.1627389008455289
 30
0.0
 40
0.0065659969793024
 50
200.4826478433085981
 51
233.5251277158502887
  0
LINE
  5
4B98
  8
0
 10
262.7842302474775238
 20
29.1399476184872306
 30
0.0
 11
262.8166575568773737
 21
29.1399671326872394
 31
0.0
  0
ARC
  5
4B99
  8
0
 10
262.784528108059078
 20
29.1496157542909202
 30
0.0
 40
0.0096727230315256
 50
244.8750446629886142
 51
268.2353622129991209
  0
LINE
  5
4B9A
  8
0
 10
262.7804211297774941
 20
29.1408582260872393
 30
0.0
 11
262.7651688133069001
 21
29.1486042278574402
 31
0.0
  0
ARC
  5
4B9B
  8
0
 10
262.8160760554296189
 20
29.150769885976171
 30
0.0
 40
0.0108183927898512
 50
273.0812010394466824
 51
293.9321481538178205
  0
LINE
  5
4B9C
  8
0
 10
262.8204645851773762
 20
29.1408815883872414
 30
0.0
 11
262.835718347764498
 21
29.1486466835299112
 31
0.0
  0
LINE
  5
4B9D
  8
0
 10
262.9380047924606743
 20
29.0620274346299112
 30
0.0
 11
262.9299032190774028
 21
29.0579032397872403
 31
0.0
  0
ARC
  5
4B9E
  8
0
 10
262.9274559651385061
 20
29.0627106284122512
 30
0.0
 40
0.0053944450348245
 50
183.7614401351665947
 51
296.9788686042663812
  0
LINE
  5
4B9F
  8
0
 10
262.9220731405774814
 20
29.062356740041519
 30
0.0
 11
262.9220731405774814
 21
29.06891920460248
 31
0.0
  0
LINE
  5
4BA0
  8
0
 10
262.8868615701654221
 20
29.0706647377299099
 30
0.0
 11
262.8729629031773811
 21
29.0635894688872405
 31
0.0
  0
ARC
  5
4BA1
  8
0
 10
262.8712568950463151
 20
29.0686951785150782
 30
0.0
 40
0.0053831899973313
 50
223.7214824076393995
 51
288.4763973509849961
  0
ARC
  5
4BA2
  8
0
 10
262.870968044258575
 20
29.0685866746709394
 30
0.0
 40
0.0051008830581542
 50
178.4151090572916871
 51
225.0832574470568943
  0
LINE
  5
4BA3
  8
0
 10
262.8658691125773998
 20
29.0687277550872416
 30
0.0
 11
262.8658691125773998
 21
29.0793201851373091
 31
0.0
  0
LINE
  5
4BA4
  8
0
 10
262.8354443649773771
 20
29.0791625668872413
 30
0.0
 11
262.8215820447774718
 21
29.0721058006872397
 31
0.0
  0
ARC
  5
4BA5
  8
0
 10
262.8203595692270937
 20
29.0768586781684384
 30
0.0
 40
0.0049075748412571
 50
217.7890431761559
 51
284.4242450387275198
  0
ARC
  5
4BA6
  8
0
 10
262.8208175342825825
 20
29.0774577563750789
 30
0.0
 40
0.0056398775162158
 50
178.596490828654396
 51
219.7482318857252039
  0
LINE
  5
4BA7
  8
0
 10
262.8151793487774057
 20
29.0775958961872405
 30
0.0
 11
262.8151793487774057
 21
29.087957761122329
 31
0.0
  0
LINE
  5
4BA8
  8
0
 10
262.7845751253578896
 20
29.0879393439299108
 30
0.0
 11
262.7757350379774834
 21
29.0834392003872395
 31
0.0
  0
ARC
  5
4BA9
  8
0
 10
262.7747149598678789
 20
29.0862534324934892
 30
0.0
 40
0.0029934030295925
 50
235.2470718013528881
 51
289.9241225552788137
  0
ARC
  5
4BAA
  8
0
 10
262.7764314705116817
 20
29.0891780876516783
 30
0.0
 40
0.0063800017241326
 50
178.9416588965333972
 51
237.5543534021026062
  0
LINE
  5
4BAB
  8
0
 10
262.7700525571773937
 20
29.0892959293872408
 30
0.0
 11
262.7700525571773937
 21
29.0941155003291385
 31
0.0
  0
ARC
  5
4BAC
  8
0
 10
262.7400273274848246
 20
29.1030139179630609
 30
0.0
 40
0.0067259040269887
 50
212.9041301789129932
 51
253.0720121197273045
  0
ARC
  5
4BAD
  8
0
 10
262.7396063080690283
 20
29.1031831017124496
 30
0.0
 40
0.0064749542334067
 50
179.1410216981749954
 51
216.1866819685473047
  0
LINE
  5
4BAE
  8
0
 10
262.7331320814774926
 20
29.1032801705872401
 30
0.0
 11
262.7331320814774926
 21
29.1139126273015485
 31
0.0
  0
LINE
  5
4BAF
  8
0
 10
262.7331579202773923
 20
29.1137733336872415
 30
0.0
 11
262.7189432848775255
 21
29.1065372176872401
 31
0.0
  0
ARC
  5
4BB0
  8
0
 10
262.7184828097662717
 20
29.1079717359937895
 30
0.0
 40
0.001506612126529
 50
237.2696768592780927
 51
287.7964395496720158
  0
ARC
  5
4BB1
  8
0
 10
262.7218235444245238
 20
29.1123816927882402
 30
0.0
 40
0.007035567393551
 50
205.3084620230131918
 51
233.7990698328621875
  0
ARC
  5
4BB2
  8
0
 10
262.7227642873917262
 20
29.1129695592376088
 30
0.0
 40
0.0081383520892508
 50
179.1567551616952017
 51
206.2186821612303902
  0
LINE
  5
4BB3
  8
0
 10
262.7146268166774803
 20
29.1130893302872416
 30
0.0
 11
262.7146207638775195
 21
29.1222669465628492
 31
0.0
  0
ARC
  5
4BB4
  8
0
 10
262.7038127794621118
 20
29.1289933592747587
 30
0.0
 40
0.0095896382282594
 50
178.4007088924286109
 51
222.1437059344665954
  0
LINE
  5
4BB5
  8
0
 10
262.6942268767775204
 20
29.1292609990872293
 30
0.0
 11
262.6942268767775204
 21
29.1398934557688989
 31
0.0
  0
LINE
  5
4BB6
  8
0
 10
262.9280089891253169
 20
29.2219300862382312
 30
0.0
 11
262.9338507968773797
 21
29.2189632809872286
 31
0.0
  0
ARC
  5
4BB7
  8
0
 10
262.9367529005746178
 20
29.2246776877113206
 30
0.0
 40
0.0064091068080466
 50
243.0759256004855047
 51
270.6531912676508114
  0
LINE
  5
4BB8
  8
0
 10
262.9368259649774018
 20
29.2182689973872414
 30
0.0
 11
262.9376599145775231
 21
29.2180526732872288
 31
0.0
  0
LINE
  5
4BB9
  8
0
 10
262.9376599145775231
 20
29.2180526732872288
 30
0.0
 11
262.970087223977373
 21
29.2180721875872393
 31
0.0
  0
LINE
  5
4BBA
  8
0
 10
262.970087223977373
 20
29.2180721875872393
 30
0.0
 11
262.9709214465773925
 21
29.2182895154872391
 31
0.0
  0
ARC
  5
4BBB
  8
0
 10
262.9709421024110156
 20
29.2248885569543901
 30
0.0
 40
0.0065990737947535
 50
269.8206575564432228
 51
296.5743156099471207
  0
LINE
  5
4BBC
  8
0
 10
262.9738942522773755
 20
29.2189866431872396
 30
0.0
 11
262.9848898447709757
 21
29.2245840701417698
 31
0.0
  0
ARC
  5
4BBD
  8
0
 10
262.9335247578266035
 20
29.2231112505735311
 30
0.0
 40
0.0058604935434695
 50
304.2842185031906865
 51
356.0683929752407266
  0
ARC
  5
4BBE
  8
0
 10
262.9775330231416888
 20
29.2245810018373611
 30
0.0
 40
0.009457062417918
 50
182.7693042998654107
 51
200.4826478433047896
  0
ARC
  5
4BBF
  8
0
 10
262.9748247360427058
 20
29.2235693495455315
 30
0.0
 40
0.0065659969793024
 50
200.4826478433080865
 51
233.5251277158502887
  0
LINE
  5
4BC0
  8
0
 10
262.8345395202774739
 20
29.1488628000872403
 30
0.0
 11
262.8174917794773933
 21
29.1575206213872384
 31
0.0
  0
LINE
  5
4BC1
  8
0
 10
262.8174917794773933
 20
29.1575206213872384
 30
0.0
 11
262.7833962978775162
 21
29.1575001031872389
 31
0.0
  0
LINE
  5
4BC2
  8
0
 10
262.7833962978775162
 20
29.1575001031872389
 30
0.0
 11
262.7663485570773787
 21
29.1488217636872413
 31
0.0
  0
ARC
  5
4BC3
  8
0
 10
263.0050091908382797
 20
28.1825116972020808
 30
0.0
 40
1.0422665774792681
 50
85.3829674427504841
 51
94.6170325572495017
  0
ARC
  5
4BC4
  8
0
 10
262.993363100338911
 20
28.3257277796635201
 30
0.0
 40
0.8985777809080143
 50
94.6119260356893648
 51
98.0476905312870315
  0
ARC
  5
4BC5
  8
0
 10
262.9679907338625071
 20
28.5051776322878894
 30
0.0
 40
0.7173431082111873
 50
98.0476905312870315
 51
102.1871467622880942
  0
ARC
  5
4BC6
  8
0
 10
262.9206808733712251
 20
28.7242323017195886
 30
0.0
 40
0.4932378403134081
 50
102.1871467622879948
 51
107.336938654853796
  0
ARC
  5
4BC7
  8
0
 10
262.8630936424019069
 20
28.9087046485279195
 30
0.0
 40
0.2999858392689738
 50
107.336938654853796
 51
115.9700362515813055
  0
ARC
  5
4BC8
  8
0
 10
262.7851237256302284
 20
29.0687790821566487
 30
0.0
 40
0.1219321051802546
 50
115.9700362515828971
 51
133.864494288557097
  0
ARC
  5
4BC9
  8
0
 10
262.7242259406484095
 20
29.1318463557249601
 30
0.0
 40
0.0342629881630708
 50
133.5244731820014863
 51
226.4755268179985137
  0
ARC
  5
4BCA
  8
0
 10
263.0050091908382797
 20
30.08118101424785
 30
0.0
 40
1.0422665774792741
 50
265.3829674427504983
 51
274.6170325572495017
  0
ARC
  5
4BCB
  8
0
 10
262.993363100338911
 20
29.9379649317863894
 30
0.0
 40
0.8985777809080143
 50
261.9523094687129969
 51
265.3880739643105926
  0
ARC
  5
4BCC
  8
0
 10
262.9679907338625071
 20
29.7585150791620201
 30
0.0
 40
0.7173431082111873
 50
257.81285323771192
 51
261.9523094687129969
  0
ARC
  5
4BCD
  8
0
 10
262.9206808733712251
 20
29.5394604097303315
 30
0.0
 40
0.4932378403134081
 50
252.6630613451461898
 51
257.8128532377119768
  0
ARC
  5
4BCE
  8
0
 10
262.8630936424019069
 20
29.3549880629220006
 30
0.0
 40
0.2999858392689738
 50
244.0299637484185951
 51
252.6630613451461898
  0
ARC
  5
4BCF
  8
0
 10
262.7851237256302284
 20
29.1949136292932714
 30
0.0
 40
0.1219321051802546
 50
226.135505711442903
 51
244.0299637484170887
  0
ARC
  5
4BD0
  8
0
 10
262.7040612315992121
 20
29.1318323020092116
 30
0.0
 40
0.0297485559216771
 50
154.2967010788827906
 51
205.7032989211209895
  0
LINE
  5
4BD1
  8
0
 10
262.6743126756775268
 20
29.1421614012872396
 30
0.0
 11
262.6743126756775268
 21
29.1318323020092116
 31
0.0
  0
ARC
  5
4BD2
  8
0
 10
262.7070015428674878
 20
29.1416224568998494
 30
0.0
 40
0.0326933097012043
 50
147.6075715586343051
 51
179.0554447433769951
  0
ARC
  5
4BD3
  8
0
 10
262.7249087990617795
 20
29.1213285556512993
 30
0.0
 40
0.0530905713135018
 50
132.8992519637938869
 51
153.8406190029500067
  0
ARC
  5
4BD4
  8
0
 10
262.7632689346560824
 20
29.0800470525634509
 30
0.0
 40
0.1094435880917031
 50
121.6947678141226987
 51
132.899251963793688
  0
ARC
  5
4BD5
  8
0
 10
262.80461742831028
 20
29.0130844590905994
 30
0.0
 40
0.1881435680922429
 50
112.5964194332709951
 51
121.6947678141214055
  0
ARC
  5
4BD6
  8
0
 10
262.8799204747086833
 20
28.8321486395392697
 30
0.0
 40
0.3841239742393403
 50
106.9875570946960011
 51
112.5964194332709951
  0
ARC
  5
4BD7
  8
0
 10
263.0049924566285995
 20
28.0939285056080692
 30
0.0
 40
1.1335851015709699
 50
84.9889118658036438
 51
95.0110881341963562
  0
ARC
  5
4BD8
  8
0
 10
262.9884004829843889
 20
28.2831757905054388
 30
0.0
 40
0.9436118707566628
 50
95.0112044710796511
 51
99.2617357944542675
  0
ARC
  5
4BD9
  8
0
 10
262.948227482494417
 20
28.5295291986029298
 30
0.0
 40
0.694004435671849
 50
99.2617357944542675
 51
103.5108838915517993
  0
ARC
  5
4BDA
  8
0
 10
262.8959982763012135
 20
28.7468975872965693
 30
0.0
 40
0.4704492827837118
 50
103.5108838915516998
 51
110.8958459541710937
  0
ARC
  5
4BDB
  8
0
 10
262.803919153440404
 20
28.9880814421703512
 30
0.0
 40
0.2122861236796538
 50
110.8958459541709942
 51
120.1368743466702966
  0
ARC
  5
4BDC
  8
0
 10
262.7589896701234125
 20
29.065474028734041
 30
0.0
 40
0.1227971806411435
 50
120.1368743466702966
 51
134.3910223362069871
  0
ARC
  5
4BDD
  8
0
 10
262.6959605901723762
 20
29.1261844904499085
 30
0.0
 40
0.035415804991523
 50
130.2306216134981867
 51
229.7693783864997101
  0
ARC
  5
4BDE
  8
0
 10
262.7249087990617795
 20
29.1423360483671203
 30
0.0
 40
0.0530905713135018
 50
206.1593809970499933
 51
227.1007480362061131
  0
ARC
  5
4BDF
  8
0
 10
262.7632689346560824
 20
29.1836175514549794
 30
0.0
 40
0.1094435880917031
 50
227.1007480362061131
 51
238.3052321858772018
  0
ARC
  5
4BE0
  8
0
 10
262.80461742831028
 20
29.2505801449278309
 30
0.0
 40
0.1881435680922429
 50
238.3052321858785945
 51
247.4035805667288912
  0
ARC
  5
4BE1
  8
0
 10
262.8799204747086833
 20
29.4315159644791606
 30
0.0
 40
0.3841239742393403
 50
247.4035805667288912
 51
252.0991911061362885
  0
ARC
  5
4BE2
  8
0
 10
262.9884004829843889
 20
29.9691931903943782
 30
0.0
 40
0.9436118707566628
 50
260.738264205545704
 51
264.9887955289203205
  0
ARC
  5
4BE3
  8
0
 10
262.948227482494417
 20
29.7228397822969015
 30
0.0
 40
0.694004435671849
 50
256.4891161084481723
 51
260.738264205545704
  0
ARC
  5
4BE4
  8
0
 10
262.8959982763012135
 20
29.5054713936032584
 30
0.0
 40
0.4704492827837118
 50
249.1041540458288921
 51
256.4891161084481723
  0
ARC
  5
4BE5
  8
0
 10
262.803919153440404
 20
29.2642875387294801
 30
0.0
 40
0.2122861236796538
 50
239.8631256533296892
 51
249.1041540458290058
  0
ARC
  5
4BE6
  8
0
 10
262.7589896701234125
 20
29.1868949521657903
 30
0.0
 40
0.1227971806411435
 50
225.6089776637930129
 51
239.8631256533296892
  0
ARC
  5
4BE7
  8
0
 10
262.9439889460659856
 20
29.6715583050936615
 30
0.0
 40
0.6323684699843481
 50
253.2603658427761104
 51
260.5931515793795938
  0
ARC
  5
4BE8
  8
0
 10
262.9837563541018994
 20
29.9066417044311805
 30
0.0
 40
0.8707907325393875
 50
260.5398755795005741
 51
265.2384490935205008
  0
LINE
  5
4BE9
  8
0
 10
262.6368870134775193
 20
29.1788060390600101
 30
0.0
 11
262.6368870134775193
 21
29.1411958856872495
 31
0.0
  0
ARC
  5
4BEA
  8
0
 10
262.6881501722522785
 20
29.1420429662676987
 30
0.0
 40
0.0512701569442071
 50
180.9466784074753889
 51
213.0026883211527888
  0
ARC
  5
4BEB
  8
0
 10
262.7190669752736767
 20
29.162221329875841
 30
0.0
 40
0.0881891369427461
 50
213.0564631211207995
 51
238.0274809809326086
  0
ARC
  5
4BEC
  8
0
 10
262.7877254318826203
 20
29.2594857469436107
 30
0.0
 40
0.207163943859196
 50
236.1629455916173868
 51
249.2559169731374027
  0
ARC
  5
4BED
  8
0
 10
262.8745145254417821
 20
29.4707706836502688
 30
0.0
 40
0.4355378279844163
 50
248.4235914748452956
 51
256.1722269649088162
  0
ARC
  5
4BEE
  8
0
 10
262.9635356080415249
 20
29.8371413634447684
 30
0.0
 40
0.8125677368710638
 50
256.2514118195223887
 51
262.6780157872756263
  0
ARC
  5
4BEF
  8
0
 10
262.6848739731804017
 20
29.2626478609582605
 30
0.0
 40
0.1912406411882956
 50
234.1688347037043059
 51
246.0217860144655901
  0
ARC
  5
4BF0
  8
0
 10
606.247824973534307
 20
765.5974168082340157
 30
0.0
 40
812.7331426884229586
 50
244.9871801847355073
 51
244.9902525384945022
  0
ARC
  5
4BF1
  8
0
 10
262.6442663597854903
 20
29.1355565404232806
 30
0.0
 40
0.0358942218793228
 50
153.3014014982952062
 51
206.6985985017047938
  0
ARC
  5
4BF2
  8
0
 10
262.6721437499704734
 20
29.1208204939562911
 30
0.0
 40
0.0674232893312532
 50
129.6569049899368906
 51
152.7577877863421065
  0
ARC
  5
4BF3
  8
0
 10
262.7337571815152728
 20
29.0469222187910283
 30
0.0
 40
0.1636373169678318
 50
118.2639144832230045
 51
129.7527990040564987
  0
ARC
  5
4BF4
  8
0
 10
262.8233715971414881
 20
28.8662107237896599
 30
0.0
 40
0.3652994596068744
 50
106.8725444255923946
 51
117.2219670009177008
  0
ARC
  5
4BF5
  8
0
 10
262.9490560356932178
 20
28.4185216812042611
 30
0.0
 40
0.8302520989785103
 50
97.4848017133969762
 51
106.205558075256306
  0
ARC
  5
4BF6
  8
0
 10
262.996083792034824
 20
28.0690913753160594
 30
0.0
 40
1.182831572340584
 50
93.938086064787484
 51
97.5385281727391629
  0
ARC
  5
4BF7
  8
0
 10
262.6721437499704734
 20
29.1502925868902807
 30
0.0
 40
0.0674232893312532
 50
207.2422122136576945
 51
230.3430950100631946
  0
ARC
  5
4BF8
  8
0
 10
262.7337571815152728
 20
29.2241908620555293
 30
0.0
 40
0.1636373169678318
 50
230.2472009959435013
 51
241.7360855167756029
  0
ARC
  5
4BF9
  8
0
 10
262.8233715971414881
 20
29.4049023570569084
 30
0.0
 40
0.3652994596068744
 50
242.7780329990821997
 51
253.1274555744076054
  0
ARC
  5
4BFA
  8
0
 10
262.9490560356932178
 20
29.8525913996423
 30
0.0
 40
0.8302520989785103
 50
253.7944419247436088
 51
262.5151982866030949
  0
ARC
  5
4BFB
  8
0
 10
262.996083792034824
 20
30.2020217055305089
 30
0.0
 40
1.182831572340584
 50
262.4614718272608229
 51
266.0619139352124876
  0
ARC
  5
4BFC
  8
0
 10
262.7234638410913021
 20
29.1409346385339489
 30
0.0
 40
0.0346540260807734
 50
194.82679271356551
 51
212.0628170951262916
  0
ARC
  5
4BFD
  8
0
 10
262.7395861298945192
 20
29.1510335572323918
 30
0.0
 40
0.0536781254059248
 50
212.0628170951272864
 51
228.2462092343222082
  0
ARC
  5
4BFE
  8
0
 10
262.7785654450700008
 20
29.1947003743068016
 30
0.0
 40
0.1122116877864836
 50
228.2462092343222082
 51
240.1067839553188037
  0
ARC
  5
4BFF
  8
0
 10
262.8297592778969261
 20
29.2837535764732593
 30
0.0
 40
0.2149311179621539
 50
240.1067839553188037
 51
251.4940700975166123
  0
ARC
  5
4C00
  8
0
 10
262.9352206412355031
 20
29.5988359917376691
 30
0.0
 40
0.5471946091345493
 50
251.4940700975166123
 51
260.244913813596213
  0
ARC
  5
4C01
  8
0
 10
262.9885595257180739
 20
29.9090850005182496
 30
0.0
 40
0.8619953144183501
 50
260.2449138135995099
 51
264.3938939421431087
  0
ARC
  5
4C02
  8
0
 10
262.746158185362674
 20
29.1649785420694982
 30
0.0
 40
0.0667522319174847
 50
216.7396361425728912
 51
231.5186706971744002
  0
ARC
  5
4C03
  8
0
 10
262.785878824942813
 20
29.2149476441913087
 30
0.0
 40
0.1305851417329812
 50
231.5186706971744002
 51
243.1268829086793062
  0
ARC
  5
4C04
  8
0
 10
262.8504266588058158
 20
29.3423264650220297
 30
0.0
 40
0.2733849556426185
 50
243.1268829086793062
 51
252.9899144769840973
  0
ARC
  5
4C05
  8
0
 10
262.94325206524951
 20
29.6457536497655703
 30
0.0
 40
0.5906933427407765
 50
252.9899144769840973
 51
262.7429177851029181
  0
ARC
  5
4C06
  8
0
 10
262.9950490497740248
 20
29.9861968569138213
 30
0.0
 40
0.9349899784381296
 50
262.2295885360641137
 51
265.6889493037069201
  0
ARC
  5
4C07
  8
0
 10
262.8230391086730151
 20
29.4579270410293788
 30
0.0
 40
0.4266146327628788
 50
245.5774685728707993
 51
254.2364749725873878
  0
ARC
  5
4C08
  8
0
 10
262.9089199278428737
 20
29.7521338222052485
 30
0.0
 40
0.7330927324310692
 50
254.0235394742153971
 51
259.1665565585029753
  0
ARC
  5
4C09
  8
0
 10
262.9614790535594011
 20
30.0163450478108516
 30
0.0
 40
1.0024757617051601
 50
259.0543811890161123
 51
263.7123966390635132
  0
LINE
  5
4C0A
  8
0
 10
262.5350358887773723
 20
29.2993846629872401
 30
0.0
 11
262.5350358887773723
 21
29.4036240795000801
 31
0.0
  0
ARC
  5
4C0B
  8
0
 10
262.5903073177913143
 20
29.300308752983419
 30
0.0
 40
0.0552791534627289
 50
180.9578461256330115
 51
196.2442378664009084
  0
ARC
  5
4C0C
  8
0
 10
262.6926144356049804
 20
29.3366885609216901
 30
0.0
 40
0.1638001176291595
 50
198.451555071242808
 51
223.0529689674239933
  0
LINE
  5
4C0D
  8
0
 10
262.5729219397172756
 20
29.1076003680872404
 30
0.0
 11
262.5729219397172756
 21
29.3332690787036512
 31
0.0
  0
ARC
  5
4C0E
  8
0
 10
262.5677552692612267
 20
29.2995141246421902
 30
0.0
 40
0.0327196366049933
 50
152.7495488852451899
 51
179.7732974275803031
  0
ARC
  5
4C0F
  8
0
 10
262.5630996866647138
 20
29.3010584317525513
 30
0.0
 40
0.0278839781332574
 50
117.6538526152592965
 51
151.1901955290470028
  0
ARC
  5
4C10
  8
0
 10
262.581977587594281
 20
29.26757915324891
 30
0.0
 40
0.0663111684765211
 50
97.8490066410697921
 51
118.675845476368707
  0
ARC
  5
4C11
  8
0
 10
262.7058666639725857
 20
29.0183602657591706
 30
0.0
 40
0.2377637604345401
 50
115.2757547692878006
 51
123.9967784645620981
  0
ARC
  5
4C12
  8
0
 10
262.7805300128482031
 20
28.8602355823506116
 30
0.0
 40
0.4126295122796988
 50
109.0384869277450974
 51
115.2757547692878006
  0
ARC
  5
4C13
  8
0
 10
262.8519462905945829
 20
28.6532793595331583
 30
0.0
 40
0.631561380425994
 50
103.7889812517615979
 51
109.0384869277450974
  0
ARC
  5
4C14
  8
0
 10
262.9311285874102282
 20
28.330638951143829
 30
0.0
 40
0.9637761742787173
 50
99.3288661592906692
 51
103.7889812517615979
  0
ARC
  5
4C15
  8
0
 10
262.9776117036780079
 20
28.0476774513862388
 30
0.0
 40
1.250530233435752
 50
95.2271656368367729
 51
99.3288661592906692
  0
ARC
  5
4C16
  8
0
 10
263.0166552813377052
 20
28.3257277796635201
 30
0.0
 40
0.8985777809080143
 50
81.9523094687129543
 51
85.388073964310621
  0
ARC
  5
4C17
  8
0
 10
263.0420276478142227
 20
28.5051776322878894
 30
0.0
 40
0.7173431082111873
 50
77.8128532377118916
 51
81.9523094687129543
  0
ARC
  5
4C18
  8
0
 10
263.0893375083055048
 20
28.7242323017195886
 30
0.0
 40
0.4932378403134081
 50
72.6630613451461898
 51
77.81285323771192
  0
ARC
  5
4C19
  8
0
 10
263.1469247392747093
 20
28.9087046485279195
 30
0.0
 40
0.2999858392689738
 50
64.0299637484171029
 51
72.6630613451461898
  0
ARC
  5
4C1A
  8
0
 10
263.2248946560463878
 20
29.0687790821566487
 30
0.0
 40
0.1219321051802546
 50
46.1355057114428817
 51
64.0299637484171029
  0
ARC
  5
4C1B
  8
0
 10
263.2857924410282067
 20
29.1318463557249601
 30
0.0
 40
0.0342629881630708
 50
313.5244731820014863
 51
46.4755268179984995
  0
ARC
  5
4C1C
  8
0
 10
263.0166552813377052
 20
29.9379649317863894
 30
0.0
 40
0.8985777809080143
 50
274.6119260356894074
 51
278.0476905312870031
  0
ARC
  5
4C1D
  8
0
 10
263.0420276478142227
 20
29.7585150791620201
 30
0.0
 40
0.7173431082111873
 50
278.0476905312870031
 51
282.1871467622881937
  0
ARC
  5
4C1E
  8
0
 10
263.0893375083055048
 20
29.5394604097303315
 30
0.0
 40
0.4932378403134081
 50
282.1871467622881937
 51
287.3369386548537818
  0
ARC
  5
4C1F
  8
0
 10
263.1469247392747093
 20
29.3549880629220006
 30
0.0
 40
0.2999858392689738
 50
287.3369386548537818
 51
295.9700362515814049
  0
ARC
  5
4C20
  8
0
 10
263.2248946560463878
 20
29.1949136292932714
 30
0.0
 40
0.1219321051802546
 50
295.9700362515828829
 51
313.8644942885571254
  0
LINE
  5
4C21
  8
0
 10
262.9700162955775227
 20
29.0619070793872396
 30
0.0
 11
262.9825270200773843
 21
29.055553415487239
 31
0.0
  0
ARC
  5
4C22
  8
0
 10
262.9857252492539033
 20
29.062514985288761
 30
0.0
 40
0.0076610785119671
 50
245.3253789187124028
 51
290.1333710716181145
  0
LINE
  5
4C23
  8
0
 10
262.9917793091123031
 20
29.0707278757058916
 30
0.0
 11
262.9917866389773735
 21
29.0595973968872414
 31
0.0
  0
ARC
  5
4C24
  8
0
 10
262.9879375955732144
 20
29.0594465565019391
 30
0.0
 40
0.0038519979166631
 50
314.0848076855270961
 51
2.2442192204557081
  0
LINE
  5
4C25
  8
0
 10
262.9697417026067114
 20
29.0793826941573208
 30
0.0
 11
262.9849940192773943
 21
29.0716366923872407
 31
0.0
  0
ARC
  5
4C26
  8
0
 10
262.9878961229745755
 20
29.0773510991113184
 30
0.0
 40
0.0064091068080466
 50
243.0759256004855047
 51
270.6531912676508114
  0
LINE
  5
4C27
  8
0
 10
262.9879691873774732
 20
29.0709424087872392
 30
0.0
 11
262.9888031369774808
 21
29.0707260846872408
 31
0.0
  0
LINE
  5
4C28
  8
0
 10
262.9888031369774808
 20
29.0707260846872408
 30
0.0
 11
263.0212152446991922
 21
29.0707260846872408
 31
0.0
  0
LINE
  5
4C29
  8
0
 10
262.9908001551521011
 20
29.0880634471647603
 30
0.0
 11
262.9908073794774737
 21
29.0770932315872308
 31
0.0
  0
ARC
  5
4C2A
  8
0
 10
262.9817546633007055
 20
29.0771177819774493
 30
0.0
 40
0.0090527494662203
 50
339.3313187529101924
 51
359.8446178728058271
  0
ARC
  5
4C2B
  8
0
 10
262.9846679802266181
 20
29.075784661973529
 30
0.0
 40
0.0058604935434695
 50
304.2842185031906865
 51
341.4731120316848205
  0
ARC
  5
4C2C
  8
0
 10
262.986494176425424
 20
29.0609774349460501
 30
0.0
 40
0.0059559303680632
 50
288.279223693597487
 51
313.8131122222151816
  0
LINE
  5
4C2D
  8
0
 10
262.9697417026067114
 20
29.0967188548573183
 30
0.0
 11
262.9849940192773943
 21
29.0889728530872382
 31
0.0
  0
ARC
  5
4C2E
  8
0
 10
262.9878961229745755
 20
29.0946872598113195
 30
0.0
 40
0.0064091068080466
 50
243.0759256004855047
 51
270.6531912676508114
  0
LINE
  5
4C2F
  8
0
 10
262.9879691873774732
 20
29.0882785694872403
 30
0.0
 11
262.9888031369774808
 21
29.0880622453872384
 31
0.0
  0
LINE
  5
4C30
  8
0
 10
262.9908001551521011
 20
29.1053996078647685
 30
0.0
 11
262.9908073794774737
 21
29.0944293922872284
 31
0.0
  0
ARC
  5
4C31
  8
0
 10
262.9817546633007055
 20
29.0944539426774504
 30
0.0
 40
0.0090527494662203
 50
339.3313187529101924
 51
359.8446178728058271
  0
ARC
  5
4C32
  8
0
 10
262.9846679802266181
 20
29.0931208226735407
 30
0.0
 40
0.0058604935434695
 50
304.2842185031906865
 51
341.4731120316848205
  0
LINE
  5
4C33
  8
0
 10
262.9888031369774808
 20
29.0880622453872384
 30
0.0
 11
263.0212152446991922
 21
29.0880622453872384
 31
0.0
  0
LINE
  5
4C34
  8
0
 10
262.9697417026067114
 20
29.1140550155573195
 30
0.0
 11
262.9849940192773943
 21
29.1063090137872393
 31
0.0
  0
ARC
  5
4C35
  8
0
 10
262.9878961229745755
 20
29.1120234205113206
 30
0.0
 40
0.0064091068080466
 50
243.0759256004855047
 51
270.6531912676508114
  0
LINE
  5
4C36
  8
0
 10
262.9879691873774732
 20
29.1056147301872414
 30
0.0
 11
262.9888031369774808
 21
29.1053984060872395
 31
0.0
  0
LINE
  5
4C37
  8
0
 10
262.9908001551521011
 20
29.1227357685647696
 30
0.0
 11
262.9908073794774737
 21
29.1117655529872401
 31
0.0
  0
ARC
  5
4C38
  8
0
 10
262.9817546633007055
 20
29.1117901033774515
 30
0.0
 40
0.0090527494662203
 50
339.3313187529101924
 51
359.8446178728058271
  0
ARC
  5
4C39
  8
0
 10
262.9846679802266181
 20
29.1104569833735312
 30
0.0
 40
0.0058604935434695
 50
304.2842185031906865
 51
341.4731120316848205
  0
LINE
  5
4C3A
  8
0
 10
262.9888031369774808
 20
29.1053984060872395
 30
0.0
 11
263.0212152446991922
 21
29.1053984060872395
 31
0.0
  0
LINE
  5
4C3B
  8
0
 10
262.9697417026067114
 20
29.1313911762573206
 30
0.0
 11
262.9849940192773943
 21
29.1236451744872404
 31
0.0
  0
ARC
  5
4C3C
  8
0
 10
262.9878961229745755
 20
29.1293595812113217
 30
0.0
 40
0.0064091068080466
 50
243.0759256004855047
 51
270.6531912676508114
  0
LINE
  5
4C3D
  8
0
 10
262.9879691873774732
 20
29.122950890887239
 30
0.0
 11
262.9888031369774808
 21
29.1227345667872406
 31
0.0
  0
LINE
  5
4C3E
  8
0
 10
262.9908001551521011
 20
29.1400719292647707
 30
0.0
 11
262.9908073794774737
 21
29.1291017136872412
 31
0.0
  0
ARC
  5
4C3F
  8
0
 10
262.9817546633007055
 20
29.1291262640774491
 30
0.0
 40
0.0090527494662203
 50
339.3313187529101924
 51
359.8446178728058271
  0
ARC
  5
4C40
  8
0
 10
262.9846679802266181
 20
29.1277931440735287
 30
0.0
 40
0.0058604935434695
 50
304.2842185031906865
 51
341.4731120316848205
  0
LINE
  5
4C41
  8
0
 10
262.9888031369774808
 20
29.1227345667872406
 30
0.0
 11
263.0212152446991922
 21
29.1227345667872406
 31
0.0
  0
LINE
  5
4C42
  8
0
 10
262.9697417026067114
 20
29.1660634976573192
 30
0.0
 11
262.9849940192773943
 21
29.1583174958872391
 31
0.0
  0
ARC
  5
4C43
  8
0
 10
262.9878961229745755
 20
29.1640319026113204
 30
0.0
 40
0.0064091068080466
 50
243.0759256004855047
 51
270.6531912676508114
  0
LINE
  5
4C44
  8
0
 10
262.9908001551521011
 20
29.1747442506647587
 30
0.0
 11
262.9908073794774737
 21
29.1637740350872399
 31
0.0
  0
ARC
  5
4C45
  8
0
 10
262.9817546633007055
 20
29.1637985854774513
 30
0.0
 40
0.0090527494662203
 50
339.3313187529101924
 51
359.8446178728058271
  0
ARC
  5
4C46
  8
0
 10
262.9846679802266181
 20
29.1624654654735309
 30
0.0
 40
0.0058604935434695
 50
304.2842185031906865
 51
341.4731120316848205
  0
LINE
  5
4C47
  8
0
 10
262.9697417026067114
 20
29.1833996582573185
 30
0.0
 11
262.9849940192773943
 21
29.1756536564872384
 31
0.0
  0
ARC
  5
4C48
  8
0
 10
262.9878961229745755
 20
29.1813680632113197
 30
0.0
 40
0.0064091068080466
 50
243.0759256004855047
 51
270.6531912676508114
  0
LINE
  5
4C49
  8
0
 10
262.9879691873774732
 20
29.1749593728872405
 30
0.0
 11
262.9888031369774808
 21
29.1747430487872386
 31
0.0
  0
LINE
  5
4C4A
  8
0
 10
262.9908001551521011
 20
29.1920804112647687
 30
0.0
 11
262.9908073794774737
 21
29.1811101956872392
 31
0.0
  0
ARC
  5
4C4B
  8
0
 10
262.9817546633007055
 20
29.1811347460774506
 30
0.0
 40
0.0090527494662203
 50
339.3313187529101924
 51
359.8446178728058271
  0
ARC
  5
4C4C
  8
0
 10
262.9846679802266181
 20
29.1798016260735302
 30
0.0
 40
0.0058604935434695
 50
304.2842185031906865
 51
341.4731120316848205
  0
LINE
  5
4C4D
  8
0
 10
262.9888031369774808
 20
29.1747430487872386
 30
0.0
 11
263.0212152446991922
 21
29.1747430487872386
 31
0.0
  0
LINE
  5
4C4E
  8
0
 10
262.9697417026067114
 20
29.2007358189573196
 30
0.0
 11
262.9849940192773943
 21
29.1929898171872289
 31
0.0
  0
ARC
  5
4C4F
  8
0
 10
262.9878961229745755
 20
29.1987042239113208
 30
0.0
 40
0.0064091068080466
 50
243.0759256004855047
 51
270.6531912676508114
  0
LINE
  5
4C50
  8
0
 10
262.9879691873774732
 20
29.1922955335872416
 30
0.0
 11
262.9888031369774808
 21
29.192079209487229
 31
0.0
  0
LINE
  5
4C51
  8
0
 10
262.9908001551521011
 20
29.2094165719647698
 30
0.0
 11
262.9908073794774737
 21
29.1984463563872403
 31
0.0
  0
ARC
  5
4C52
  8
0
 10
262.9817546633007055
 20
29.1984709067774517
 30
0.0
 40
0.0090527494662203
 50
339.3313187529101924
 51
359.8446178728058271
  0
ARC
  5
4C53
  8
0
 10
262.9846679802266181
 20
29.1971377867735313
 30
0.0
 40
0.0058604935434695
 50
304.2842185031906865
 51
341.4731120316848205
  0
LINE
  5
4C54
  8
0
 10
262.9888031369774808
 20
29.192079209487229
 30
0.0
 11
263.0212152446991922
 21
29.192079209487229
 31
0.0
  0
LINE
  5
4C55
  8
0
 10
262.9697417026067114
 20
29.2180719796573207
 30
0.0
 11
262.9849940192773943
 21
29.2103259778872406
 31
0.0
  0
ARC
  5
4C56
  8
0
 10
262.9878961229745755
 20
29.2160403846113184
 30
0.0
 40
0.0064091068080466
 50
243.0759256004855047
 51
270.6531912676508114
  0
LINE
  5
4C57
  8
0
 10
262.9879691873774732
 20
29.2096316942872392
 30
0.0
 11
262.9888031369774808
 21
29.2094153701872408
 31
0.0
  0
LINE
  5
4C58
  8
0
 10
262.9908015191849131
 20
29.2246814341434913
 30
0.0
 11
262.9908073794774737
 21
29.2157825170872307
 31
0.0
  0
ARC
  5
4C59
  8
0
 10
262.9817546633007055
 20
29.2158070674774493
 30
0.0
 40
0.0090527494662203
 50
339.3313187529101924
 51
359.8446178728058271
  0
ARC
  5
4C5A
  8
0
 10
262.9846679802266181
 20
29.2144739474735289
 30
0.0
 40
0.0058604935434695
 50
304.2842185031906865
 51
341.4731120316848205
  0
LINE
  5
4C5B
  8
0
 10
262.9888031369774808
 20
29.2094153701872408
 30
0.0
 11
263.0212152446991922
 21
29.2094153701872408
 31
0.0
  0
LINE
  5
4C5C
  8
0
 10
262.9888031369774808
 20
29.1400707274872417
 30
0.0
 11
263.0212152446991922
 21
29.1400707274872417
 31
0.0
  0
ARC
  5
4C5D
  8
0
 10
262.9891009975592056
 20
29.1497388632909207
 30
0.0
 40
0.0096727230315256
 50
244.8750446629886142
 51
268.2353622129991209
  0
LINE
  5
4C5E
  8
0
 10
262.9849940192773943
 20
29.1409813350872398
 30
0.0
 11
262.969741702806914
 21
29.1487273368574407
 31
0.0
  0
LINE
  5
4C5F
  8
0
 10
263.0220491942991998
 20
29.1576232122872412
 30
0.0
 11
262.9879691873774732
 21
29.1576232121872287
 31
0.0
  0
LINE
  5
4C60
  8
0
 10
262.9879691873774732
 20
29.1576232121872287
 30
0.0
 11
262.9709214465773925
 21
29.1489448726872418
 31
0.0
  0
LINE
  5
4C61
  8
0
 10
263.2448495685699754
 20
29.113931906557319
 30
0.0
 11
263.2295972518991789
 21
29.1061859047872389
 31
0.0
  0
ARC
  5
4C62
  8
0
 10
263.2266951482021113
 20
29.1119003115113202
 30
0.0
 40
0.0064091068080466
 50
269.3468087323491886
 51
296.9240743995144953
  0
LINE
  5
4C63
  8
0
 10
263.2266220837991
 20
29.1054916211872303
 30
0.0
 11
263.2257881341990924
 21
29.105275297087239
 31
0.0
  0
LINE
  5
4C64
  8
0
 10
263.2257881341990924
 20
29.105275297087239
 30
0.0
 11
263.1933608247991856
 21
29.105294811387239
 31
0.0
  0
LINE
  5
4C65
  8
0
 10
263.1933608247991856
 20
29.105294811387239
 30
0.0
 11
263.1925266021992229
 21
29.1055121392872316
 31
0.0
  0
ARC
  5
4C66
  8
0
 10
263.1925059463655998
 20
29.1121111807543791
 30
0.0
 40
0.0065990737947535
 50
243.4256843900529077
 51
270.1793424435567772
  0
LINE
  5
4C67
  8
0
 10
263.1895537964991831
 20
29.1062092669872392
 30
0.0
 11
263.1743000337154967
 21
29.1139743622300315
 31
0.0
  0
LINE
  5
4C68
  8
0
 10
263.2237911160244721
 20
29.1226126595647692
 30
0.0
 11
263.2237838916992132
 21
29.1116424439872397
 31
0.0
  0
ARC
  5
4C69
  8
0
 10
263.2328366078759245
 20
29.1116669943774511
 30
0.0
 40
0.0090527494662203
 50
180.1553821271942013
 51
200.6686812470896086
  0
ARC
  5
4C6A
  8
0
 10
263.229923290950012
 20
29.1103338743735307
 30
0.0
 40
0.0058604935434695
 50
198.5268879683152079
 51
235.7157814968093135
  0
LINE
  5
4C6B
  8
0
 10
263.1953709903992262
 20
29.1116595424872386
 30
0.0
 11
263.1953709903992262
 21
29.1226297623977715
 31
0.0
  0
ARC
  5
4C6C
  8
0
 10
263.1859150256349267
 20
29.1118036256373607
 30
0.0
 40
0.009457062417918
 50
339.5173521566952104
 51
359.1270359184786116
  0
ARC
  5
4C6D
  8
0
 10
263.1886233127340233
 20
29.1107919733455311
 30
0.0
 40
0.0065659969793024
 50
306.474872284149626
 51
339.5173521566914019
  0
LINE
  5
4C6E
  8
0
 10
263.2448495685699754
 20
29.1312680672573201
 30
0.0
 11
263.2295972518991789
 21
29.12352206548724
 31
0.0
  0
ARC
  5
4C6F
  8
0
 10
263.2266951482021113
 20
29.1292364722113213
 30
0.0
 40
0.0064091068080466
 50
269.3468087323491886
 51
296.9240743995144953
  0
LINE
  5
4C70
  8
0
 10
263.2266220837991
 20
29.1228277818872314
 30
0.0
 11
263.2257881341990924
 21
29.1226114577872401
 31
0.0
  0
LINE
  5
4C71
  8
0
 10
263.2257881341990924
 20
29.1226114577872401
 30
0.0
 11
263.1933608247991856
 21
29.1226309720872401
 31
0.0
  0
LINE
  5
4C72
  8
0
 10
263.1933608247991856
 20
29.1226309720872401
 30
0.0
 11
263.1925266021992229
 21
29.1228482999872291
 31
0.0
  0
ARC
  5
4C73
  8
0
 10
263.1925059463655998
 20
29.1294473414543909
 30
0.0
 40
0.0065990737947535
 50
243.4256843900529077
 51
270.1793424435567772
  0
LINE
  5
4C74
  8
0
 10
263.1895537964991831
 20
29.1235454276872403
 30
0.0
 11
263.1743000337154967
 21
29.1313105229300291
 31
0.0
  0
LINE
  5
4C75
  8
0
 10
263.2237911160244721
 20
29.1399488202647703
 30
0.0
 11
263.2237838916992132
 21
29.1289786046872301
 31
0.0
  0
ARC
  5
4C76
  8
0
 10
263.2328366078759245
 20
29.1290031550774486
 30
0.0
 40
0.0090527494662203
 50
180.1553821271942013
 51
200.6686812470896086
  0
ARC
  5
4C77
  8
0
 10
263.229923290950012
 20
29.1276700350735283
 30
0.0
 40
0.0058604935434695
 50
198.5268879683152079
 51
235.7157814968093135
  0
LINE
  5
4C78
  8
0
 10
263.1953709903992262
 20
29.1289957031872397
 30
0.0
 11
263.1953709903992262
 21
29.139965923097769
 31
0.0
  0
ARC
  5
4C79
  8
0
 10
263.1859150256349267
 20
29.1291397863373582
 30
0.0
 40
0.009457062417918
 50
339.5173521566952104
 51
359.1270359184786116
  0
ARC
  5
4C7A
  8
0
 10
263.1886233127340233
 20
29.1281281340455287
 30
0.0
 40
0.0065659969793024
 50
306.474872284149626
 51
339.5173521566914019
  0
LINE
  5
4C7B
  8
0
 10
263.2448495685699754
 20
29.1659403885573205
 30
0.0
 11
263.2295972518991789
 21
29.1581943867872404
 31
0.0
  0
ARC
  5
4C7C
  8
0
 10
263.2266951482021113
 20
29.1639087935113217
 30
0.0
 40
0.0064091068080466
 50
269.3468087323491886
 51
296.9240743995144953
  0
ARC
  5
4C7D
  8
0
 10
263.1925059463655998
 20
29.1641196627543806
 30
0.0
 40
0.0065990737947535
 50
243.4256843900529077
 51
270.1793424435567772
  0
LINE
  5
4C7E
  8
0
 10
263.1895537964991831
 20
29.1582177489872407
 30
0.0
 11
263.1743000337154967
 21
29.1659828442300295
 31
0.0
  0
LINE
  5
4C7F
  8
0
 10
263.2237911160244721
 20
29.1746211415647707
 30
0.0
 11
263.2237838916992132
 21
29.1636509259872412
 31
0.0
  0
ARC
  5
4C80
  8
0
 10
263.2328366078759245
 20
29.1636754763774491
 30
0.0
 40
0.0090527494662203
 50
180.1553821271942013
 51
200.6686812470896086
  0
ARC
  5
4C81
  8
0
 10
263.229923290950012
 20
29.1623423563735287
 30
0.0
 40
0.0058604935434695
 50
198.5268879683152079
 51
235.7157814968093135
  0
LINE
  5
4C82
  8
0
 10
263.1953709903992262
 20
29.1636680244872402
 30
0.0
 11
263.1953709903992262
 21
29.1746382443977694
 31
0.0
  0
ARC
  5
4C83
  8
0
 10
263.1859150256349267
 20
29.1638121076373587
 30
0.0
 40
0.009457062417918
 50
339.5173521566952104
 51
359.1270359184786116
  0
ARC
  5
4C84
  8
0
 10
263.1886233127340233
 20
29.1628004553455291
 30
0.0
 40
0.0065659969793024
 50
306.474872284149626
 51
339.5173521566914019
  0
LINE
  5
4C85
  8
0
 10
263.2448495685699754
 20
29.1832765492573216
 30
0.0
 11
263.2295972518991789
 21
29.1755305474872415
 31
0.0
  0
ARC
  5
4C86
  8
0
 10
263.2266951482021113
 20
29.1812449542113193
 30
0.0
 40
0.0064091068080466
 50
269.3468087323491886
 51
296.9240743995144953
  0
LINE
  5
4C87
  8
0
 10
263.2266220837991
 20
29.1748362638872401
 30
0.0
 11
263.2257881341990924
 21
29.1746199397872417
 31
0.0
  0
LINE
  5
4C88
  8
0
 10
263.2257881341990924
 20
29.1746199397872417
 30
0.0
 11
263.1933608247991856
 21
29.1746394540872309
 31
0.0
  0
LINE
  5
4C89
  8
0
 10
263.1933608247991856
 20
29.1746394540872309
 30
0.0
 11
263.1925266021992229
 21
29.1748567819872413
 31
0.0
  0
ARC
  5
4C8A
  8
0
 10
263.1925059463655998
 20
29.1814558234543817
 30
0.0
 40
0.0065990737947535
 50
243.4256843900529077
 51
270.1793424435567772
  0
LINE
  5
4C8B
  8
0
 10
263.1895537964991831
 20
29.1755539096872383
 30
0.0
 11
263.1743000337154967
 21
29.1833190049300306
 31
0.0
  0
LINE
  5
4C8C
  8
0
 10
263.2237911160244721
 20
29.1919573022647683
 30
0.0
 11
263.2237838916992132
 21
29.1809870866872387
 31
0.0
  0
ARC
  5
4C8D
  8
0
 10
263.2328366078759245
 20
29.1810116370774502
 30
0.0
 40
0.0090527494662203
 50
180.1553821271942013
 51
200.6686812470896086
  0
ARC
  5
4C8E
  8
0
 10
263.229923290950012
 20
29.1796785170735404
 30
0.0
 40
0.0058604935434695
 50
198.5268879683152079
 51
235.7157814968093135
  0
LINE
  5
4C8F
  8
0
 10
263.1953709903992262
 20
29.1810041851872413
 30
0.0
 11
263.1953709903992262
 21
29.1919744050977705
 31
0.0
  0
ARC
  5
4C90
  8
0
 10
263.1859150256349267
 20
29.1811482683373598
 30
0.0
 40
0.009457062417918
 50
339.5173521566952104
 51
359.1270359184786116
  0
ARC
  5
4C91
  8
0
 10
263.1886233127340233
 20
29.1801366160455302
 30
0.0
 40
0.0065659969793024
 50
306.474872284149626
 51
339.5173521566914019
  0
LINE
  5
4C92
  8
0
 10
263.2348292860502283
 20
29.1955238354073003
 30
0.0
 11
263.2295972518991789
 21
29.1928667081872391
 31
0.0
  0
ARC
  5
4C93
  8
0
 10
263.2266951482021113
 20
29.1985811149113204
 30
0.0
 40
0.0064091068080466
 50
269.3468087323491886
 51
296.9240743995144953
  0
LINE
  5
4C94
  8
0
 10
263.2266220837991
 20
29.1921724245872305
 30
0.0
 11
263.2257881341990924
 21
29.1919561004872392
 31
0.0
  0
LINE
  5
4C95
  8
0
 10
263.2257881341990924
 20
29.1919561004872392
 30
0.0
 11
263.1933608247991856
 21
29.1919756147872285
 31
0.0
  0
LINE
  5
4C96
  8
0
 10
263.1933608247991856
 20
29.1919756147872285
 30
0.0
 11
263.1925266021992229
 21
29.1921929426872389
 31
0.0
  0
ARC
  5
4C97
  8
0
 10
263.1925059463655998
 20
29.1987919841543793
 30
0.0
 40
0.0065990737947535
 50
243.4256843900529077
 51
270.1793424435567772
  0
LINE
  5
4C98
  8
0
 10
263.1895537964991831
 20
29.1928900703872394
 30
0.0
 11
263.1743000337154967
 21
29.2006551656300317
 31
0.0
  0
LINE
  5
4C99
  8
0
 10
263.2237842009096198
 20
29.1987927867632209
 30
0.0
 11
263.2237838916992132
 21
29.1983232473872398
 31
0.0
  0
ARC
  5
4C9A
  8
0
 10
263.2328366078759245
 20
29.1983477977774513
 30
0.0
 40
0.0090527494662203
 50
180.1553821271942013
 51
200.6686812470896086
  0
ARC
  5
4C9B
  8
0
 10
263.229923290950012
 20
29.1970146777735309
 30
0.0
 40
0.0058604935434695
 50
198.5268879683152079
 51
235.7157814968093135
  0
LINE
  5
4C9C
  8
0
 10
263.1953709903992262
 20
29.1983403458872388
 30
0.0
 11
263.1953709903992262
 21
29.2059380913797497
 31
0.0
  0
ARC
  5
4C9D
  8
0
 10
263.1859150256349267
 20
29.1984844290373609
 30
0.0
 40
0.009457062417918
 50
339.5173521566952104
 51
359.1270359184786116
  0
ARC
  5
4C9E
  8
0
 10
263.1886233127340233
 20
29.1974727767455313
 30
0.0
 40
0.0065659969793024
 50
306.474872284149626
 51
339.5173521566914019
  0
LINE
  5
4C9F
  8
0
 10
263.2448495685699754
 20
29.0965957458573214
 30
0.0
 11
263.2295972518991789
 21
29.0888497440872413
 31
0.0
  0
ARC
  5
4CA0
  8
0
 10
263.2266951482021113
 20
29.0945641508113191
 30
0.0
 40
0.0064091068080466
 50
269.3468087323491886
 51
296.9240743995144953
  0
LINE
  5
4CA1
  8
0
 10
263.2266220837991
 20
29.0881554604872399
 30
0.0
 11
263.2257881341990924
 21
29.0879391363872415
 31
0.0
  0
LINE
  5
4CA2
  8
0
 10
263.2257881341990924
 20
29.0879391363872415
 30
0.0
 11
263.1933608247991856
 21
29.0879586506872414
 31
0.0
  0
LINE
  5
4CA3
  8
0
 10
263.1933608247991856
 20
29.0879586506872414
 30
0.0
 11
263.1925266021992229
 21
29.0881759785872411
 31
0.0
  0
ARC
  5
4CA4
  8
0
 10
263.1925059463655998
 20
29.0947750200543886
 30
0.0
 40
0.0065990737947535
 50
243.4256843900529077
 51
270.1793424435567772
  0
LINE
  5
4CA5
  8
0
 10
263.1895537964991831
 20
29.0888731062872417
 30
0.0
 11
263.1743000337154967
 21
29.0966382015300304
 31
0.0
  0
LINE
  5
4CA6
  8
0
 10
263.2237911160244721
 20
29.1052764988647716
 30
0.0
 11
263.2237838916992132
 21
29.0943062832872386
 31
0.0
  0
ARC
  5
4CA7
  8
0
 10
263.2328366078759245
 20
29.0943308336774606
 30
0.0
 40
0.0090527494662203
 50
180.1553821271942013
 51
200.6686812470896086
  0
ARC
  5
4CA8
  8
0
 10
263.229923290950012
 20
29.0929977136735296
 30
0.0
 40
0.0058604935434695
 50
198.5268879683152079
 51
235.7157814968093135
  0
LINE
  5
4CA9
  8
0
 10
263.1953709903992262
 20
29.0943233817872411
 30
0.0
 11
263.1953709903992262
 21
29.1052936016977704
 31
0.0
  0
ARC
  5
4CAA
  8
0
 10
263.1859150256349267
 20
29.0944674649373596
 30
0.0
 40
0.009457062417918
 50
339.5173521566952104
 51
359.1270359184786116
  0
ARC
  5
4CAB
  8
0
 10
263.1886233127340233
 20
29.09345581264553
 30
0.0
 40
0.0065659969793024
 50
306.474872284149626
 51
339.5173521566914019
  0
LINE
  5
4CAC
  8
0
 10
263.1937063461700177
 20
29.0879584427573192
 30
0.0
 11
263.1784540294991075
 21
29.0802124409872391
 31
0.0
  0
ARC
  5
4CAD
  8
0
 10
263.1755519258020968
 20
29.0859268477113204
 30
0.0
 40
0.0064091068080466
 50
269.3468087323491886
 51
296.9240743995144953
  0
LINE
  5
4CAE
  8
0
 10
263.1754788613990854
 20
29.0795181573872306
 30
0.0
 11
263.1746449117991915
 21
29.0793018332872393
 31
0.0
  0
LINE
  5
4CAF
  8
0
 10
263.1746449117991915
 20
29.0793018332872393
 30
0.0
 11
263.1422176023992279
 21
29.0793213475872392
 31
0.0
  0
LINE
  5
4CB0
  8
0
 10
263.1422176023992279
 20
29.0793213475872392
 30
0.0
 11
263.1413833797992083
 21
29.0795386754872283
 31
0.0
  0
ARC
  5
4CB1
  8
0
 10
263.1413627239655852
 20
29.0861377169543793
 30
0.0
 40
0.0065990737947535
 50
243.4256843900529077
 51
270.1793424435567772
  0
LINE
  5
4CB2
  8
0
 10
263.1384105740992254
 20
29.0802358031872394
 30
0.0
 11
263.1231568113154822
 21
29.0880008984300282
 31
0.0
  0
LINE
  5
4CB3
  8
0
 10
263.1726478936246281
 20
29.0966391957647694
 30
0.0
 11
263.1726406692990849
 21
29.0856689801872399
 31
0.0
  0
ARC
  5
4CB4
  8
0
 10
263.18169338547591
 20
29.0856935305774513
 30
0.0
 40
0.0090527494662203
 50
180.1553821271942013
 51
200.6686812470896086
  0
ARC
  5
4CB5
  8
0
 10
263.1787800685499974
 20
29.0843604105735309
 30
0.0
 40
0.0058604935434695
 50
198.5268879683152079
 51
235.7157814968093135
  0
LINE
  5
4CB6
  8
0
 10
263.1442277679992117
 20
29.0856860786872389
 30
0.0
 11
263.1442277679992117
 21
29.0966562985977717
 31
0.0
  0
ARC
  5
4CB7
  8
0
 10
263.1347718032350258
 20
29.0858301618373609
 30
0.0
 40
0.009457062417918
 50
339.5173521566952104
 51
359.1270359184786116
  0
ARC
  5
4CB8
  8
0
 10
263.1374800903340088
 20
29.0848185095455314
 30
0.0
 40
0.0065659969793024
 50
306.474872284149626
 51
339.5173521566914019
  0
LINE
  5
4CB9
  8
0
 10
263.1937063461700177
 20
29.1052946034573203
 30
0.0
 11
263.1784540294991075
 21
29.0975486016872402
 31
0.0
  0
ARC
  5
4CBA
  8
0
 10
263.1755519258020968
 20
29.1032630084113215
 30
0.0
 40
0.0064091068080466
 50
269.3468087323491886
 51
296.9240743995144953
  0
LINE
  5
4CBB
  8
0
 10
263.1754788613990854
 20
29.0968543180872317
 30
0.0
 11
263.1746449117991915
 21
29.0966379939872404
 31
0.0
  0
LINE
  5
4CBC
  8
0
 10
263.1746449117991915
 20
29.0966379939872404
 30
0.0
 11
263.1422176023992279
 21
29.0966575082872403
 31
0.0
  0
LINE
  5
4CBD
  8
0
 10
263.1422176023992279
 20
29.0966575082872403
 30
0.0
 11
263.1413833797992083
 21
29.09687483618724
 31
0.0
  0
ARC
  5
4CBE
  8
0
 10
263.1413627239655852
 20
29.1034738776543911
 30
0.0
 40
0.0065990737947535
 50
243.4256843900529077
 51
270.1793424435567772
  0
LINE
  5
4CBF
  8
0
 10
263.1384105740992254
 20
29.0975719638872405
 30
0.0
 11
263.1231568113154822
 21
29.1053370591300293
 31
0.0
  0
LINE
  5
4CC0
  8
0
 10
263.1726478936246281
 20
29.1139753564647705
 30
0.0
 11
263.1726406692990849
 21
29.1030051408872303
 31
0.0
  0
ARC
  5
4CC1
  8
0
 10
263.18169338547591
 20
29.1030296912774489
 30
0.0
 40
0.0090527494662203
 50
180.1553821271942013
 51
200.6686812470896086
  0
ARC
  5
4CC2
  8
0
 10
263.1787800685499974
 20
29.1016965712735285
 30
0.0
 40
0.0058604935434695
 50
198.5268879683152079
 51
235.7157814968093135
  0
LINE
  5
4CC3
  8
0
 10
263.1442277679992117
 20
29.10302223938724
 30
0.0
 11
263.1442277679992117
 21
29.1139924592977692
 31
0.0
  0
ARC
  5
4CC4
  8
0
 10
263.1347718032350258
 20
29.1031663225373585
 30
0.0
 40
0.009457062417918
 50
339.5173521566952104
 51
359.1270359184786116
  0
ARC
  5
4CC5
  8
0
 10
263.1374800903340088
 20
29.1021546702455289
 30
0.0
 40
0.0065659969793024
 50
306.474872284149626
 51
339.5173521566914019
  0
LINE
  5
4CC6
  8
0
 10
263.1937063461700177
 20
29.1226307641573214
 30
0.0
 11
263.1784540294991075
 21
29.1148847623872307
 31
0.0
  0
ARC
  5
4CC7
  8
0
 10
263.1755519258020968
 20
29.1205991691113191
 30
0.0
 40
0.0064091068080466
 50
269.3468087323491886
 51
296.9240743995144953
  0
LINE
  5
4CC8
  8
0
 10
263.1754788613990854
 20
29.1141904787872292
 30
0.0
 11
263.1746449117991915
 21
29.1139741546872308
 31
0.0
  0
LINE
  5
4CC9
  8
0
 10
263.1746449117991915
 20
29.1139741546872308
 30
0.0
 11
263.1422176023992279
 21
29.1139936689872414
 31
0.0
  0
LINE
  5
4CCA
  8
0
 10
263.1422176023992279
 20
29.1139936689872414
 30
0.0
 11
263.1413833797992083
 21
29.1142109968872411
 31
0.0
  0
ARC
  5
4CCB
  8
0
 10
263.1413627239655852
 20
29.1208100383543886
 30
0.0
 40
0.0065990737947535
 50
243.4256843900529077
 51
270.1793424435567772
  0
LINE
  5
4CCC
  8
0
 10
263.1384105740992254
 20
29.1149081245872416
 30
0.0
 11
263.1231568113154822
 21
29.1226732198300304
 31
0.0
  0
LINE
  5
4CCD
  8
0
 10
263.1726478936246281
 20
29.1313115171647716
 30
0.0
 11
263.1726406692990849
 21
29.1203413015872385
 31
0.0
  0
ARC
  5
4CCE
  8
0
 10
263.18169338547591
 20
29.12036585197745
 30
0.0
 40
0.0090527494662203
 50
180.1553821271942013
 51
200.6686812470896086
  0
ARC
  5
4CCF
  8
0
 10
263.1787800685499974
 20
29.1190327319735296
 30
0.0
 40
0.0058604935434695
 50
198.5268879683152079
 51
235.7157814968093135
  0
LINE
  5
4CD0
  8
0
 10
263.1442277679992117
 20
29.1203584000872304
 30
0.0
 11
263.1442277679992117
 21
29.1313286199977703
 31
0.0
  0
ARC
  5
4CD1
  8
0
 10
263.1347718032350258
 20
29.1205024832373596
 30
0.0
 40
0.009457062417918
 50
339.5173521566952104
 51
359.1270359184786116
  0
ARC
  5
4CD2
  8
0
 10
263.1374800903340088
 20
29.11949083094553
 30
0.0
 40
0.0065659969793024
 50
306.474872284149626
 51
339.5173521566914019
  0
LINE
  5
4CD3
  8
0
 10
263.1937063461700177
 20
29.139966924857319
 30
0.0
 11
263.1784540294991075
 21
29.1322209230872318
 31
0.0
  0
ARC
  5
4CD4
  8
0
 10
263.1755519258020968
 20
29.1379353298113202
 30
0.0
 40
0.0064091068080466
 50
269.3468087323491886
 51
296.9240743995144953
  0
LINE
  5
4CD5
  8
0
 10
263.1754788613990854
 20
29.131526639487241
 30
0.0
 11
263.1746449117991915
 21
29.1313103153872284
 31
0.0
  0
LINE
  5
4CD6
  8
0
 10
263.1746449117991915
 20
29.1313103153872284
 30
0.0
 11
263.1422176023992279
 21
29.1313298296872389
 31
0.0
  0
LINE
  5
4CD7
  8
0
 10
263.1422176023992279
 20
29.1313298296872389
 30
0.0
 11
263.1413833797992083
 21
29.1315471575872387
 31
0.0
  0
ARC
  5
4CD8
  8
0
 10
263.1413627239655852
 20
29.1381461990543791
 30
0.0
 40
0.0065990737947535
 50
243.4256843900529077
 51
270.1793424435567772
  0
LINE
  5
4CD9
  8
0
 10
263.1384105740992254
 20
29.1322442852872392
 30
0.0
 11
263.1231568113154822
 21
29.1400093805300315
 31
0.0
  0
LINE
  5
4CDA
  8
0
 10
263.1726478936246281
 20
29.1486476778647692
 30
0.0
 11
263.1726406692990849
 21
29.1376774622872396
 31
0.0
  0
ARC
  5
4CDB
  8
0
 10
263.18169338547591
 20
29.1377020126774511
 30
0.0
 40
0.0090527494662203
 50
180.1553821271942013
 51
200.6686812470896086
  0
ARC
  5
4CDC
  8
0
 10
263.1787800685499974
 20
29.1363688926735307
 30
0.0
 40
0.0058604935434695
 50
198.5268879683152079
 51
235.7157814968093135
  0
LINE
  5
4CDD
  8
0
 10
263.1442277679992117
 20
29.1376945607872315
 30
0.0
 11
263.1442277679992117
 21
29.1486647806977714
 31
0.0
  0
ARC
  5
4CDE
  8
0
 10
263.1347718032350258
 20
29.1378386439373607
 30
0.0
 40
0.009457062417918
 50
339.5173521566952104
 51
359.1270359184786116
  0
ARC
  5
4CDF
  8
0
 10
263.1374800903340088
 20
29.1368269916455311
 30
0.0
 40
0.0065659969793024
 50
306.474872284149626
 51
339.5173521566914019
  0
LINE
  5
4CE0
  8
0
 10
263.1754788613990854
 20
29.1488628000872403
 30
0.0
 11
263.1746449117991915
 21
29.1486464759872383
 31
0.0
  0
LINE
  5
4CE1
  8
0
 10
263.1746449117991915
 20
29.1486464759872383
 30
0.0
 11
263.1422176023992279
 21
29.1486659902872312
 31
0.0
  0
LINE
  5
4CE2
  8
0
 10
263.1422176023992279
 20
29.1486659902872312
 30
0.0
 11
263.1413833797992083
 21
29.1488833181872415
 31
0.0
  0
ARC
  5
4CE3
  8
0
 10
263.1413627239655852
 20
29.1554823596543784
 30
0.0
 40
0.0065990737947535
 50
243.4256843900529077
 51
270.1793424435567772
  0
LINE
  5
4CE4
  8
0
 10
263.1384105740992254
 20
29.1495804458872385
 30
0.0
 11
263.1231568113154822
 21
29.1573455411300309
 31
0.0
  0
LINE
  5
4CE5
  8
0
 10
263.1726478936246281
 20
29.1659838384647685
 30
0.0
 11
263.1726406692990849
 21
29.155013622887239
 31
0.0
  0
ARC
  5
4CE6
  8
0
 10
263.18169338547591
 20
29.1550381732774504
 30
0.0
 40
0.0090527494662203
 50
180.1553821271942013
 51
200.6686812470896086
  0
ARC
  5
4CE7
  8
0
 10
263.1787800685499974
 20
29.15370505327353
 30
0.0
 40
0.0058604935434695
 50
198.5268879683152079
 51
235.7157814968093135
  0
LINE
  5
4CE8
  8
0
 10
263.1442277679992117
 20
29.1550307213872415
 30
0.0
 11
263.1442277679992117
 21
29.1660009412977708
 31
0.0
  0
ARC
  5
4CE9
  8
0
 10
263.1347718032350258
 20
29.15517480453736
 30
0.0
 40
0.009457062417918
 50
339.5173521566952104
 51
359.1270359184786116
  0
ARC
  5
4CEA
  8
0
 10
263.1374800903340088
 20
29.1541631522455305
 30
0.0
 40
0.0065659969793024
 50
306.474872284149626
 51
339.5173521566914019
  0
LINE
  5
4CEB
  8
0
 10
263.1937063461700177
 20
29.1746392461573194
 30
0.0
 11
263.1784540294991075
 21
29.1668932443872393
 31
0.0
  0
ARC
  5
4CEC
  8
0
 10
263.1755519258020968
 20
29.1726076511113206
 30
0.0
 40
0.0064091068080466
 50
269.3468087323491886
 51
296.9240743995144953
  0
LINE
  5
4CED
  8
0
 10
263.1754788613990854
 20
29.1661989607872307
 30
0.0
 11
263.1746449117991915
 21
29.1659826366872394
 31
0.0
  0
LINE
  5
4CEE
  8
0
 10
263.1746449117991915
 20
29.1659826366872394
 30
0.0
 11
263.1422176023992279
 21
29.1660021509872287
 31
0.0
  0
LINE
  5
4CEF
  8
0
 10
263.1422176023992279
 20
29.1660021509872287
 30
0.0
 11
263.1413833797992083
 21
29.1662194788872391
 31
0.0
  0
ARC
  5
4CF0
  8
0
 10
263.1413627239655852
 20
29.1728185203543902
 30
0.0
 40
0.0065990737947535
 50
243.4256843900529077
 51
270.1793424435567772
  0
LINE
  5
4CF1
  8
0
 10
263.1384105740992254
 20
29.1669166065872396
 30
0.0
 11
263.1231568113154822
 21
29.1746817018300284
 31
0.0
  0
LINE
  5
4CF2
  8
0
 10
263.1726478936246281
 20
29.1833199991647696
 30
0.0
 11
263.1726406692990849
 21
29.1723497835872401
 31
0.0
  0
ARC
  5
4CF3
  8
0
 10
263.18169338547591
 20
29.1723743339774515
 30
0.0
 40
0.0090527494662203
 50
180.1553821271942013
 51
200.6686812470896086
  0
ARC
  5
4CF4
  8
0
 10
263.1787800685499974
 20
29.1710412139735311
 30
0.0
 40
0.0058604935434695
 50
198.5268879683152079
 51
235.7157814968093135
  0
LINE
  5
4CF5
  8
0
 10
263.1442277679992117
 20
29.172366882087239
 30
0.0
 11
263.1442277679992117
 21
29.1833371019977683
 31
0.0
  0
ARC
  5
4CF6
  8
0
 10
263.1347718032350258
 20
29.1725109652373611
 30
0.0
 40
0.009457062417918
 50
339.5173521566952104
 51
359.1270359184786116
  0
ARC
  5
4CF7
  8
0
 10
263.1374800903340088
 20
29.1714993129455316
 30
0.0
 40
0.0065659969793024
 50
306.474872284149626
 51
339.5173521566914019
  0
LINE
  5
4CF8
  8
0
 10
263.1937063461700177
 20
29.1919754068573205
 30
0.0
 11
263.1784540294991075
 21
29.1842294050872404
 31
0.0
  0
ARC
  5
4CF9
  8
0
 10
263.1755519258020968
 20
29.1899438118113217
 30
0.0
 40
0.0064091068080466
 50
269.3468087323491886
 51
296.9240743995144953
  0
LINE
  5
4CFA
  8
0
 10
263.1754788613990854
 20
29.1835351214872389
 30
0.0
 11
263.1746449117991915
 21
29.1833187973872406
 31
0.0
  0
LINE
  5
4CFB
  8
0
 10
263.1746449117991915
 20
29.1833187973872406
 30
0.0
 11
263.1422176023992279
 21
29.1833383116872405
 31
0.0
  0
LINE
  5
4CFC
  8
0
 10
263.1422176023992279
 20
29.1833383116872405
 30
0.0
 11
263.1413833797992083
 21
29.1835556395872402
 31
0.0
  0
ARC
  5
4CFD
  8
0
 10
263.1413627239655852
 20
29.1901546810543913
 30
0.0
 40
0.0065990737947535
 50
243.4256843900529077
 51
270.1793424435567772
  0
LINE
  5
4CFE
  8
0
 10
263.1384105740992254
 20
29.1842527672872407
 30
0.0
 11
263.1231568113154822
 21
29.1920178625300295
 31
0.0
  0
LINE
  5
4CFF
  8
0
 10
263.1726478936246281
 20
29.2006561598647707
 30
0.0
 11
263.1726406692990849
 21
29.1896859442872412
 31
0.0
  0
ARC
  5
4D00
  8
0
 10
263.18169338547591
 20
29.189710494677449
 30
0.0
 40
0.0090527494662203
 50
180.1553821271942013
 51
200.6686812470896086
  0
ARC
  5
4D01
  8
0
 10
263.1787800685499974
 20
29.1883773746735287
 30
0.0
 40
0.0058604935434695
 50
198.5268879683152079
 51
235.7157814968093135
  0
LINE
  5
4D02
  8
0
 10
263.1442277679992117
 20
29.1897030427872402
 30
0.0
 11
263.1442277679992117
 21
29.2006732626977694
 31
0.0
  0
ARC
  5
4D03
  8
0
 10
263.1347718032350258
 20
29.1898471259373586
 30
0.0
 40
0.009457062417918
 50
339.5173521566952104
 51
359.1270359184786116
  0
ARC
  5
4D04
  8
0
 10
263.1374800903340088
 20
29.1888354736455291
 30
0.0
 40
0.0065659969793024
 50
306.474872284149626
 51
339.5173521566914019
  0
LINE
  5
4D05
  8
0
 10
263.1895319971683875
 20
29.2071915935590809
 30
0.0
 11
263.1784540294991075
 21
29.2015655657872308
 31
0.0
  0
ARC
  5
4D06
  8
0
 10
263.1755519258020968
 20
29.2072799725113192
 30
0.0
 40
0.0064091068080466
 50
269.3468087323491886
 51
296.9240743995144953
  0
LINE
  5
4D07
  8
0
 10
263.1754788613990854
 20
29.20087128218724
 30
0.0
 11
263.1746449117991915
 21
29.200654958087231
 31
0.0
  0
LINE
  5
4D08
  8
0
 10
263.1746449117991915
 20
29.200654958087231
 30
0.0
 11
263.1422176023992279
 21
29.2006744723872416
 31
0.0
  0
LINE
  5
4D09
  8
0
 10
263.1422176023992279
 20
29.2006744723872416
 30
0.0
 11
263.1413833797992083
 21
29.2008918002872413
 31
0.0
  0
ARC
  5
4D0A
  8
0
 10
263.1413627239655852
 20
29.2074908417543888
 30
0.0
 40
0.0065990737947535
 50
243.4256843900529077
 51
270.1793424435567772
  0
LINE
  5
4D0B
  8
0
 10
263.1384105740992254
 20
29.2015889279872383
 30
0.0
 11
263.1231568113154822
 21
29.2093540232300306
 31
0.0
  0
LINE
  5
4D0C
  8
0
 10
263.1726429788316182
 20
29.2105291547228383
 30
0.0
 11
263.1726406692990849
 21
29.2070221049872387
 31
0.0
  0
ARC
  5
4D0D
  8
0
 10
263.18169338547591
 20
29.2070466553774502
 30
0.0
 40
0.0090527494662203
 50
180.1553821271942013
 51
200.6686812470896086
  0
ARC
  5
4D0E
  8
0
 10
263.1787800685499974
 20
29.2057135353735298
 30
0.0
 40
0.0058604935434695
 50
198.5268879683152079
 51
235.7157814968093135
  0
LINE
  5
4D0F
  8
0
 10
263.1442277679992117
 20
29.2070392034872306
 30
0.0
 11
263.1442277679992117
 21
29.2152031743159704
 31
0.0
  0
ARC
  5
4D10
  8
0
 10
263.1347718032350258
 20
29.2071832866373597
 30
0.0
 40
0.009457062417918
 50
339.5173521566952104
 51
359.1270359184786116
  0
ARC
  5
4D11
  8
0
 10
263.1374800903340088
 20
29.2061716343455302
 30
0.0
 40
0.0065659969793024
 50
306.474872284149626
 51
339.5173521566914019
  0
LINE
  5
4D12
  8
0
 10
263.2902984238984914
 20
29.1716857652459183
 30
0.0
 11
263.2807404742991935
 21
29.1668316898872391
 31
0.0
  0
ARC
  5
4D13
  8
0
 10
263.2778383706021259
 20
29.1725460966113204
 30
0.0
 40
0.0064091068080466
 50
269.3468087323491886
 51
296.9240743995144953
  0
LINE
  5
4D14
  8
0
 10
263.2777653061992282
 20
29.1661374062872412
 30
0.0
 11
263.2769313565991069
 21
29.1659210821872392
 31
0.0
  0
LINE
  5
4D15
  8
0
 10
263.2769313565991069
 20
29.1659210821872392
 30
0.0
 11
263.2445040471992002
 21
29.1659405964872391
 31
0.0
  0
LINE
  5
4D16
  8
0
 10
263.2445040471992002
 20
29.1659405964872391
 30
0.0
 11
263.2436698245991806
 21
29.1661579243872389
 31
0.0
  0
ARC
  5
4D17
  8
0
 10
263.2436491687656144
 20
29.1727569658543793
 30
0.0
 40
0.0065990737947535
 50
243.4256843900529077
 51
270.1793424435567772
  0
LINE
  5
4D18
  8
0
 10
263.240697018899084
 20
29.1668550520872394
 30
0.0
 11
263.2254432561153976
 21
29.1746201473300317
 31
0.0
  0
LINE
  5
4D19
  8
0
 10
263.2749321979808883
 20
29.1800081580472295
 30
0.0
 11
263.2749271140992278
 21
29.1722882290872398
 31
0.0
  0
ARC
  5
4D1A
  8
0
 10
263.2839798302758823
 20
29.1723127794774513
 30
0.0
 40
0.0090527494662203
 50
180.1553821271942013
 51
200.6686812470896086
  0
ARC
  5
4D1B
  8
0
 10
263.2810665133500265
 20
29.1709796594735309
 30
0.0
 40
0.0058604935434695
 50
198.5268879683152079
 51
235.7157814968093135
  0
LINE
  5
4D1C
  8
0
 10
263.246514212799184
 20
29.1723053275872388
 30
0.0
 11
263.246514212799184
 21
29.1832755474977716
 31
0.0
  0
ARC
  5
4D1D
  8
0
 10
263.2370582480349981
 20
29.1724494107373609
 30
0.0
 40
0.009457062417918
 50
339.5173521566952104
 51
359.1270359184786116
  0
ARC
  5
4D1E
  8
0
 10
263.2397665351339811
 20
29.1714377584455313
 30
0.0
 40
0.0065659969793024
 50
306.474872284149626
 51
339.5173521566914019
  0
LINE
  5
4D1F
  8
0
 10
263.2677939133877771
 20
29.1832627416724115
 30
0.0
 11
263.2445040471992002
 21
29.1832767571872402
 31
0.0
  0
LINE
  5
4D20
  8
0
 10
263.2445040471992002
 20
29.1832767571872402
 30
0.0
 11
263.2436698245991806
 21
29.18349408508724
 31
0.0
  0
ARC
  5
4D21
  8
0
 10
263.2436491687656144
 20
29.1900931265543804
 30
0.0
 40
0.0065990737947535
 50
243.4256843900529077
 51
270.1793424435567772
  0
LINE
  5
4D22
  8
0
 10
263.240697018899084
 20
29.1841912127872405
 30
0.0
 11
263.2254432561153976
 21
29.1919563080300293
 31
0.0
  0
LINE
  5
4D23
  8
0
 10
263.246514212799184
 20
29.1896414882872399
 30
0.0
 11
263.246514212799184
 21
29.1916771569541496
 31
0.0
  0
ARC
  5
4D24
  8
0
 10
263.2370582480349981
 20
29.1897855714373584
 30
0.0
 40
0.009457062417918
 50
339.5173521566952104
 51
359.1270359184786116
  0
ARC
  5
4D25
  8
0
 10
263.2397665351339811
 20
29.1887739191455289
 30
0.0
 40
0.0065659969793024
 50
306.474872284149626
 51
339.5173521566914019
  0
LINE
  5
4D26
  8
0
 10
263.29599279096999
 20
29.1572415309573216
 30
0.0
 11
263.2807404742991935
 21
29.1494955291872415
 31
0.0
  0
ARC
  5
4D27
  8
0
 10
263.2778383706021259
 20
29.1552099359113193
 30
0.0
 40
0.0064091068080466
 50
269.3468087323491886
 51
296.9240743995144953
  0
LINE
  5
4D28
  8
0
 10
263.2777653061992282
 20
29.1488012455872401
 30
0.0
 11
263.2769313565991069
 21
29.1485849214872417
 31
0.0
  0
LINE
  5
4D29
  8
0
 10
263.2769313565991069
 20
29.1485849214872417
 30
0.0
 11
263.2445040471992002
 21
29.1486044357872309
 31
0.0
  0
LINE
  5
4D2A
  8
0
 10
263.2445040471992002
 20
29.1486044357872309
 30
0.0
 11
263.2436698245991806
 21
29.1488217636872413
 31
0.0
  0
LINE
  5
4D2B
  8
0
 10
263.2749343384244867
 20
29.1659222839647683
 30
0.0
 11
263.2749271140992278
 21
29.1549520683872387
 31
0.0
  0
ARC
  5
4D2C
  8
0
 10
263.2839798302758823
 20
29.1549766187774608
 30
0.0
 40
0.0090527494662203
 50
180.1553821271942013
 51
200.6686812470896086
  0
ARC
  5
4D2D
  8
0
 10
263.2810665133500265
 20
29.1536434987735404
 30
0.0
 40
0.0058604935434695
 50
198.5268879683152079
 51
235.7157814968093135
  0
LINE
  5
4D2E
  8
0
 10
263.246514212799184
 20
29.1549691668872413
 30
0.0
 11
263.246514212799184
 21
29.1659393867977705
 31
0.0
  0
ARC
  5
4D2F
  8
0
 10
263.2370582480349981
 20
29.1551132500373598
 30
0.0
 40
0.009457062417918
 50
339.5173521566952104
 51
359.1270359184786116
  0
ARC
  5
4D30
  8
0
 10
263.2397665351339811
 20
29.1541015977455409
 30
0.0
 40
0.0065659969793024
 50
306.474872284149626
 51
339.5173521566914019
  0
LINE
  5
4D31
  8
0
 10
263.29599279096999
 20
29.1399053703573188
 30
0.0
 11
263.2807404742991935
 21
29.1321593685872386
 31
0.0
  0
ARC
  5
4D32
  8
0
 10
263.2778383706021259
 20
29.1378737753113199
 30
0.0
 40
0.0064091068080466
 50
269.3468087323491886
 51
296.9240743995144953
  0
LINE
  5
4D33
  8
0
 10
263.2777653061992282
 20
29.1314650849872301
 30
0.0
 11
263.2769313565991069
 21
29.1312487608872388
 31
0.0
  0
LINE
  5
4D34
  8
0
 10
263.2769313565991069
 20
29.1312487608872388
 30
0.0
 11
263.2445040471992002
 21
29.1312682751872387
 31
0.0
  0
LINE
  5
4D35
  8
0
 10
263.2445040471992002
 20
29.1312682751872387
 30
0.0
 11
263.2436698245991806
 21
29.1314856030872313
 31
0.0
  0
ARC
  5
4D36
  8
0
 10
263.2436491687656144
 20
29.1380846445543789
 30
0.0
 40
0.0065990737947535
 50
243.4256843900529077
 51
270.1793424435567772
  0
LINE
  5
4D37
  8
0
 10
263.240697018899084
 20
29.132182730787239
 30
0.0
 11
263.2254432561153976
 21
29.1399478260300313
 31
0.0
  0
LINE
  5
4D38
  8
0
 10
263.2749343384244867
 20
29.148586123364769
 30
0.0
 11
263.2749271140992278
 21
29.1376159077872394
 31
0.0
  0
ARC
  5
4D39
  8
0
 10
263.2839798302758823
 20
29.1376404581774509
 30
0.0
 40
0.0090527494662203
 50
180.1553821271942013
 51
200.6686812470896086
  0
ARC
  5
4D3A
  8
0
 10
263.2810665133500265
 20
29.1363073381735305
 30
0.0
 40
0.0058604935434695
 50
198.5268879683152079
 51
235.7157814968093135
  0
LINE
  5
4D3B
  8
0
 10
263.246514212799184
 20
29.1376330062872384
 30
0.0
 11
263.246514212799184
 21
29.1486032261977712
 31
0.0
  0
ARC
  5
4D3C
  8
0
 10
263.2370582480349981
 20
29.1377770894373604
 30
0.0
 40
0.009457062417918
 50
339.5173521566952104
 51
359.1270359184786116
  0
ARC
  5
4D3D
  8
0
 10
263.2397665351339811
 20
29.1367654371455309
 30
0.0
 40
0.0065659969793024
 50
306.474872284149626
 51
339.5173521566914019
  0
LINE
  5
4D3E
  8
0
 10
263.29599279096999
 20
29.1225692096573212
 30
0.0
 11
263.2807404742991935
 21
29.1148232078872411
 31
0.0
  0
ARC
  5
4D3F
  8
0
 10
263.2778383706021259
 20
29.1205376146113188
 30
0.0
 40
0.0064091068080466
 50
269.3468087323491886
 51
296.9240743995144953
  0
LINE
  5
4D40
  8
0
 10
263.2777653061992282
 20
29.1141289242872396
 30
0.0
 11
263.2769313565991069
 21
29.1139126001872413
 31
0.0
  0
LINE
  5
4D41
  8
0
 10
263.2769313565991069
 20
29.1139126001872413
 30
0.0
 11
263.2445040471992002
 21
29.1139321144872412
 31
0.0
  0
LINE
  5
4D42
  8
0
 10
263.2445040471992002
 20
29.1139321144872412
 30
0.0
 11
263.2436698245991806
 21
29.1141494423872409
 31
0.0
  0
ARC
  5
4D43
  8
0
 10
263.2436491687656144
 20
29.1207484838543884
 30
0.0
 40
0.0065990737947535
 50
243.4256843900529077
 51
270.1793424435567772
  0
LINE
  5
4D44
  8
0
 10
263.240697018899084
 20
29.1148465700872414
 30
0.0
 11
263.2254432561153976
 21
29.1226116653300302
 31
0.0
  0
LINE
  5
4D45
  8
0
 10
263.2749343384244867
 20
29.1312499626647714
 30
0.0
 11
263.2749271140992278
 21
29.1202797470872383
 31
0.0
  0
ARC
  5
4D46
  8
0
 10
263.2839798302758823
 20
29.1203042974774604
 30
0.0
 40
0.0090527494662203
 50
180.1553821271942013
 51
200.6686812470896086
  0
ARC
  5
4D47
  8
0
 10
263.2810665133500265
 20
29.1189711774735294
 30
0.0
 40
0.0058604935434695
 50
198.5268879683152079
 51
235.7157814968093135
  0
LINE
  5
4D48
  8
0
 10
263.246514212799184
 20
29.1202968455872409
 30
0.0
 11
263.246514212799184
 21
29.1312670654977701
 31
0.0
  0
ARC
  5
4D49
  8
0
 10
263.2370582480349981
 20
29.1204409287373593
 30
0.0
 40
0.009457062417918
 50
339.5173521566952104
 51
359.1270359184786116
  0
ARC
  5
4D4A
  8
0
 10
263.2397665351339811
 20
29.1194292764455298
 30
0.0
 40
0.0065659969793024
 50
306.474872284149626
 51
339.5173521566914019
  0
LINE
  5
4D4B
  8
0
 10
263.2719494327695884
 20
29.0965794375391305
 30
0.0
 11
263.2445040471992002
 21
29.0965959537872401
 31
0.0
  0
LINE
  5
4D4C
  8
0
 10
263.2445040471992002
 20
29.0965959537872401
 30
0.0
 11
263.2436698245991806
 21
29.0968132816872398
 31
0.0
  0
ARC
  5
4D4D
  8
0
 10
263.2436491687656144
 20
29.1034123231543909
 30
0.0
 40
0.0065990737947535
 50
243.4256843900529077
 51
270.1793424435567772
  0
LINE
  5
4D4E
  8
0
 10
263.240697018899084
 20
29.0975104093872403
 30
0.0
 11
263.2254432561153976
 21
29.1052755046300291
 31
0.0
  0
LINE
  5
4D4F
  8
0
 10
263.246514212799184
 20
29.1029606848872398
 30
0.0
 11
263.246514212799184
 21
29.113930904797769
 31
0.0
  0
ARC
  5
4D50
  8
0
 10
263.2370582480349981
 20
29.1031047680373582
 30
0.0
 40
0.009457062417918
 50
339.5173521566952104
 51
359.1270359184786116
  0
ARC
  5
4D51
  8
0
 10
263.2397665351339811
 20
29.1020931157455287
 30
0.0
 40
0.0065659969793024
 50
306.474872284149626
 51
339.5173521566914019
  0
LINE
  5
4D52
  8
0
 10
263.1425631237700031
 20
29.0793211396573206
 30
0.0
 11
263.1273108070990929
 21
29.0715751378872405
 31
0.0
  0
ARC
  5
4D53
  8
0
 10
263.1244087034020822
 20
29.0772895446113218
 30
0.0
 40
0.0064091068080466
 50
269.3468087323491886
 51
296.9240743995144953
  0
LINE
  5
4D54
  8
0
 10
263.1243356389991845
 20
29.0708808542872283
 30
0.0
 11
263.1235016893991769
 21
29.0706645301872406
 31
0.0
  0
LINE
  5
4D55
  8
0
 10
263.1235016893991769
 20
29.0706645301872406
 30
0.0
 11
263.0910743799990996
 21
29.0706840444872405
 31
0.0
  0
LINE
  5
4D56
  8
0
 10
263.0910743799990996
 20
29.0706840444872405
 30
0.0
 11
263.0902401573991938
 21
29.0709013723872403
 31
0.0
  0
ARC
  5
4D57
  8
0
 10
263.0902195015656275
 20
29.0775004138543913
 30
0.0
 40
0.0065990737947535
 50
243.4256843900529077
 51
270.1793424435567772
  0
LINE
  5
4D58
  8
0
 10
263.0872673516992108
 20
29.0715985000872408
 30
0.0
 11
263.0720135889155245
 21
29.0793635953300296
 31
0.0
  0
LINE
  5
4D59
  8
0
 10
263.1215046712246135
 20
29.0880018926647708
 30
0.0
 11
263.1214974468991841
 21
29.0770316770872306
 31
0.0
  0
ARC
  5
4D5A
  8
0
 10
263.1305501630758954
 20
29.0770562274774491
 30
0.0
 40
0.0090527494662203
 50
180.1553821271942013
 51
200.6686812470896086
  0
ARC
  5
4D5B
  8
0
 10
263.1276368461500965
 20
29.0757231074735287
 30
0.0
 40
0.0058604935434695
 50
198.5268879683152079
 51
235.7157814968093135
  0
LINE
  5
4D5C
  8
0
 10
263.0930845455991971
 20
29.0770487755872402
 30
0.0
 11
263.0930845455991971
 21
29.0880189954977695
 31
0.0
  0
ARC
  5
4D5D
  8
0
 10
263.0836285808348975
 20
29.0771928587373587
 30
0.0
 40
0.009457062417918
 50
339.5173521566952104
 51
359.1270359184786116
  0
ARC
  5
4D5E
  8
0
 10
263.0863368679339942
 20
29.0761812064455292
 30
0.0
 40
0.0065659969793024
 50
306.474872284149626
 51
339.5173521566914019
  0
LINE
  5
4D5F
  8
0
 10
263.1425631237700031
 20
29.0966573003573217
 30
0.0
 11
263.1273108070990929
 21
29.0889112985872309
 31
0.0
  0
ARC
  5
4D60
  8
0
 10
263.1244087034020822
 20
29.0946257053113193
 30
0.0
 40
0.0064091068080466
 50
269.3468087323491886
 51
296.9240743995144953
  0
LINE
  5
4D61
  8
0
 10
263.1243356389991845
 20
29.0882170149872401
 30
0.0
 11
263.1235016893991769
 21
29.0880006908872311
 31
0.0
  0
LINE
  5
4D62
  8
0
 10
263.1235016893991769
 20
29.0880006908872311
 30
0.0
 11
263.0910743799990996
 21
29.0880202051872416
 31
0.0
  0
LINE
  5
4D63
  8
0
 10
263.0910743799990996
 20
29.0880202051872416
 30
0.0
 11
263.0902401573991938
 21
29.0882375330872414
 31
0.0
  0
ARC
  5
4D64
  8
0
 10
263.0902195015656275
 20
29.0948365745543889
 30
0.0
 40
0.0065990737947535
 50
243.4256843900529077
 51
270.1793424435567772
  0
LINE
  5
4D65
  8
0
 10
263.0872673516992108
 20
29.0889346607872383
 30
0.0
 11
263.0720135889155245
 21
29.0966997560300307
 31
0.0
  0
LINE
  5
4D66
  8
0
 10
263.1215046712246135
 20
29.1053380533647683
 30
0.0
 11
263.1214974468991841
 21
29.0943678377872388
 31
0.0
  0
ARC
  5
4D67
  8
0
 10
263.1305501630758954
 20
29.0943923881774502
 30
0.0
 40
0.0090527494662203
 50
180.1553821271942013
 51
200.6686812470896086
  0
ARC
  5
4D68
  8
0
 10
263.1276368461500965
 20
29.0930592681735298
 30
0.0
 40
0.0058604935434695
 50
198.5268879683152079
 51
235.7157814968093135
  0
LINE
  5
4D69
  8
0
 10
263.0930845455991971
 20
29.0943849362872307
 30
0.0
 11
263.0930845455991971
 21
29.1053551561977706
 31
0.0
  0
ARC
  5
4D6A
  8
0
 10
263.0836285808348975
 20
29.0945290194373598
 30
0.0
 40
0.009457062417918
 50
339.5173521566952104
 51
359.1270359184786116
  0
ARC
  5
4D6B
  8
0
 10
263.0863368679339942
 20
29.0935173671455303
 30
0.0
 40
0.0065659969793024
 50
306.474872284149626
 51
339.5173521566914019
  0
LINE
  5
4D6C
  8
0
 10
263.1425631237700031
 20
29.1139934610573192
 30
0.0
 11
263.1273108070990929
 21
29.1062474592872285
 31
0.0
  0
ARC
  5
4D6D
  8
0
 10
263.1244087034020822
 20
29.1119618660113204
 30
0.0
 40
0.0064091068080466
 50
269.3468087323491886
 51
296.9240743995144953
  0
LINE
  5
4D6E
  8
0
 10
263.1243356389991845
 20
29.1055531756872412
 30
0.0
 11
263.1235016893991769
 21
29.1053368515872286
 31
0.0
  0
LINE
  5
4D6F
  8
0
 10
263.1235016893991769
 20
29.1053368515872286
 30
0.0
 11
263.0910743799990996
 21
29.1053563658872392
 31
0.0
  0
LINE
  5
4D70
  8
0
 10
263.0910743799990996
 20
29.1053563658872392
 30
0.0
 11
263.0902401573991938
 21
29.1055736937872389
 31
0.0
  0
ARC
  5
4D71
  8
0
 10
263.0902195015656275
 20
29.1121727352543793
 30
0.0
 40
0.0065990737947535
 50
243.4256843900529077
 51
270.1793424435567772
  0
LINE
  5
4D72
  8
0
 10
263.0872673516992108
 20
29.1062708214872394
 30
0.0
 11
263.0720135889155245
 21
29.1140359167300318
 31
0.0
  0
LINE
  5
4D73
  8
0
 10
263.1215046712246135
 20
29.1226742140647694
 30
0.0
 11
263.1214974468991841
 21
29.1117039984872399
 31
0.0
  0
ARC
  5
4D74
  8
0
 10
263.1305501630758954
 20
29.1117285488774513
 30
0.0
 40
0.0090527494662203
 50
180.1553821271942013
 51
200.6686812470896086
  0
ARC
  5
4D75
  8
0
 10
263.1276368461500965
 20
29.1103954288735309
 30
0.0
 40
0.0058604935434695
 50
198.5268879683152079
 51
235.7157814968093135
  0
LINE
  5
4D76
  8
0
 10
263.0930845455991971
 20
29.1117210969872318
 30
0.0
 11
263.0930845455991971
 21
29.1226913168977717
 31
0.0
  0
ARC
  5
4D77
  8
0
 10
263.0836285808348975
 20
29.1118651801373609
 30
0.0
 40
0.009457062417918
 50
339.5173521566952104
 51
359.1270359184786116
  0
ARC
  5
4D78
  8
0
 10
263.0863368679339942
 20
29.1108535278455314
 30
0.0
 40
0.0065659969793024
 50
306.474872284149626
 51
339.5173521566914019
  0
LINE
  5
4D79
  8
0
 10
263.1425631237700031
 20
29.1313296217573203
 30
0.0
 11
263.1273108070990929
 21
29.1235836199872402
 31
0.0
  0
ARC
  5
4D7A
  8
0
 10
263.1244087034020822
 20
29.1292980267113215
 30
0.0
 40
0.0064091068080466
 50
269.3468087323491886
 51
296.9240743995144953
  0
LINE
  5
4D7B
  8
0
 10
263.1243356389991845
 20
29.1228893363872388
 30
0.0
 11
263.1235016893991769
 21
29.1226730122872404
 31
0.0
  0
LINE
  5
4D7C
  8
0
 10
263.1235016893991769
 20
29.1226730122872404
 30
0.0
 11
263.0910743799990996
 21
29.1226925265872403
 31
0.0
  0
LINE
  5
4D7D
  8
0
 10
263.0910743799990996
 20
29.1226925265872403
 30
0.0
 11
263.0902401573991938
 21
29.12290985448724
 31
0.0
  0
ARC
  5
4D7E
  8
0
 10
263.0902195015656275
 20
29.1295088959543911
 30
0.0
 40
0.0065990737947535
 50
243.4256843900529077
 51
270.1793424435567772
  0
LINE
  5
4D7F
  8
0
 10
263.0872673516992108
 20
29.1236069821872405
 30
0.0
 11
263.0720135889155245
 21
29.1313720774300293
 31
0.0
  0
LINE
  5
4D80
  8
0
 10
263.1215046712246135
 20
29.1400103747647599
 30
0.0
 11
263.1214974468991841
 21
29.1290401591872303
 31
0.0
  0
ARC
  5
4D81
  8
0
 10
263.1305501630758954
 20
29.1290647095774489
 30
0.0
 40
0.0090527494662203
 50
180.1553821271942013
 51
200.6686812470896086
  0
ARC
  5
4D82
  8
0
 10
263.1276368461500965
 20
29.1277315895735285
 30
0.0
 40
0.0058604935434695
 50
198.5268879683152079
 51
235.7157814968093135
  0
LINE
  5
4D83
  8
0
 10
263.0930845455991971
 20
29.1290572576872293
 30
0.0
 11
263.0930845455991971
 21
29.1400274775977692
 31
0.0
  0
ARC
  5
4D84
  8
0
 10
263.0836285808348975
 20
29.1292013408373585
 30
0.0
 40
0.009457062417918
 50
339.5173521566952104
 51
359.1270359184786116
  0
ARC
  5
4D85
  8
0
 10
263.0863368679339942
 20
29.1281896885455289
 30
0.0
 40
0.0065659969793024
 50
306.474872284149626
 51
339.5173521566914019
  0
LINE
  5
4D86
  8
0
 10
263.1425631237700031
 20
29.1486657823573196
 30
0.0
 11
263.1273108070990929
 21
29.1409197805872395
 31
0.0
  0
ARC
  5
4D87
  8
0
 10
263.1244087034020822
 20
29.1466341873113208
 30
0.0
 40
0.0064091068080466
 50
269.3468087323491886
 51
296.9240743995144953
  0
LINE
  5
4D88
  8
0
 10
263.1243356389991845
 20
29.140225496987231
 30
0.0
 11
263.1235016893991769
 21
29.1400091728872397
 31
0.0
  0
LINE
  5
4D89
  8
0
 10
263.1235016893991769
 20
29.1400091728872397
 30
0.0
 11
263.0910743799990996
 21
29.1400286871872289
 31
0.0
  0
LINE
  5
4D8A
  8
0
 10
263.0910743799990996
 20
29.1400286871872289
 30
0.0
 11
263.0902401573991938
 21
29.1402460150872393
 31
0.0
  0
ARC
  5
4D8B
  8
0
 10
263.0902195015656275
 20
29.1468450565543904
 30
0.0
 40
0.0065990737947535
 50
243.4256843900529077
 51
270.1793424435567772
  0
LINE
  5
4D8C
  8
0
 10
263.0872673516992108
 20
29.1409431427872399
 30
0.0
 11
263.0720135889155245
 21
29.1487082380300286
 31
0.0
  0
LINE
  5
4D8D
  8
0
 10
263.1215046712246135
 20
29.1573465353647698
 30
0.0
 11
263.1214974468991841
 21
29.1463763197872403
 31
0.0
  0
ARC
  5
4D8E
  8
0
 10
263.1305501630758954
 20
29.1464008701774517
 30
0.0
 40
0.0090527494662203
 50
180.1553821271942013
 51
200.6686812470896086
  0
ARC
  5
4D8F
  8
0
 10
263.1276368461500965
 20
29.1450677501735314
 30
0.0
 40
0.0058604935434695
 50
198.5268879683152079
 51
235.7157814968093135
  0
LINE
  5
4D90
  8
0
 10
263.0930845455991971
 20
29.1463934182872393
 30
0.0
 11
263.0930845455991971
 21
29.1573636381977686
 31
0.0
  0
ARC
  5
4D91
  8
0
 10
263.0836285808348975
 20
29.1465375014373613
 30
0.0
 40
0.009457062417918
 50
339.5173521566952104
 51
359.1270359184786116
  0
ARC
  5
4D92
  8
0
 10
263.0863368679339942
 20
29.1455258491455282
 30
0.0
 40
0.0065659969793024
 50
306.474872284149626
 51
339.5173521566914019
  0
LINE
  5
4D93
  8
0
 10
263.1425631237700031
 20
29.1660019430573207
 30
0.0
 11
263.1273108070990929
 21
29.1582559412872406
 31
0.0
  0
ARC
  5
4D94
  8
0
 10
263.1244087034020822
 20
29.1639703480113184
 30
0.0
 40
0.0064091068080466
 50
269.3468087323491886
 51
296.9240743995144953
  0
LINE
  5
4D95
  8
0
 10
263.1243356389991845
 20
29.1575616576872392
 30
0.0
 11
263.1235016893991769
 21
29.1573453335872408
 31
0.0
  0
LINE
  5
4D96
  8
0
 10
263.1235016893991769
 20
29.1573453335872408
 30
0.0
 11
263.0910743799990996
 21
29.1573648478872407
 31
0.0
  0
LINE
  5
4D97
  8
0
 10
263.0910743799990996
 20
29.1573648478872407
 30
0.0
 11
263.0902401573991938
 21
29.1575821757872404
 31
0.0
  0
ARC
  5
4D98
  8
0
 10
263.0902195015656275
 20
29.1641812172543915
 30
0.0
 40
0.0065990737947535
 50
243.4256843900529077
 51
270.1793424435567772
  0
LINE
  5
4D99
  8
0
 10
263.0872673516992108
 20
29.158279303487241
 30
0.0
 11
263.0720135889155245
 21
29.1660443987300297
 31
0.0
  0
LINE
  5
4D9A
  8
0
 10
263.1215046712246135
 20
29.1746826960647709
 30
0.0
 11
263.1214974468991841
 21
29.1637124804872414
 31
0.0
  0
ARC
  5
4D9B
  8
0
 10
263.1305501630758954
 20
29.1637370308774493
 30
0.0
 40
0.0090527494662203
 50
180.1553821271942013
 51
200.6686812470896086
  0
ARC
  5
4D9C
  8
0
 10
263.1276368461500965
 20
29.1624039108735289
 30
0.0
 40
0.0058604935434695
 50
198.5268879683152079
 51
235.7157814968093135
  0
LINE
  5
4D9D
  8
0
 10
263.0930845455991971
 20
29.1637295789872404
 30
0.0
 11
263.0930845455991971
 21
29.1746997988977697
 31
0.0
  0
ARC
  5
4D9E
  8
0
 10
263.0836285808348975
 20
29.1638736621373589
 30
0.0
 40
0.009457062417918
 50
339.5173521566952104
 51
359.1270359184786116
  0
ARC
  5
4D9F
  8
0
 10
263.0863368679339942
 20
29.1628620098455293
 30
0.0
 40
0.0065659969793024
 50
306.474872284149626
 51
339.5173521566914019
  0
LINE
  5
4DA0
  8
0
 10
263.1425631237700031
 20
29.1833381037573183
 30
0.0
 11
263.1273108070990929
 21
29.1755921019872311
 31
0.0
  0
ARC
  5
4DA1
  8
0
 10
263.1244087034020822
 20
29.1813065087113195
 30
0.0
 40
0.0064091068080466
 50
269.3468087323491886
 51
296.9240743995144953
  0
LINE
  5
4DA2
  8
0
 10
263.1243356389991845
 20
29.1748978183872403
 30
0.0
 11
263.1235016893991769
 21
29.1746814942872383
 31
0.0
  0
LINE
  5
4DA3
  8
0
 10
263.1235016893991769
 20
29.1746814942872383
 30
0.0
 11
263.0910743799990996
 21
29.1747010085872382
 31
0.0
  0
LINE
  5
4DA4
  8
0
 10
263.0910743799990996
 20
29.1747010085872382
 30
0.0
 11
263.0902401573991938
 21
29.1749183364872415
 31
0.0
  0
ARC
  5
4DA5
  8
0
 10
263.0902195015656275
 20
29.181517377954389
 30
0.0
 40
0.0065990737947535
 50
243.4256843900529077
 51
270.1793424435567772
  0
LINE
  5
4DA6
  8
0
 10
263.0872673516992108
 20
29.1756154641872385
 30
0.0
 11
263.0720135889155245
 21
29.1833805594300308
 31
0.0
  0
LINE
  5
4DA7
  8
0
 10
263.1215046712246135
 20
29.1920188567647685
 30
0.0
 11
263.1214974468991841
 21
29.181048641187239
 31
0.0
  0
ARC
  5
4DA8
  8
0
 10
263.1305501630758954
 20
29.1810731915774504
 30
0.0
 40
0.0090527494662203
 50
180.1553821271942013
 51
200.6686812470896086
  0
ARC
  5
4DA9
  8
0
 10
263.1276368461500965
 20
29.17974007157353
 30
0.0
 40
0.0058604935434695
 50
198.5268879683152079
 51
235.7157814968093135
  0
LINE
  5
4DAA
  8
0
 10
263.0930845455991971
 20
29.1810657396872308
 30
0.0
 11
263.0930845455991971
 21
29.1920359595977708
 31
0.0
  0
ARC
  5
4DAB
  8
0
 10
263.0836285808348975
 20
29.18120982283736
 30
0.0
 40
0.009457062417918
 50
339.5173521566952104
 51
359.1270359184786116
  0
ARC
  5
4DAC
  8
0
 10
263.0863368679339942
 20
29.1801981705455304
 30
0.0
 40
0.0065659969793024
 50
306.474872284149626
 51
339.5173521566914019
  0
LINE
  5
4DAD
  8
0
 10
263.1425631237700031
 20
29.2006742644573194
 30
0.0
 11
263.1273108070990929
 21
29.1929282626872393
 31
0.0
  0
ARC
  5
4DAE
  8
0
 10
263.1244087034020822
 20
29.1986426694113206
 30
0.0
 40
0.0064091068080466
 50
269.3468087323491886
 51
296.9240743995144953
  0
LINE
  5
4DAF
  8
0
 10
263.1243356389991845
 20
29.1922339790872307
 30
0.0
 11
263.1235016893991769
 21
29.1920176549872394
 31
0.0
  0
LINE
  5
4DB0
  8
0
 10
263.1235016893991769
 20
29.1920176549872394
 30
0.0
 11
263.0910743799990996
 21
29.1920371692872394
 31
0.0
  0
LINE
  5
4DB1
  8
0
 10
263.0910743799990996
 20
29.1920371692872394
 30
0.0
 11
263.0902401573991938
 21
29.1922544971872284
 31
0.0
  0
ARC
  5
4DB2
  8
0
 10
263.0902195015656275
 20
29.1988535386543901
 30
0.0
 40
0.0065990737947535
 50
243.4256843900529077
 51
270.1793424435567772
  0
LINE
  5
4DB3
  8
0
 10
263.0872673516992108
 20
29.1929516248872396
 30
0.0
 11
263.0720135889155245
 21
29.2007167201300284
 31
0.0
  0
LINE
  5
4DB4
  8
0
 10
263.1215046712246135
 20
29.2093550174647696
 30
0.0
 11
263.1214974468991841
 21
29.1983848018872401
 31
0.0
  0
ARC
  5
4DB5
  8
0
 10
263.1305501630758954
 20
29.1984093522774515
 30
0.0
 40
0.0090527494662203
 50
180.1553821271942013
 51
200.6686812470896086
  0
ARC
  5
4DB6
  8
0
 10
263.1276368461500965
 20
29.1970762322735311
 30
0.0
 40
0.0058604935434695
 50
198.5268879683152079
 51
235.7157814968093135
  0
LINE
  5
4DB7
  8
0
 10
263.0930845455991971
 20
29.198401900387239
 30
0.0
 11
263.0930845455991971
 21
29.2093721202977683
 31
0.0
  0
ARC
  5
4DB8
  8
0
 10
263.0836285808348975
 20
29.1985459835373611
 30
0.0
 40
0.009457062417918
 50
339.5173521566952104
 51
359.1270359184786116
  0
ARC
  5
4DB9
  8
0
 10
263.0863368679339942
 20
29.1975343312455315
 30
0.0
 40
0.0065659969793024
 50
306.474872284149626
 51
339.5173521566914019
  0
LINE
  5
4DBA
  8
0
 10
263.1385921099461029
 20
29.2159937164321413
 30
0.0
 11
263.1273108070990929
 21
29.2102644233872404
 31
0.0
  0
ARC
  5
4DBB
  8
0
 10
263.1244087034020822
 20
29.2159788301113217
 30
0.0
 40
0.0064091068080466
 50
269.3468087323491886
 51
296.9240743995144953
  0
LINE
  5
4DBC
  8
0
 10
263.1243356389991845
 20
29.2095701397872283
 30
0.0
 11
263.1235016893991769
 21
29.2093538156872405
 31
0.0
  0
LINE
  5
4DBD
  8
0
 10
263.1235016893991769
 20
29.2093538156872405
 30
0.0
 11
263.0910743799990996
 21
29.2093733299872405
 31
0.0
  0
LINE
  5
4DBE
  8
0
 10
263.0910743799990996
 20
29.2093733299872405
 30
0.0
 11
263.0902401573991938
 21
29.2095906578872402
 31
0.0
  0
ARC
  5
4DBF
  8
0
 10
263.0902195015656275
 20
29.2161896993543913
 30
0.0
 40
0.0065990737947535
 50
243.4256843900529077
 51
270.1793424435567772
  0
LINE
  5
4DC0
  8
0
 10
263.0872673516992108
 20
29.2102877855872407
 30
0.0
 11
263.0720135889155245
 21
29.2180528808300295
 31
0.0
  0
LINE
  5
4DC1
  8
0
 10
263.1214990584683733
 20
29.2181681478330297
 30
0.0
 11
263.1214974468991841
 21
29.2157209625872305
 31
0.0
  0
ARC
  5
4DC2
  8
0
 10
263.1305501630758954
 20
29.215745512977449
 30
0.0
 40
0.0090527494662203
 50
180.1553821271942013
 51
200.6686812470896086
  0
ARC
  5
4DC3
  8
0
 10
263.1276368461500965
 20
29.2144123929735287
 30
0.0
 40
0.0058604935434695
 50
198.5268879683152079
 51
235.7157814968093135
  0
LINE
  5
4DC4
  8
0
 10
263.0930845455991971
 20
29.2157380610872401
 30
0.0
 11
263.0930845455991971
 21
29.2210492838764111
 31
0.0
  0
ARC
  5
4DC5
  8
0
 10
263.0836285808348975
 20
29.2158821442373586
 30
0.0
 40
0.009457062417918
 50
339.5173521566952104
 51
359.1270359184786116
  0
ARC
  5
4DC6
  8
0
 10
263.0863368679339942
 20
29.2148704919455291
 30
0.0
 40
0.0065659969793024
 50
306.474872284149626
 51
339.5173521566914019
  0
LINE
  5
4DC7
  8
0
 10
263.0914199014699761
 20
29.2093731220573183
 30
0.0
 11
263.0761675847991796
 21
29.2016271202872311
 31
0.0
  0
ARC
  5
4DC8
  8
0
 10
263.0732654811021121
 20
29.2073415270113195
 30
0.0
 40
0.0064091068080466
 50
269.3468087323491886
 51
296.9240743995144953
  0
LINE
  5
4DC9
  8
0
 10
263.0731924166992144
 20
29.2009328366872403
 30
0.0
 11
263.0723584670992068
 21
29.2007165125872312
 31
0.0
  0
LINE
  5
4DCA
  8
0
 10
263.0723584670992068
 20
29.2007165125872312
 30
0.0
 11
263.0399311576991863
 21
29.2007360268872382
 31
0.0
  0
LINE
  5
4DCB
  8
0
 10
263.0399311576991863
 20
29.2007360268872382
 30
0.0
 11
263.0390969350992236
 21
29.2009533547872415
 31
0.0
  0
ARC
  5
4DCC
  8
0
 10
263.0390762792656005
 20
29.207552396254389
 30
0.0
 40
0.0065990737947535
 50
243.4256843900529077
 51
270.1793424435567772
  0
LINE
  5
4DCD
  8
0
 10
263.0361241293991839
 20
29.2016504824872385
 30
0.0
 11
263.0208703666154975
 21
29.2094155777300308
 31
0.0
  0
LINE
  5
4DCE
  8
0
 10
263.0703614489244728
 20
29.2180538750647685
 30
0.0
 11
263.0703542245992139
 21
29.2070836594872389
 31
0.0
  0
ARC
  5
4DCF
  8
0
 10
263.0794069407759252
 20
29.2071082098774504
 30
0.0
 40
0.0090527494662203
 50
180.1553821271942013
 51
200.6686812470896086
  0
ARC
  5
4DD0
  8
0
 10
263.0764936238500127
 20
29.20577508987353
 30
0.0
 40
0.0058604935434695
 50
198.5268879683152079
 51
235.7157814968093135
  0
LINE
  5
4DD1
  8
0
 10
263.041941323299227
 20
29.2071007579872308
 30
0.0
 11
263.041941323299227
 21
29.2180709778977707
 31
0.0
  0
ARC
  5
4DD2
  8
0
 10
263.0324853585349274
 20
29.20724484113736
 30
0.0
 40
0.009457062417918
 50
339.5173521566952104
 51
359.1270359184786116
  0
ARC
  5
4DD3
  8
0
 10
263.0351936456340241
 20
29.2062331888455304
 30
0.0
 40
0.0065659969793024
 50
306.474872284149626
 51
339.5173521566914019
  0
LINE
  5
4DD4
  8
0
 10
263.0914199014699761
 20
29.1920369613573207
 30
0.0
 11
263.0761675847991796
 21
29.1842909595872406
 31
0.0
  0
ARC
  5
4DD5
  8
0
 10
263.0732654811021121
 20
29.1900053663113184
 30
0.0
 40
0.0064091068080466
 50
269.3468087323491886
 51
296.9240743995144953
  0
LINE
  5
4DD6
  8
0
 10
263.0731924166992144
 20
29.1835966759872285
 30
0.0
 11
263.0723584670992068
 21
29.1833803518872408
 31
0.0
  0
LINE
  5
4DD7
  8
0
 10
263.0723584670992068
 20
29.1833803518872408
 30
0.0
 11
263.0399311576991863
 21
29.1833998661872407
 31
0.0
  0
LINE
  5
4DD8
  8
0
 10
263.0399311576991863
 20
29.1833998661872407
 30
0.0
 11
263.0390969350992236
 21
29.1836171940872404
 31
0.0
  0
ARC
  5
4DD9
  8
0
 10
263.0390762792656005
 20
29.1902162355543915
 30
0.0
 40
0.0065990737947535
 50
243.4256843900529077
 51
270.1793424435567772
  0
LINE
  5
4DDA
  8
0
 10
263.0361241293991839
 20
29.1843143217872409
 30
0.0
 11
263.0208707743128116
 21
29.192079209487229
 31
0.0
  0
LINE
  5
4DDB
  8
0
 10
263.0703614489244728
 20
29.2007177143647709
 30
0.0
 11
263.0703542245992139
 21
29.1897474987872307
 31
0.0
  0
ARC
  5
4DDC
  8
0
 10
263.0794069407759252
 20
29.1897720491774493
 30
0.0
 40
0.0090527494662203
 50
180.1553821271942013
 51
200.6686812470896086
  0
ARC
  5
4DDD
  8
0
 10
263.0764936238500127
 20
29.1884389291735289
 30
0.0
 40
0.0058604935434695
 50
198.5268879683152079
 51
235.7157814968093135
  0
LINE
  5
4DDE
  8
0
 10
263.041941323299227
 20
29.1897645972872404
 30
0.0
 11
263.041941323299227
 21
29.2007348171977696
 31
0.0
  0
ARC
  5
4DDF
  8
0
 10
263.0324853585349274
 20
29.1899086804373589
 30
0.0
 40
0.009457062417918
 50
339.5173521566952104
 51
359.1270359184786116
  0
ARC
  5
4DE0
  8
0
 10
263.0351936456340241
 20
29.1888970281455293
 30
0.0
 40
0.0065659969793024
 50
306.474872284149626
 51
339.5173521566914019
  0
LINE
  5
4DE1
  8
0
 10
263.0914199014699761
 20
29.1747008006573196
 30
0.0
 11
263.0761675847991796
 21
29.1669547988872395
 31
0.0
  0
ARC
  5
4DE2
  8
0
 10
263.0732654811021121
 20
29.1726692056113208
 30
0.0
 40
0.0064091068080466
 50
269.3468087323491886
 51
296.9240743995144953
  0
LINE
  5
4DE3
  8
0
 10
263.0731924166992144
 20
29.166260515287231
 30
0.0
 11
263.0723584670992068
 21
29.1660441911872397
 31
0.0
  0
LINE
  5
4DE4
  8
0
 10
263.0723584670992068
 20
29.1660441911872397
 30
0.0
 11
263.0399311576991863
 21
29.1660637054872396
 31
0.0
  0
LINE
  5
4DE5
  8
0
 10
263.0399311576991863
 20
29.1660637054872396
 30
0.0
 11
263.0390969350992236
 21
29.1662810333872287
 31
0.0
  0
ARC
  5
4DE6
  8
0
 10
263.0390762792656005
 20
29.1728800748543904
 30
0.0
 40
0.0065990737947535
 50
243.4256843900529077
 51
270.1793424435567772
  0
LINE
  5
4DE7
  8
0
 10
263.0361241293991839
 20
29.1669781610872398
 30
0.0
 11
263.0208707743128116
 21
29.1747430487872386
 31
0.0
  0
LINE
  5
4DE8
  8
0
 10
263.0703614489244728
 20
29.1833815536647698
 30
0.0
 11
263.0703542245992139
 21
29.1724113380872403
 31
0.0
  0
ARC
  5
4DE9
  8
0
 10
263.0794069407759252
 20
29.1724358884774517
 30
0.0
 40
0.0090527494662203
 50
180.1553821271942013
 51
200.6686812470896086
  0
ARC
  5
4DEA
  8
0
 10
263.0764936238500127
 20
29.1711027684735313
 30
0.0
 40
0.0058604935434695
 50
198.5268879683152079
 51
235.7157814968093135
  0
LINE
  5
4DEB
  8
0
 10
263.041941323299227
 20
29.1724284365872393
 30
0.0
 11
263.041941323299227
 21
29.1833986564977685
 31
0.0
  0
ARC
  5
4DEC
  8
0
 10
263.0324853585349274
 20
29.1725725197373613
 30
0.0
 40
0.009457062417918
 50
339.5173521566952104
 51
359.1270359184786116
  0
ARC
  5
4DED
  8
0
 10
263.0351936456340241
 20
29.1715608674455282
 30
0.0
 40
0.0065659969793024
 50
306.474872284149626
 51
339.5173521566914019
  0
LINE
  5
4DEE
  8
0
 10
263.0914199014699761
 20
29.1573646399573185
 30
0.0
 11
263.0761675847991796
 21
29.1496186381872384
 31
0.0
  0
ARC
  5
4DEF
  8
0
 10
263.0732654811021121
 20
29.1553330449113197
 30
0.0
 40
0.0064091068080466
 50
269.3468087323491886
 51
296.9240743995144953
  0
LINE
  5
4DF0
  8
0
 10
263.0731924166992144
 20
29.1489243545872405
 30
0.0
 11
263.0723584670992068
 21
29.1487080304872386
 31
0.0
  0
LINE
  5
4DF1
  8
0
 10
263.0723584670992068
 20
29.1487080304872386
 30
0.0
 11
263.0399311576991863
 21
29.1487275447872385
 31
0.0
  0
LINE
  5
4DF2
  8
0
 10
263.0399311576991863
 20
29.1487275447872385
 30
0.0
 11
263.0390969350992236
 21
29.1489448726872418
 31
0.0
  0
LINE
  5
4DF3
  8
0
 10
263.0703614489244728
 20
29.1660453929647687
 30
0.0
 11
263.0703542245992139
 21
29.1550751773872392
 31
0.0
  0
ARC
  5
4DF4
  8
0
 10
263.0794069407759252
 20
29.1550997277774506
 30
0.0
 40
0.0090527494662203
 50
180.1553821271942013
 51
200.6686812470896086
  0
ARC
  5
4DF5
  8
0
 10
263.0764936238500127
 20
29.1537666077735302
 30
0.0
 40
0.0058604935434695
 50
198.5268879683152079
 51
235.7157814968093135
  0
LINE
  5
4DF6
  8
0
 10
263.041941323299227
 20
29.1550922758872311
 30
0.0
 11
263.041941323299227
 21
29.166062495797771
 31
0.0
  0
ARC
  5
4DF7
  8
0
 10
263.0324853585349274
 20
29.1552363590373602
 30
0.0
 40
0.009457062417918
 50
339.5173521566952104
 51
359.1270359184786116
  0
ARC
  5
4DF8
  8
0
 10
263.0351936456340241
 20
29.1542247067455307
 30
0.0
 40
0.0065659969793024
 50
306.474872284149626
 51
339.5173521566914019
  0
LINE
  5
4DF9
  8
0
 10
263.0914199014699761
 20
29.140028479257321
 30
0.0
 11
263.0761675847991796
 21
29.1322824774872409
 31
0.0
  0
ARC
  5
4DFA
  8
0
 10
263.0732654811021121
 20
29.1379968842113186
 30
0.0
 40
0.0064091068080466
 50
269.3468087323491886
 51
296.9240743995144953
  0
LINE
  5
4DFB
  8
0
 10
263.0731924166992144
 20
29.1315881938872394
 30
0.0
 11
263.0723584670992068
 21
29.131371869787241
 31
0.0
  0
LINE
  5
4DFC
  8
0
 10
263.0723584670992068
 20
29.131371869787241
 30
0.0
 11
263.0399311576991863
 21
29.1313913840872409
 31
0.0
  0
LINE
  5
4DFD
  8
0
 10
263.0399311576991863
 20
29.1313913840872409
 30
0.0
 11
263.0390969350992236
 21
29.1316087119872407
 31
0.0
  0
ARC
  5
4DFE
  8
0
 10
263.0390762792656005
 20
29.1382077534543917
 30
0.0
 40
0.0065990737947535
 50
243.4256843900529077
 51
270.1793424435567772
  0
LINE
  5
4DFF
  8
0
 10
263.0361241293991839
 20
29.1323058396872412
 30
0.0
 11
263.0208703666154975
 21
29.14007093493003
 31
0.0
  0
LINE
  5
4E00
  8
0
 10
263.0703614489244728
 20
29.1487092322647712
 30
0.0
 11
263.0703542245992139
 21
29.1377390166872416
 31
0.0
  0
ARC
  5
4E01
  8
0
 10
263.0794069407759252
 20
29.1377635670774495
 30
0.0
 40
0.0090527494662203
 50
180.1553821271942013
 51
200.6686812470896086
  0
ARC
  5
4E02
  8
0
 10
263.0764936238500127
 20
29.1364304470735291
 30
0.0
 40
0.0058604935434695
 50
198.5268879683152079
 51
235.7157814968093135
  0
LINE
  5
4E03
  8
0
 10
263.041941323299227
 20
29.1377561151872406
 30
0.0
 11
263.041941323299227
 21
29.1487263350977699
 31
0.0
  0
ARC
  5
4E04
  8
0
 10
263.0324853585349274
 20
29.1379001983373591
 30
0.0
 40
0.009457062417918
 50
339.5173521566952104
 51
359.1270359184786116
  0
ARC
  5
4E05
  8
0
 10
263.0351936456340241
 20
29.1368885460455296
 30
0.0
 40
0.0065659969793024
 50
306.474872284149626
 51
339.5173521566914019
  0
LINE
  5
4E06
  8
0
 10
263.0914199014699761
 20
29.1226923186573217
 30
0.0
 11
263.0761675847991796
 21
29.1149463168872416
 31
0.0
  0
ARC
  5
4E07
  8
0
 10
263.0732654811021121
 20
29.1206607236113086
 30
0.0
 40
0.0064091068080466
 50
269.3468087323491886
 51
296.9240743995144953
  0
LINE
  5
4E08
  8
0
 10
263.0731924166992144
 20
29.1142520332872401
 30
0.0
 11
263.0723584670992068
 21
29.1140357091872417
 31
0.0
  0
LINE
  5
4E09
  8
0
 10
263.0723584670992068
 20
29.1140357091872417
 30
0.0
 11
263.0399311576991863
 21
29.1140552234872416
 31
0.0
  0
LINE
  5
4E0A
  8
0
 10
263.0399311576991863
 20
29.1140552234872416
 30
0.0
 11
263.0390969350992236
 21
29.1142725513872414
 31
0.0
  0
ARC
  5
4E0B
  8
0
 10
263.0390762792656005
 20
29.1208715928543889
 30
0.0
 40
0.0065990737947535
 50
243.4256843900529077
 51
270.1793424435567772
  0
LINE
  5
4E0C
  8
0
 10
263.0361241293991839
 20
29.1149696790872383
 30
0.0
 11
263.0208703666154975
 21
29.1227347743300307
 31
0.0
  0
LINE
  5
4E0D
  8
0
 10
263.0703614489244728
 20
29.1313730716647683
 30
0.0
 11
263.0703542245992139
 21
29.1204028560872317
 31
0.0
  0
ARC
  5
4E0E
  8
0
 10
263.0794069407759252
 20
29.1204274064774502
 30
0.0
 40
0.0090527494662203
 50
180.1553821271942013
 51
200.6686812470896086
  0
ARC
  5
4E0F
  8
0
 10
263.0764936238500127
 20
29.1190942864735405
 30
0.0
 40
0.0058604935434695
 50
198.5268879683152079
 51
235.7157814968093135
  0
LINE
  5
4E10
  8
0
 10
263.041941323299227
 20
29.1204199545872413
 30
0.0
 11
263.041941323299227
 21
29.1313901744977706
 31
0.0
  0
ARC
  5
4E11
  8
0
 10
263.0324853585349274
 20
29.1205640377373598
 30
0.0
 40
0.009457062417918
 50
339.5173521566952104
 51
359.1270359184786116
  0
ARC
  5
4E12
  8
0
 10
263.0351936456340241
 20
29.1195523854455303
 30
0.0
 40
0.0065659969793024
 50
306.474872284149626
 51
339.5173521566914019
  0
LINE
  5
4E13
  8
0
 10
263.0914199014699761
 20
29.1053561579573206
 30
0.0
 11
263.0761675847991796
 21
29.0976101561872404
 31
0.0
  0
ARC
  5
4E14
  8
0
 10
263.0732654811021121
 20
29.1033245629113217
 30
0.0
 40
0.0064091068080466
 50
269.3468087323491886
 51
296.9240743995144953
  0
LINE
  5
4E15
  8
0
 10
263.0731924166992144
 20
29.096915872587239
 30
0.0
 11
263.0723584670992068
 21
29.0966995484872406
 31
0.0
  0
LINE
  5
4E16
  8
0
 10
263.0723584670992068
 20
29.0966995484872406
 30
0.0
 11
263.0399311576991863
 21
29.0967190627872405
 31
0.0
  0
LINE
  5
4E17
  8
0
 10
263.0399311576991863
 20
29.0967190627872405
 30
0.0
 11
263.0390969350992236
 21
29.0969363906872402
 31
0.0
  0
ARC
  5
4E18
  8
0
 10
263.0390762792656005
 20
29.1035354321543913
 30
0.0
 40
0.0065990737947535
 50
243.4256843900529077
 51
270.1793424435567772
  0
LINE
  5
4E19
  8
0
 10
263.0361241293991839
 20
29.0976335183872408
 30
0.0
 11
263.0208703666154975
 21
29.1053986136300296
 31
0.0
  0
LINE
  5
4E1A
  8
0
 10
263.0703614489244728
 20
29.1140369109647601
 30
0.0
 11
263.0703542245992139
 21
29.1030666953872306
 31
0.0
  0
ARC
  5
4E1B
  8
0
 10
263.0794069407759252
 20
29.1030912457774491
 30
0.0
 40
0.0090527494662203
 50
180.1553821271942013
 51
200.6686812470896086
  0
ARC
  5
4E1C
  8
0
 10
263.0764936238500127
 20
29.1017581257735287
 30
0.0
 40
0.0058604935434695
 50
198.5268879683152079
 51
235.7157814968093135
  0
LINE
  5
4E1D
  8
0
 10
263.041941323299227
 20
29.1030837938872402
 30
0.0
 11
263.041941323299227
 21
29.1140540137977695
 31
0.0
  0
ARC
  5
4E1E
  8
0
 10
263.0324853585349274
 20
29.1032278770373587
 30
0.0
 40
0.009457062417918
 50
339.5173521566952104
 51
359.1270359184786116
  0
ARC
  5
4E1F
  8
0
 10
263.0351936456340241
 20
29.1022162247455292
 30
0.0
 40
0.0065659969793024
 50
306.474872284149626
 51
339.5173521566914019
  0
LINE
  5
4E20
  8
0
 10
263.0914199014699761
 20
29.0880199972573195
 30
0.0
 11
263.0761675847991796
 21
29.0802739954872287
 31
0.0
  0
ARC
  5
4E21
  8
0
 10
263.0732654811021121
 20
29.0859884022113206
 30
0.0
 40
0.0064091068080466
 50
269.3468087323491886
 51
296.9240743995144953
  0
LINE
  5
4E22
  8
0
 10
263.0731924166992144
 20
29.0795797118872414
 30
0.0
 11
263.0723584670992068
 21
29.0793633877872288
 31
0.0
  0
LINE
  5
4E23
  8
0
 10
263.0723584670992068
 20
29.0793633877872288
 30
0.0
 11
263.0399311576991863
 21
29.0793829020872394
 31
0.0
  0
LINE
  5
4E24
  8
0
 10
263.0399311576991863
 20
29.0793829020872394
 30
0.0
 11
263.0390969350992236
 21
29.0796002299872391
 31
0.0
  0
ARC
  5
4E25
  8
0
 10
263.0390762792656005
 20
29.0861992714543902
 30
0.0
 40
0.0065990737947535
 50
243.4256843900529077
 51
270.1793424435567772
  0
LINE
  5
4E26
  8
0
 10
263.0361241293991839
 20
29.0802973576872397
 30
0.0
 11
263.0208707743128116
 21
29.0880622453872384
 31
0.0
  0
LINE
  5
4E27
  8
0
 10
263.0703614489244728
 20
29.0967007502647697
 30
0.0
 11
263.0703542245992139
 21
29.0857305346872401
 31
0.0
  0
ARC
  5
4E28
  8
0
 10
263.0794069407759252
 20
29.0857550850774516
 30
0.0
 40
0.0090527494662203
 50
180.1553821271942013
 51
200.6686812470896086
  0
ARC
  5
4E29
  8
0
 10
263.0764936238500127
 20
29.0844219650735312
 30
0.0
 40
0.0058604935434695
 50
198.5268879683152079
 51
235.7157814968093135
  0
LINE
  5
4E2A
  8
0
 10
263.041941323299227
 20
29.0857476331872284
 30
0.0
 11
263.041941323299227
 21
29.0967178530977684
 31
0.0
  0
ARC
  5
4E2B
  8
0
 10
263.0324853585349274
 20
29.0858917163373611
 30
0.0
 40
0.009457062417918
 50
339.5173521566952104
 51
359.1270359184786116
  0
ARC
  5
4E2C
  8
0
 10
263.0351936456340241
 20
29.0848800640455316
 30
0.0
 40
0.0065659969793024
 50
306.474872284149626
 51
339.5173521566914019
  0
LINE
  5
4E2D
  8
0
 10
263.0914199014699761
 20
29.0706838365573184
 30
0.0
 11
263.0761675847991796
 21
29.0629378347872311
 31
0.0
  0
ARC
  5
4E2E
  8
0
 10
263.0732654811021121
 20
29.0686522415113195
 30
0.0
 40
0.0064091068080466
 50
269.3468087323491886
 51
296.9240743995144953
  0
LINE
  5
4E2F
  8
0
 10
263.0731924166992144
 20
29.0622435511872403
 30
0.0
 11
263.0723584670992068
 21
29.0620272270872313
 31
0.0
  0
LINE
  5
4E30
  8
0
 10
263.0723584670992068
 20
29.0620272270872313
 30
0.0
 11
263.0399311576991863
 21
29.0620467413872383
 31
0.0
  0
LINE
  5
4E31
  8
0
 10
263.0399311576991863
 20
29.0620467413872383
 30
0.0
 11
263.0390969350992236
 21
29.0622640692872416
 31
0.0
  0
ARC
  5
4E32
  8
0
 10
263.0390762792656005
 20
29.0688631107543891
 30
0.0
 40
0.0065990737947535
 50
243.4256843900529077
 51
270.1793424435567772
  0
LINE
  5
4E33
  8
0
 10
263.0361241293991839
 20
29.0629611969872386
 30
0.0
 11
263.0208703666154975
 21
29.0707262922300309
 31
0.0
  0
LINE
  5
4E34
  8
0
 10
263.0703614489244728
 20
29.0793645895647686
 30
0.0
 11
263.0703542245992139
 21
29.068394373987239
 31
0.0
  0
ARC
  5
4E35
  8
0
 10
263.0794069407759252
 20
29.0684189243774505
 30
0.0
 40
0.0090527494662203
 50
180.1553821271942013
 51
200.6686812470896086
  0
ARC
  5
4E36
  8
0
 10
263.0764936238500127
 20
29.0670858043735301
 30
0.0
 40
0.0058604935434695
 50
198.5268879683152079
 51
235.7157814968093135
  0
LINE
  5
4E37
  8
0
 10
263.041941323299227
 20
29.0684114724872309
 30
0.0
 11
263.041941323299227
 21
29.0793816923977708
 31
0.0
  0
ARC
  5
4E38
  8
0
 10
263.0324853585349274
 20
29.06855555563736
 30
0.0
 40
0.009457062417918
 50
339.5173521566952104
 51
359.1270359184786116
  0
ARC
  5
4E39
  8
0
 10
263.0351936456340241
 20
29.0675439033455305
 30
0.0
 40
0.0065659969793024
 50
306.474872284149626
 51
339.5173521566914019
  0
LINE
  5
4E3A
  8
0
 10
263.3190975240406146
 20
29.1398914662529513
 30
0.0
 11
263.2956472694992271
 21
29.1399055782872409
 31
0.0
  0
LINE
  5
4E3B
  8
0
 10
263.2956472694992271
 20
29.1399055782872409
 30
0.0
 11
263.2948130468990939
 21
29.1401229061872407
 31
0.0
  0
ARC
  5
4E3C
  8
0
 10
263.2947923910655845
 20
29.1467219476543917
 30
0.0
 40
0.0065990737947535
 50
243.4256843900529077
 51
270.1793424435567772
  0
LINE
  5
4E3D
  8
0
 10
263.2918402411992247
 20
29.1408200338872412
 30
0.0
 11
263.2765864784154815
 21
29.14858512913003
 31
0.0
  0
LINE
  5
4E3E
  8
0
 10
263.2976574350990973
 20
29.1462703093872406
 30
0.0
 11
263.2976574350990973
 21
29.1572405292977699
 31
0.0
  0
ARC
  5
4E3F
  8
0
 10
263.2882014703350251
 20
29.1464143925373591
 30
0.0
 40
0.009457062417918
 50
339.5173521566952104
 51
359.1270359184786116
  0
ARC
  5
4E40
  8
0
 10
263.2909097574338944
 20
29.1454027402455296
 30
0.0
 40
0.0065659969793024
 50
306.474872284149626
 51
339.5173521566914019
  0
LINE
  5
4E41
  8
0
 10
263.3133159758176021
 20
29.1225587848075804
 30
0.0
 11
263.2956472694992271
 21
29.1225694175872292
 31
0.0
  0
LINE
  5
4E42
  8
0
 10
263.2956472694992271
 20
29.1225694175872292
 30
0.0
 11
263.2948130468990939
 21
29.1227867454872396
 31
0.0
  0
ARC
  5
4E43
  8
0
 10
263.2947923910655845
 20
29.1293857869543906
 30
0.0
 40
0.0065990737947535
 50
243.4256843900529077
 51
270.1793424435567772
  0
LINE
  5
4E44
  8
0
 10
263.2918402411992247
 20
29.1234838731872401
 30
0.0
 11
263.2765864784154815
 21
29.1312489684300289
 31
0.0
  0
LINE
  5
4E45
  8
0
 10
263.2976574350990973
 20
29.1289341486872395
 30
0.0
 11
263.2976574350990973
 21
29.1399043685977688
 31
0.0
  0
ARC
  5
4E46
  8
0
 10
263.2882014703350251
 20
29.1290782318373616
 30
0.0
 40
0.009457062417918
 50
339.5173521566952104
 51
359.1270359184786116
  0
ARC
  5
4E47
  8
0
 10
263.2909097574338944
 20
29.1280665795455285
 30
0.0
 40
0.0065659969793024
 50
306.474872284149626
 51
339.5173521566914019
  0
LINE
  5
4E48
  8
0
 10
263.3088184245709158
 20
29.1572338126708388
 30
0.0
 11
263.2956472694992271
 21
29.1572417388872402
 31
0.0
  0
LINE
  5
4E49
  8
0
 10
263.2956472694992271
 20
29.1572417388872402
 30
0.0
 11
263.2948130468990939
 21
29.15745906678724
 31
0.0
  0
ARC
  5
4E4A
  8
0
 10
263.2947923910655845
 20
29.1640581082543804
 30
0.0
 40
0.0065990737947535
 50
243.4256843900529077
 51
270.1793424435567772
  0
LINE
  5
4E4B
  8
0
 10
263.2918402411992247
 20
29.1581561944872405
 30
0.0
 11
263.2765864784154815
 21
29.1659212897300293
 31
0.0
  0
LINE
  5
4E4C
  8
0
 10
263.2976574350990973
 20
29.1636064699872399
 30
0.0
 11
263.2976574350990973
 21
29.1666208741384096
 31
0.0
  0
ARC
  5
4E4D
  8
0
 10
263.2882014703350251
 20
29.1637505531373584
 30
0.0
 40
0.009457062417918
 50
339.5173521566952104
 51
359.1270359184786116
  0
ARC
  5
4E4E
  8
0
 10
263.2909097574338944
 20
29.1627389008455289
 30
0.0
 40
0.0065659969793024
 50
306.474872284149626
 51
339.5173521566914019
  0
LINE
  5
4E4F
  8
0
 10
263.2257881341990924
 20
29.1399476184872306
 30
0.0
 11
263.1933608247991856
 21
29.1399671326872394
 31
0.0
  0
ARC
  5
4E50
  8
0
 10
263.2254902736174813
 20
29.1496157542909202
 30
0.0
 40
0.0096727230315256
 50
271.7646377870008791
 51
295.1249553370113858
  0
LINE
  5
4E51
  8
0
 10
263.2295972518991789
 20
29.1408582260872393
 30
0.0
 11
263.2448495683697161
 21
29.1486042278574402
 31
0.0
  0
ARC
  5
4E52
  8
0
 10
263.1939423262469973
 20
29.150769885976171
 30
0.0
 40
0.0108183927898512
 50
246.067851846182208
 51
266.9187989605532039
  0
LINE
  5
4E53
  8
0
 10
263.1895537964991831
 20
29.1408815883872414
 30
0.0
 11
263.174300033912175
 21
29.1486466835299112
 31
0.0
  0
LINE
  5
4E54
  8
0
 10
263.0720135892158851
 20
29.0620274346299112
 30
0.0
 11
263.0801151625992134
 21
29.0579032397872403
 31
0.0
  0
ARC
  5
4E55
  8
0
 10
263.0825624165382237
 20
29.0627106284122512
 30
0.0
 40
0.0053944450348245
 50
243.0211313957335904
 51
356.2385598648332916
  0
LINE
  5
4E56
  8
0
 10
263.0879452410991917
 20
29.062356740041519
 30
0.0
 11
263.0879452410991917
 21
29.06891920460248
 31
0.0
  0
LINE
  5
4E57
  8
0
 10
263.1231568115111941
 20
29.0706647377299099
 30
0.0
 11
263.1370554784991782
 21
29.0635894688872405
 31
0.0
  0
ARC
  5
4E58
  8
0
 10
263.1387614866303011
 20
29.0686951785150782
 30
0.0
 40
0.0053831899973313
 50
251.5236026490148902
 51
316.2785175923605152
  0
ARC
  5
4E59
  8
0
 10
263.1390503374179843
 20
29.0685866746709394
 30
0.0
 40
0.0051008830581542
 50
314.916742552942992
 51
1.584890942708246
  0
LINE
  5
4E5A
  8
0
 10
263.1441492690992163
 20
29.0687277550872416
 30
0.0
 11
263.1441492690992163
 21
29.0793201851373091
 31
0.0
  0
LINE
  5
4E5B
  8
0
 10
263.1745740166991823
 20
29.0791625668872413
 30
0.0
 11
263.1884363368992013
 21
29.0721058006872397
 31
0.0
  0
ARC
  5
4E5C
  8
0
 10
263.1896588124495224
 20
29.0768586781684384
 30
0.0
 40
0.0049075748412571
 50
255.5757549612723949
 51
322.2109568238440147
  0
ARC
  5
4E5D
  8
0
 10
263.1892008473939768
 20
29.0774577563750789
 30
0.0
 40
0.0056398775162158
 50
320.2517681142746824
 51
1.403509171345547
  0
LINE
  5
4E5E
  8
0
 10
263.1948390328992105
 20
29.0775958961872405
 30
0.0
 11
263.1948390328992105
 21
29.087957761122329
 31
0.0
  0
LINE
  5
4E5F
  8
0
 10
263.2254432563187265
 20
29.0879393439299108
 30
0.0
 11
263.2342833436991896
 21
29.0834392003872395
 31
0.0
  0
ARC
  5
4E60
  8
0
 10
263.2353034218087942
 20
29.0862534324934892
 30
0.0
 40
0.0029934030295925
 50
250.0758774447211863
 51
304.7529281986469982
  0
ARC
  5
4E61
  8
0
 10
263.2335869111648776
 20
29.0891780876516783
 30
0.0
 40
0.0063800017241326
 50
302.4456465978972801
 51
1.0583411034665491
  0
LINE
  5
4E62
  8
0
 10
263.2399658244992224
 20
29.0892959293872408
 30
0.0
 11
263.2399658244992224
 21
29.0941155003291385
 31
0.0
  0
ARC
  5
4E63
  8
0
 10
263.2699910541917916
 20
29.1030139179630609
 30
0.0
 40
0.0067259040269887
 50
286.9279878802727239
 51
327.0958698210869215
  0
ARC
  5
4E64
  8
0
 10
263.2704120736077016
 20
29.1031831017124496
 30
0.0
 40
0.0064749542334067
 50
323.8133180314525816
 51
0.8589783018249834
  0
LINE
  5
4E65
  8
0
 10
263.2768863001991804
 20
29.1032801705872401
 30
0.0
 11
263.2768863001991804
 21
29.1139126273015485
 31
0.0
  0
LINE
  5
4E66
  8
0
 10
263.2768604613992238
 20
29.1137733336872415
 30
0.0
 11
263.2910750967992044
 21
29.1065372176872401
 31
0.0
  0
ARC
  5
4E67
  8
0
 10
263.2915355719102877
 20
29.1079717359937895
 30
0.0
 40
0.001506612126529
 50
252.2035604503280979
 51
302.7303231407219073
  0
ARC
  5
4E68
  8
0
 10
263.2881948372522061
 20
29.1123816927882402
 30
0.0
 40
0.007035567393551
 50
306.2009301671378125
 51
334.6915379769868082
  0
ARC
  5
4E69
  8
0
 10
263.2872540942850037
 20
29.1129695592376088
 30
0.0
 40
0.0081383520892508
 50
333.7813178387694961
 51
0.8432448383047731
  0
LINE
  5
4E6A
  8
0
 10
263.2953915649991927
 20
29.1130893302872416
 30
0.0
 11
263.2953976177990967
 21
29.1222669465628492
 31
0.0
  0
ARC
  5
4E6B
  8
0
 10
263.3062056022145043
 20
29.1289933592747587
 30
0.0
 40
0.0095896382282594
 50
317.8562940655334046
 51
1.599291107571357
  0
LINE
  5
4E6C
  8
0
 10
263.3157915048990958
 20
29.1292609990872293
 30
0.0
 11
263.3157915048990958
 21
29.1398934557688989
 31
0.0
  0
LINE
  5
4E6D
  8
0
 10
263.0820093925512992
 20
29.2219300862382312
 30
0.0
 11
263.0761675847991796
 21
29.2189632809872286
 31
0.0
  0
ARC
  5
4E6E
  8
0
 10
263.0732654811021121
 20
29.2246776877113206
 30
0.0
 40
0.0064091068080466
 50
269.3468087323491886
 51
296.9240743995144953
  0
LINE
  5
4E6F
  8
0
 10
263.0731924166992144
 20
29.2182689973872414
 30
0.0
 11
263.0723584670992068
 21
29.2180526732872288
 31
0.0
  0
LINE
  5
4E70
  8
0
 10
263.0723584670992068
 20
29.2180526732872288
 30
0.0
 11
263.0399311576991863
 21
29.2180721875872393
 31
0.0
  0
LINE
  5
4E71
  8
0
 10
263.0399311576991863
 20
29.2180721875872393
 30
0.0
 11
263.0390969350992236
 21
29.2182895154872391
 31
0.0
  0
ARC
  5
4E72
  8
0
 10
263.0390762792656005
 20
29.2248885569543901
 30
0.0
 40
0.0065990737947535
 50
243.4256843900529077
 51
270.1793424435567772
  0
LINE
  5
4E73
  8
0
 10
263.0361241293991839
 20
29.2189866431872396
 30
0.0
 11
263.0251285369055836
 21
29.2245840701417698
 31
0.0
  0
ARC
  5
4E74
  8
0
 10
263.0764936238500127
 20
29.2231112505735311
 30
0.0
 40
0.0058604935434695
 50
183.9316070247593018
 51
235.7157814968093135
  0
ARC
  5
4E75
  8
0
 10
263.0324853585349274
 20
29.2245810018373611
 30
0.0
 40
0.009457062417918
 50
339.5173521566952104
 51
357.230695700134504
  0
ARC
  5
4E76
  8
0
 10
263.0351936456340241
 20
29.2235693495455315
 30
0.0
 40
0.0065659969793024
 50
306.474872284149626
 51
339.5173521566920272
  0
LINE
  5
4E77
  8
0
 10
263.1754788613990854
 20
29.1488628000872403
 30
0.0
 11
263.1925266021992229
 21
29.1575206213872384
 31
0.0
  0
LINE
  5
4E78
  8
0
 10
263.1925266021992229
 20
29.1575206213872384
 30
0.0
 11
263.2266220837991
 21
29.1575001031872389
 31
0.0
  0
LINE
  5
4E79
  8
0
 10
263.2266220837991
 20
29.1575001031872389
 30
0.0
 11
263.2436698245991806
 21
29.1488217636872413
 31
0.0
  0
LINE
  5
4E7A
  8
0
 10
263.0400020860990935
 20
29.0619070793872396
 30
0.0
 11
263.027491361599175
 21
29.055553415487239
 31
0.0
  0
ARC
  5
4E7B
  8
0
 10
263.0242931324227129
 20
29.062514985288761
 30
0.0
 40
0.0076610785119671
 50
249.8666289283819992
 51
294.6746210812876257
  0
LINE
  5
4E7C
  8
0
 10
263.0182390713848122
 20
29.0707260846872408
 30
0.0
 11
263.0182317426991858
 21
29.0595973968872414
 31
0.0
  0
ARC
  5
4E7D
  8
0
 10
263.0220807861034018
 20
29.0594465565019391
 30
0.0
 40
0.0038519979166631
 50
177.7557807795442955
 51
225.9151923144729039
  0
LINE
  5
4E7E
  8
0
 10
263.0402766790699047
 20
29.0793826941573208
 30
0.0
 11
263.0250243623992219
 21
29.0716366923872407
 31
0.0
  0
ARC
  5
4E7F
  8
0
 10
263.0221222587020975
 20
29.0773510991113184
 30
0.0
 40
0.0064091068080466
 50
269.3468087323491886
 51
296.9240743995144953
  0
LINE
  5
4E80
  8
0
 10
263.0220491942991998
 20
29.0709424087872392
 30
0.0
 11
263.0212152446991922
 21
29.0707260846872408
 31
0.0
  0
LINE
  5
4E81
  8
0
 10
263.0192182257330842
 20
29.0880622453872384
 30
0.0
 11
263.0192110021991994
 21
29.0770932315872308
 31
0.0
  0
ARC
  5
4E82
  8
0
 10
263.0282637183759107
 20
29.0771177819774493
 30
0.0
 40
0.0090527494662203
 50
180.1553821271942013
 51
200.6686812470896086
  0
ARC
  5
4E83
  8
0
 10
263.0253504014499981
 20
29.075784661973529
 30
0.0
 40
0.0058604935434695
 50
198.5268879683152079
 51
235.7157814968093135
  0
ARC
  5
4E84
  8
0
 10
263.0235242052513058
 20
29.0609774349460501
 30
0.0
 40
0.0059559303680632
 50
226.1868877777847899
 51
251.720776306402513
  0
LINE
  5
4E85
  8
0
 10
263.0402766790699047
 20
29.0967188548573183
 30
0.0
 11
263.0250243623992219
 21
29.0889728530872382
 31
0.0
  0
ARC
  5
4E86
  8
0
 10
263.0221222587020975
 20
29.0946872598113195
 30
0.0
 40
0.0064091068080466
 50
269.3468087323491886
 51
296.9240743995144953
  0
LINE
  5
4E87
  8
0
 10
263.0220491942991998
 20
29.0882785694872403
 30
0.0
 11
263.0212152446991922
 21
29.0880622453872384
 31
0.0
  0
LINE
  5
4E88
  8
0
 10
263.0192182257330842
 20
29.1053984060872395
 30
0.0
 11
263.0192110021991994
 21
29.0944293922872284
 31
0.0
  0
ARC
  5
4E89
  8
0
 10
263.0282637183759107
 20
29.0944539426774504
 30
0.0
 40
0.0090527494662203
 50
180.1553821271942013
 51
200.6686812470896086
  0
ARC
  5
4E8A
  8
0
 10
263.0253504014499981
 20
29.0931208226735407
 30
0.0
 40
0.0058604935434695
 50
198.5268879683152079
 51
235.7157814968093135
  0
LINE
  5
4E8B
  8
0
 10
263.0402766790699047
 20
29.1140550155573195
 30
0.0
 11
263.0250243623992219
 21
29.1063090137872393
 31
0.0
  0
ARC
  5
4E8C
  8
0
 10
263.0221222587020975
 20
29.1120234205113206
 30
0.0
 40
0.0064091068080466
 50
269.3468087323491886
 51
296.9240743995144953
  0
LINE
  5
4E8D
  8
0
 10
263.0220491942991998
 20
29.1056147301872414
 30
0.0
 11
263.0212152446991922
 21
29.1053984060872395
 31
0.0
  0
LINE
  5
4E8E
  8
0
 10
263.0192182257330842
 20
29.1227345667872406
 30
0.0
 11
263.0192110021991994
 21
29.1117655529872401
 31
0.0
  0
ARC
  5
4E8F
  8
0
 10
263.0282637183759107
 20
29.1117901033774515
 30
0.0
 40
0.0090527494662203
 50
180.1553821271942013
 51
200.6686812470896086
  0
ARC
  5
4E90
  8
0
 10
263.0253504014499981
 20
29.1104569833735312
 30
0.0
 40
0.0058604935434695
 50
198.5268879683152079
 51
235.7157814968093135
  0
LINE
  5
4E91
  8
0
 10
263.0402766790699047
 20
29.1313911762573206
 30
0.0
 11
263.0250243623992219
 21
29.1236451744872404
 31
0.0
  0
ARC
  5
4E92
  8
0
 10
263.0221222587020975
 20
29.1293595812113217
 30
0.0
 40
0.0064091068080466
 50
269.3468087323491886
 51
296.9240743995144953
  0
LINE
  5
4E93
  8
0
 10
263.0220491942991998
 20
29.122950890887239
 30
0.0
 11
263.0212152446991922
 21
29.1227345667872406
 31
0.0
  0
LINE
  5
4E94
  8
0
 10
263.0192182257330842
 20
29.1400707274872417
 30
0.0
 11
263.0192110021991994
 21
29.1291017136872412
 31
0.0
  0
ARC
  5
4E95
  8
0
 10
263.0282637183759107
 20
29.1291262640774491
 30
0.0
 40
0.0090527494662203
 50
180.1553821271942013
 51
200.6686812470896086
  0
ARC
  5
4E96
  8
0
 10
263.0253504014499981
 20
29.1277931440735287
 30
0.0
 40
0.0058604935434695
 50
198.5268879683152079
 51
235.7157814968093135
  0
LINE
  5
4E97
  8
0
 10
263.0402766790699047
 20
29.1660634976573192
 30
0.0
 11
263.0250243623992219
 21
29.1583174958872391
 31
0.0
  0
ARC
  5
4E98
  8
0
 10
263.0221222587020975
 20
29.1640319026113204
 30
0.0
 40
0.0064091068080466
 50
269.3468087323491886
 51
296.9240743995144953
  0
LINE
  5
4E99
  8
0
 10
263.0192182257330842
 20
29.1747430487872386
 30
0.0
 11
263.0192110021991994
 21
29.1637740350872399
 31
0.0
  0
ARC
  5
4E9A
  8
0
 10
263.0282637183759107
 20
29.1637985854774513
 30
0.0
 40
0.0090527494662203
 50
180.1553821271942013
 51
200.6686812470896086
  0
ARC
  5
4E9B
  8
0
 10
263.0253504014499981
 20
29.1624654654735309
 30
0.0
 40
0.0058604935434695
 50
198.5268879683152079
 51
235.7157814968093135
  0
LINE
  5
4E9C
  8
0
 10
263.0402766790699047
 20
29.1833996582573185
 30
0.0
 11
263.0250243623992219
 21
29.1756536564872384
 31
0.0
  0
ARC
  5
4E9D
  8
0
 10
263.0221222587020975
 20
29.1813680632113197
 30
0.0
 40
0.0064091068080466
 50
269.3468087323491886
 51
296.9240743995144953
  0
LINE
  5
4E9E
  8
0
 10
263.0220491942991998
 20
29.1749593728872405
 30
0.0
 11
263.0212152446991922
 21
29.1747430487872386
 31
0.0
  0
LINE
  5
4E9F
  8
0
 10
263.0192182257330842
 20
29.192079209487229
 30
0.0
 11
263.0192110021991994
 21
29.1811101956872392
 31
0.0
  0
ARC
  5
4EA0
  8
0
 10
263.0282637183759107
 20
29.1811347460774506
 30
0.0
 40
0.0090527494662203
 50
180.1553821271942013
 51
200.6686812470896086
  0
ARC
  5
4EA1
  8
0
 10
263.0253504014499981
 20
29.1798016260735302
 30
0.0
 40
0.0058604935434695
 50
198.5268879683152079
 51
235.7157814968093135
  0
LINE
  5
4EA2
  8
0
 10
263.0402766790699047
 20
29.2007358189573196
 30
0.0
 11
263.0250243623992219
 21
29.1929898171872289
 31
0.0
  0
ARC
  5
4EA3
  8
0
 10
263.0221222587020975
 20
29.1987042239113208
 30
0.0
 40
0.0064091068080466
 50
269.3468087323491886
 51
296.9240743995144953
  0
LINE
  5
4EA4
  8
0
 10
263.0220491942991998
 20
29.1922955335872416
 30
0.0
 11
263.0212152446991922
 21
29.192079209487229
 31
0.0
  0
LINE
  5
4EA5
  8
0
 10
263.0192182257330842
 20
29.2094153701872408
 30
0.0
 11
263.0192110021991994
 21
29.1984463563872403
 31
0.0
  0
ARC
  5
4EA6
  8
0
 10
263.0282637183759107
 20
29.1984709067774517
 30
0.0
 40
0.0090527494662203
 50
180.1553821271942013
 51
200.6686812470896086
  0
ARC
  5
4EA7
  8
0
 10
263.0253504014499981
 20
29.1971377867735313
 30
0.0
 40
0.0058604935434695
 50
198.5268879683152079
 51
235.7157814968093135
  0
LINE
  5
4EA8
  8
0
 10
263.0402766790699047
 20
29.2180719796573207
 30
0.0
 11
263.0250243623992219
 21
29.2103259778872406
 31
0.0
  0
ARC
  5
4EA9
  8
0
 10
263.0221222587020975
 20
29.2160403846113184
 30
0.0
 40
0.0064091068080466
 50
269.3468087323491886
 51
296.9240743995144953
  0
LINE
  5
4EAA
  8
0
 10
263.0220491942991998
 20
29.2096316942872392
 30
0.0
 11
263.0212152446991922
 21
29.2094153701872408
 31
0.0
  0
LINE
  5
4EAB
  8
0
 10
263.0192168624917031
 20
29.2246814341434913
 30
0.0
 11
263.0192110021991994
 21
29.2157825170872307
 31
0.0
  0
ARC
  5
4EAC
  8
0
 10
263.0282637183759107
 20
29.2158070674774493
 30
0.0
 40
0.0090527494662203
 50
180.1553821271942013
 51
200.6686812470896086
  0
ARC
  5
4EAD
  8
0
 10
263.0253504014499981
 20
29.2144739474735289
 30
0.0
 40
0.0058604935434695
 50
198.5268879683152079
 51
235.7157814968093135
  0
ARC
  5
4EAE
  8
0
 10
263.0209173841175243
 20
29.1497388632909207
 30
0.0
 40
0.0096727230315256
 50
271.7646377870008791
 51
295.1249553370113858
  0
LINE
  5
4EAF
  8
0
 10
263.0250243623992219
 20
29.1409813350872398
 30
0.0
 11
263.0402766788697022
 21
29.1487273368574407
 31
0.0
  0
LINE
  5
4EB0
  8
0
 10
263.0220491942991998
 20
29.1576232121872287
 30
0.0
 11
263.0390969350992236
 21
29.1489448726872418
 31
0.0
  0
ARC
  5
4EB1
  8
0
 10
263.3059236816579869
 20
29.1318323020092116
 30
0.0
 40
0.0297485559216771
 50
334.2967010788789821
 51
25.703298921117181
  0
LINE
  5
4EB2
  8
0
 10
263.3356722375796721
 20
29.1421614012872396
 30
0.0
 11
263.3356722375796721
 21
29.1318323020092116
 31
0.0
  0
ARC
  5
4EB3
  8
0
 10
263.3029833703897111
 20
29.1416224568998494
 30
0.0
 40
0.0326933097012043
 50
0.9445552566230468
 51
32.3924284413657233
  0
ARC
  5
4EB4
  8
0
 10
263.2850761141954194
 20
29.1213285556512993
 30
0.0
 40
0.0530905713135018
 50
26.1593809970500395
 51
47.100748036206241
  0
ARC
  5
4EB5
  8
0
 10
263.2467159786011166
 20
29.0800470525634509
 30
0.0
 40
0.1094435880917031
 50
47.100748036206241
 51
58.3052321858772373
  0
ARC
  5
4EB6
  8
0
 10
263.2053674849469189
 20
29.0130844590905994
 30
0.0
 40
0.1881435680922429
 50
58.3052321858786229
 51
67.4035805667289054
  0
ARC
  5
4EB7
  8
0
 10
263.1300644385485157
 20
28.8321486395392697
 30
0.0
 40
0.3841239742393403
 50
67.4035805667289054
 51
73.0124429053039563
  0
ARC
  5
4EB8
  8
0
 10
263.0215844302728101
 20
28.2831757905054388
 30
0.0
 40
0.9436118707566628
 50
80.7382642055457751
 51
84.9887955289203632
  0
ARC
  5
4EB9
  8
0
 10
263.061757430762782
 20
28.5295291986029298
 30
0.0
 40
0.694004435671849
 50
76.4891161084482007
 51
80.7382642055457751
  0
ARC
  5
4EBA
  8
0
 10
263.1139866369559854
 20
28.7468975872965693
 30
0.0
 40
0.4704492827837118
 50
69.1041540458288637
 51
76.4891161084482007
  0
ARC
  5
4EBB
  8
0
 10
263.206065759816795
 20
28.9880814421703512
 30
0.0
 40
0.2122861236796538
 50
59.8631256533296892
 51
69.1041540458289347
  0
ARC
  5
4EBC
  8
0
 10
263.2509952431337865
 20
29.065474028734041
 30
0.0
 40
0.1227971806411435
 50
45.6089776637929418
 51
59.8631256533296892
  0
ARC
  5
4EBD
  8
0
 10
263.3140243230848228
 20
29.1261844904499085
 30
0.0
 40
0.035415804991523
 50
310.2306216135003183
 51
49.7693783865017423
  0
ARC
  5
4EBE
  8
0
 10
263.2850761141954194
 20
29.1423360483671203
 30
0.0
 40
0.0530905713135018
 50
312.899251963793688
 51
333.8406190029497793
  0
ARC
  5
4EBF
  8
0
 10
263.2467159786011166
 20
29.1836175514549794
 30
0.0
 40
0.1094435880917031
 50
301.6947678141214055
 51
312.899251963793688
  0
ARC
  5
4EC0
  8
0
 10
263.2053674849469189
 20
29.2505801449278309
 30
0.0
 40
0.1881435680922429
 50
292.5964194332710804
 51
301.6947678141214055
  0
ARC
  5
4EC1
  8
0
 10
263.1300644385485157
 20
29.4315159644791606
 30
0.0
 40
0.3841239742393403
 50
287.9008088938638252
 51
292.5964194332710804
  0
ARC
  5
4EC2
  8
0
 10
263.0215844302728101
 20
29.9691931903943782
 30
0.0
 40
0.9436118707566628
 50
275.0112044710796795
 51
279.2617357944541823
  0
ARC
  5
4EC3
  8
0
 10
263.061757430762782
 20
29.7228397822969015
 30
0.0
 40
0.694004435671849
 50
279.2617357944541823
 51
283.5108838915518277
  0
ARC
  5
4EC4
  8
0
 10
263.1139866369559854
 20
29.5054713936032584
 30
0.0
 40
0.4704492827837118
 50
283.5108838915518277
 51
290.8958459541710795
  0
ARC
  5
4EC5
  8
0
 10
263.206065759816795
 20
29.2642875387294801
 30
0.0
 40
0.2122861236796538
 50
290.8958459541710226
 51
300.1368743466703108
  0
ARC
  5
4EC6
  8
0
 10
263.2509952431337865
 20
29.1868949521657903
 30
0.0
 40
0.1227971806411435
 50
300.1368743466703108
 51
314.3910223362070724
  0
ARC
  5
4EC7
  8
0
 10
263.0659959671910997
 20
29.6715583050936615
 30
0.0
 40
0.6323684699843481
 50
279.4068484206202925
 51
286.739634157223918
  0
ARC
  5
4EC8
  8
0
 10
263.0262285591552995
 20
29.9066417044311805
 30
0.0
 40
0.8707907325393875
 50
274.7615509064794992
 51
279.4601244204994259
  0
LINE
  5
4EC9
  8
0
 10
263.3730978997796797
 20
29.1788060390600101
 30
0.0
 11
263.3730978997796797
 21
29.1411958856872495
 31
0.0
  0
ARC
  5
4ECA
  8
0
 10
263.3218347410049205
 20
29.1420429662676987
 30
0.0
 40
0.0512701569442071
 50
326.9973116788472112
 51
359.0533215925245827
  0
ARC
  5
4ECB
  8
0
 10
263.2909179379835223
 20
29.162221329875841
 30
0.0
 40
0.0881891369427461
 50
301.9725190190673061
 51
326.9435368788788878
  0
ARC
  5
4ECC
  8
0
 10
263.2222594813745786
 20
29.2594857469436107
 30
0.0
 40
0.207163943859196
 50
290.7440830268625973
 51
303.8370544083825848
  0
ARC
  5
4ECD
  8
0
 10
263.1354703878154169
 20
29.4707706836502688
 30
0.0
 40
0.4355378279844163
 50
283.8277730350911838
 51
291.5764085251547044
  0
ARC
  5
4ECE
  8
0
 10
263.046449305215674
 20
29.8371413634447684
 30
0.0
 40
0.8125677368710638
 50
277.3219842127243169
 51
283.7485881804776113
  0
ARC
  5
4ECF
  8
0
 10
263.3251109400767973
 20
29.2626478609582605
 30
0.0
 40
0.1912406411882956
 50
293.9782139855344099
 51
305.8311652962955804
  0
ARC
  5
4ED0
  8
0
 10
-80.2378400602771364
 20
765.5974168082340157
 30
0.0
 40
812.7331426884229586
 50
295.0097474615054125
 51
295.0128198152646064
  0
ARC
  5
4ED1
  8
0
 10
263.3657185534717087
 20
29.1355565404232806
 30
0.0
 40
0.0358942218793228
 50
333.3014014982952062
 51
26.6985985017047902
  0
ARC
  5
4ED2
  8
0
 10
263.3378411632867255
 20
29.1208204939562911
 30
0.0
 40
0.0674232893312532
 50
27.2422122136579006
 51
50.3430950100631378
  0
ARC
  5
4ED3
  8
0
 10
263.2762277317419262
 20
29.0469222187910283
 30
0.0
 40
0.1636373169678318
 50
50.2472009959435084
 51
61.7360855167770026
  0
ARC
  5
4ED4
  8
0
 10
263.1866133161157109
 20
28.8662107237896599
 30
0.0
 40
0.3652994596068744
 50
62.7780329990822494
 51
73.1274555744075911
  0
ARC
  5
4ED5
  8
0
 10
263.0609288775639243
 20
28.4185216812042611
 30
0.0
 40
0.8302520989785103
 50
73.7944419247436656
 51
82.5151982866030238
  0
ARC
  5
4ED6
  8
0
 10
263.013901121222375
 20
28.0690913753160594
 30
0.0
 40
1.182831572340584
 50
82.4614718272608513
 51
86.0619139352125302
  0
ARC
  5
4ED7
  8
0
 10
263.3378411632867255
 20
29.1502925868902807
 30
0.0
 40
0.0674232893312532
 50
309.6569049899367769
 51
332.7577877863420781
  0
ARC
  5
4ED8
  8
0
 10
263.2762277317419262
 20
29.2241908620555293
 30
0.0
 40
0.1636373169678318
 50
298.2639144832230045
 51
309.752799004056385
  0
ARC
  5
4ED9
  8
0
 10
263.1866133161157109
 20
29.4049023570569084
 30
0.0
 40
0.3652994596068744
 50
286.8725444255924231
 51
297.2219670009176866
  0
ARC
  5
4EDA
  8
0
 10
263.0609288775639243
 20
29.8525913996423
 30
0.0
 40
0.8302520989785103
 50
277.4848017133970188
 51
286.2055580752564197
  0
ARC
  5
4EDB
  8
0
 10
263.013901121222375
 20
30.2020217055305089
 30
0.0
 40
1.182831572340584
 50
273.9380860647873988
 51
277.5385281727391771
  0
ARC
  5
4EDC
  8
0
 10
263.2865210721658968
 20
29.1409346385339489
 30
0.0
 40
0.0346540260807734
 50
327.9371829048737936
 51
345.17320728643449
  0
ARC
  5
4EDD
  8
0
 10
263.2703987833626798
 20
29.1510335572323918
 30
0.0
 40
0.0536781254059248
 50
311.7537907656778771
 51
327.9371829048727136
  0
ARC
  5
4EDE
  8
0
 10
263.2314194681871982
 20
29.1947003743068016
 30
0.0
 40
0.1122116877864836
 50
299.8932160446811963
 51
311.7537907656778771
  0
ARC
  5
4EDF
  8
0
 10
263.1802256353602729
 20
29.2837535764732593
 30
0.0
 40
0.2149311179621539
 50
288.505929902483274
 51
299.8932160446811963
  0
ARC
  5
4EE0
  8
0
 10
263.0747642720216959
 20
29.5988359917376691
 30
0.0
 40
0.5471946091345493
 50
279.755086186403787
 51
288.505929902483274
  0
ARC
  5
4EE1
  8
0
 10
263.021425387539125
 20
29.9090850005182496
 30
0.0
 40
0.8619953144183501
 50
275.6061060578567776
 51
279.7550861864004901
  0
ARC
  5
4EE2
  8
0
 10
263.263826727894525
 20
29.1649785420694982
 30
0.0
 40
0.0667522319174847
 50
308.4813293028254861
 51
323.2603638574270235
  0
ARC
  5
4EE3
  8
0
 10
263.2241060883143859
 20
29.2149476441913087
 30
0.0
 40
0.1305851417329812
 50
296.8731170913206938
 51
308.4813293028257135
  0
ARC
  5
4EE4
  8
0
 10
263.1595582544513832
 20
29.3423264650220297
 30
0.0
 40
0.2733849556426185
 50
287.0100855230159027
 51
296.8731170913206938
  0
ARC
  5
4EE5
  8
0
 10
263.066732848007689
 20
29.6457536497655703
 30
0.0
 40
0.5906933427407765
 50
277.2570822148970819
 51
287.0100855230159027
  0
ARC
  5
4EE6
  8
0
 10
263.0149358634831742
 20
29.9861968569138213
 30
0.0
 40
0.9349899784381296
 50
274.3110506962930799
 51
277.7704114639358863
  0
ARC
  5
4EE7
  8
0
 10
263.1869458045841839
 20
29.4579270410293788
 30
0.0
 40
0.4266146327628788
 50
285.7635250274125838
 51
294.4225314271291722
  0
ARC
  5
4EE8
  8
0
 10
263.1010649854143253
 20
29.7521338222052485
 30
0.0
 40
0.7330927324310692
 50
280.8334434414970247
 51
285.9764605257843755
  0
ARC
  5
4EE9
  8
0
 10
263.0485058596977979
 20
30.0163450478108516
 30
0.0
 40
1.0024757617051601
 50
276.2876033609363731
 51
280.9456188109840014
  0
LINE
  5
4EEA
  8
0
 10
263.4749490244798267
 20
29.2993846629872401
 30
0.0
 11
263.4749490244798267
 21
29.4036240795000801
 31
0.0
  0
ARC
  5
4EEB
  8
0
 10
263.4196775954658847
 20
29.300308752983419
 30
0.0
 40
0.0552791534627289
 50
343.7557621335990916
 51
359.0421538743668748
  0
ARC
  5
4EEC
  8
0
 10
263.3173704776522186
 20
29.3366885609216901
 30
0.0
 40
0.1638001176291595
 50
316.9470310325758078
 51
341.5484449287570783
  0
LINE
  5
4EED
  8
0
 10
263.4370629735399234
 20
29.1076003680872404
 30
0.0
 11
263.4370629735399234
 21
29.3332690787036512
 31
0.0
  0
ARC
  5
4EEE
  8
0
 10
263.4422296439959723
 20
29.2995141246421902
 30
0.0
 40
0.0327196366049933
 50
0.2267025724196361
 51
27.2504511147547888
  0
ARC
  5
4EEF
  8
0
 10
263.4468852265924852
 20
29.3010584317525513
 30
0.0
 40
0.0278839781332574
 50
28.8098044709529297
 51
62.3461473847406822
  0
ARC
  5
4EF0
  8
0
 10
263.428007325662918
 20
29.26757915324891
 30
0.0
 40
0.0663111684765211
 50
61.3241545236312575
 51
82.1509933589302221
  0
ARC
  5
4EF1
  8
0
 10
263.3041182492846133
 20
29.0183602657591706
 30
0.0
 40
0.2377637604345401
 50
56.0032215354379019
 51
64.7242452307121994
  0
ARC
  5
4EF2
  8
0
 10
263.2294549004089959
 20
28.8602355823506116
 30
0.0
 40
0.4126295122796988
 50
64.7242452307121994
 51
70.9615130722548599
  0
ARC
  5
4EF3
  8
0
 10
263.158038622662616
 20
28.6532793595331583
 30
0.0
 40
0.631561380425994
 50
70.9615130722548599
 51
76.2110187482384305
  0
ARC
  5
4EF4
  8
0
 10
263.0788563258470276
 20
28.330638951143829
 30
0.0
 40
0.9637761742787173
 50
76.2110187482384305
 51
80.6711338407077392
  0
ARC
  5
4EF5
  8
0
 10
263.0323732095791911
 20
28.0476774513862388
 30
0.0
 40
1.250530233435752
 50
80.6711338407077392
 51
84.7728343631632555
  0
ARC
  5
4EF6
  8
0
 10
263.0049924566285995
 20
27.9373897568159393
 30
0.0
 40
1.314834065964767
 50
86.068774387873674
 51
93.931225612126326
  0
ARC
  5
4EF7
  8
0
 10
263.0049924566285995
 20
27.7536987338189292
 30
0.0
 40
1.545780978533364
 50
84.7548934277732542
 51
95.2451065722267316
  0
ARC
  5
4EF8
  8
0
 10
263.0049924566285995
 20
30.1390829934723214
 30
0.0
 40
1.088192146728707
 50
265.7719997720769243
 51
274.2280002279230757
  0
ARC
  5
4EF9
  8
0
 10
263.0049924566285995
 20
30.1096967093533898
 30
0.0
 40
1.063257758715465
 50
264.5686614936550995
 51
275.4313385063447868
  0
ARC
  5
4EFA
  8
0
 10
263.0049924566285995
 20
30.1555004004742813
 30
0.0
 40
1.1205534684533269
 50
265.2126136785029757
 51
274.7873863214969106
  0
ARC
  5
4EFB
  8
0
 10
263.0049924566285995
 20
30.2740766179303193
 30
0.0
 40
1.2488201096627909
 50
265.4523338972138049
 51
274.5476661027860814
  0
ARC
  5
4EFC
  8
0
 10
263.0049924566285995
 20
30.1949156713975313
 30
0.0
 40
1.172716640184579
 50
262.896790542981023
 51
277.103209457018977
  0
ARC
  5
4EFD
  8
0
 10
263.0049924566285995
 20
30.5653105969426413
 30
0.0
 40
1.5459579632717051
 50
266.6572274159426001
 51
273.3427725840573999
  0
ARC
  5
4EFE
  8
0
 10
263.0049924566285995
 20
30.4231660484746094
 30
0.0
 40
1.4116157584873701
 50
263.7652869405059164
 51
276.2347130594941973
  0
ARC
  5
4EFF
  8
0
 10
262.5558896096845274
 20
29.3932990538389092
 30
0.0
 40
0.0336386352295954
 50
213.0518828839003049
 51
231.3201583321896067
  0
ARC
  5
4F00
  8
0
 10
262.5425637120272881
 20
29.385127898037311
 30
0.0
 40
0.0180175133987932
 50
145.6154283418854902
 51
214.3845716581103886
  0
ARC
  5
4F01
  8
0
 10
262.5651302773869133
 20
29.3696851721506391
 30
0.0
 40
0.0453621226470667
 50
131.6775635193860978
 51
145.6154283418854902
  0
ARC
  5
4F02
  8
0
 10
262.5954016541983265
 20
29.3321493875763899
 30
0.0
 40
0.0935556370318384
 50
116.6803669347932981
 51
130.2386325060292052
  0
ARC
  5
4F03
  8
0
 10
262.6705214027591069
 20
29.1673017813338191
 30
0.0
 40
0.274667490353724
 50
104.1124037149944002
 51
115.2414359214401003
  0
ARC
  5
4F04
  8
0
 10
262.8160195593092112
 20
28.5149988878029887
 30
0.0
 40
0.9429301715867634
 50
95.2262175734301337
 51
103.0221901415767007
  0
ARC
  5
4F05
  8
0
 10
263.4540953035726716
 20
29.3932990538389092
 30
0.0
 40
0.0336386352295954
 50
308.6798416678103081
 51
326.9481171160998088
  0
ARC
  5
4F06
  8
0
 10
263.4674212012299108
 20
29.385127898037311
 30
0.0
 40
0.0180175133987932
 50
325.615428341889583
 51
34.3845716581144885
  0
ARC
  5
4F07
  8
0
 10
263.4448546358702856
 20
29.3696851721506391
 30
0.0
 40
0.0453621226470667
 50
34.3845716581144885
 51
48.3224364806138524
  0
ARC
  5
4F08
  8
0
 10
263.4145832590588725
 20
29.3321493875763899
 30
0.0
 40
0.0935556370318384
 50
49.7613674939708304
 51
63.3196330652066521
  0
ARC
  5
4F09
  8
0
 10
263.3394635104980921
 20
29.1673017813338191
 30
0.0
 40
0.274667490353724
 50
64.7585640785598571
 51
75.8875962850055998
  0
ARC
  5
4F0A
  8
0
 10
263.1939653539479878
 20
28.5149988878029887
 30
0.0
 40
0.9429301715867634
 50
76.9778098584232708
 51
84.7737824265698663
  0
ARC
  5
4F0B
  8
0
 10
263.0049924566285995
 20
24.8526282738974906
 30
0.0
 40
4.6095829897897493
 50
86.5815076002179467
 51
93.4184923997820533
  0
LINE
  5
4F0C
  8
0
 10
262.5880435428986175
 20
29.156806498391969
 30
0.0
 11
262.5880435428986175
 21
29.1142777287391397
 31
0.0
  0
ARC
  5
4F0D
  8
0
 10
262.6211163560574278
 20
29.1355421135655597
 30
0.0
 40
0.0393190161662359
 50
147.2607401521210022
 51
212.7392598478789978
  0
ARC
  5
4F0E
  8
0
 10
262.6615543895046017
 20
29.1615420156820697
 30
0.0
 40
0.0873942640506491
 50
212.7392598478789978
 51
233.5014118696684875
  0
ARC
  5
4F0F
  8
0
 10
262.7311070497908077
 20
29.2555418856441989
 30
0.0
 40
0.2043282116697082
 50
233.5014118696684875
 51
244.3950523444030125
  0
ARC
  5
4F10
  8
0
 10
262.6655396946807173
 20
29.1062831220449816
 30
0.0
 40
0.0925108917832529
 50
123.5994041259435932
 51
146.8977842871800021
  0
ARC
  5
4F11
  8
0
 10
262.7594720900274865
 20
28.9649003114576793
 30
0.0
 40
0.2622530315869725
 50
111.604800508536897
 51
123.5994041259435932
  0
ARC
  5
4F12
  8
0
 10
262.8465609617803125
 20
28.7449927627078701
 30
0.0
 40
0.4987774522718868
 50
105.1583881750221963
 51
111.604800508536897
  0
ARC
  5
4F13
  8
0
 10
262.9254419502386781
 20
28.4538268909132697
 30
0.0
 40
0.8004391423123832
 50
98.7836501648170042
 51
105.1583881750221963
  0
ARC
  5
4F14
  8
0
 10
262.9974635203222988
 20
27.9901136708248188
 30
0.0
 40
1.2697119548014799
 50
92.4286028942909752
 51
98.8001711495916339
  0
ARC
  5
4F15
  8
0
 10
263.388868557199828
 20
29.1355421135655597
 30
0.0
 40
0.0393190161662359
 50
327.2607401521210022
 51
32.7392598478789765
  0
ARC
  5
4F16
  8
0
 10
263.3484305237525973
 20
29.1615420156820697
 30
0.0
 40
0.0873942640506491
 50
306.4985881303314841
 51
327.2607401521210022
  0
ARC
  5
4F17
  8
0
 10
263.2788778634663913
 20
29.2555418856441989
 30
0.0
 40
0.2043282116697082
 50
295.6049476555954243
 51
306.4985881303314841
  0
ARC
  5
4F18
  8
0
 10
263.3444452185764817
 20
29.1062831220449816
 30
0.0
 40
0.0925108917832529
 50
33.1022157128200121
 51
56.4005958740563571
  0
ARC
  5
4F19
  8
0
 10
263.2505128232297125
 20
28.9649003114576793
 30
0.0
 40
0.2622530315869725
 50
56.4005958740563571
 51
68.3951994914630887
  0
ARC
  5
4F1A
  8
0
 10
263.1634239514768865
 20
28.7449927627078701
 30
0.0
 40
0.4987774522718868
 50
68.3951994914630887
 51
74.8416118249777753
  0
ARC
  5
4F1B
  8
0
 10
263.0845429630184071
 20
28.4538268909132697
 30
0.0
 40
0.8004391423123832
 50
74.8416118249777753
 51
81.2163498351829816
  0
ARC
  5
4F1C
  8
0
 10
263.0125213929349002
 20
27.9901136708248188
 30
0.0
 40
1.2697119548014799
 50
81.1998288504083661
 51
87.5713971057090248
  0
ARC
  5
4F1D
  8
0
 10
263.0049924566285995
 20
27.8660977556462015
 30
0.0
 40
1.393937356875381
 50
87.4782124019492073
 51
92.5217875980491584
  0
ENDSEC
  0
EOF
