  0
SECTION
  2
HEADER
  9
$ACADVER
  1
AC1009
  9
$INSBASE
 10
283.0518205815300234
 20
31.2290870913108201
 30
0.0
  9
$EXTMIN
 10
282.1057182345710999
 20
27.1402530743277595
 30
-0.0000000000000058
  9
$EXTMAX
 10
284.6028708683809896
 20
32.2867675480143106
 30
0.0000000000000104
  9
$LIMMIN
 10
0.0
 20
0.0
  9
$LIMMAX
 10
11.6929133858000007
 20
8.2677165353999982
  9
$ORTHOMODE
 70
     0
  9
$REGENMODE
 70
     1
  9
$FILLMODE
 70
     1
  9
$QTEXTMODE
 70
     0
  9
$MIRRTEXT
 70
     0
  9
$DRAGMODE
 70
     2
  9
$LTSCALE
 40
0.6431102362
  9
$OSMODE
 70
  4095
  9
$ATTMODE
 70
     1
  9
$TEXTSIZE
 40
0.2
  9
$TRACEWID
 40
0.05
  9
$TEXTSTYLE
  7
STANDARD
  9
$CLAYER
  8
0
  9
$CELTYPE
  6
BYLAYER
  9
$CECOLOR
 62
   256
  9
$DIMSCALE
 40
1.0
  9
$DIMASZ
 40
0.1875
  9
$DIMEXO
 40
0.0625
  9
$DIMDLI
 40
0.4443307087
  9
$DIMRND
 40
0.0
  9
$DIMDLE
 40
0.0
  9
$DIMEXE
 40
0.125
  9
$DIMTP
 40
0.01
  9
$DIMTM
 40
0.01
  9
$DIMTXT
 40
1.0
  9
$DIMCEN
 40
0.1052362205
  9
$DIMTSZ
 40
0.0
  9
$DIMTOL
 70
     1
  9
$DIMLIM
 70
     0
  9
$DIMTIH
 70
     0
  9
$DIMTOH
 70
     1
  9
$DIMSE1
 70
     0
  9
$DIMSE2
 70
     0
  9
$DIMTAD
 70
     0
  9
$DIMZIN
 70
     0
  9
$DIMBLK
  1

  9
$DIMASO
 70
     1
  9
$DIMSHO
 70
     1
  9
$DIMPOST
  1
\X
  9
$DIMAPOST
  1

  9
$DIMALT
 70
     1
  9
$DIMALTD
 70
     2
  9
$DIMALTF
 40
25.3999999999999986
  9
$DIMLFAC
 40
1.0
  9
$DIMTOFL
 70
     0
  9
$DIMTVP
 40
0.0
  9
$DIMTIX
 70
     0
  9
$DIMSOXD
 70
     0
  9
$DIMSAH
 70
     0
  9
$DIMBLK1
  1

  9
$DIMBLK2
  1

  9
$DIMSTYLE
  2
STANDARD
  9
$DIMCLRD
 70
     0
  9
$DIMCLRE
 70
     0
  9
$DIMCLRT
 70
     0
  9
$DIMTFAC
 40
1.0
  9
$DIMGAP
 40
0.09
  9
$LUNITS
 70
     2
  9
$LUPREC
 70
     4
  9
$SKETCHINC
 40
0.1
  9
$FILLETRAD
 40
0.0
  9
$AUNITS
 70
     0
  9
$AUPREC
 70
     0
  9
$MENU
  1
.
  9
$ELEVATION
 40
0.0
  9
$PELEVATION
 40
0.0
  9
$THICKNESS
 40
0.0
  9
$LIMCHECK
 70
     0
  9
$BLIPMODE
 70
     0
  9
$CHAMFERA
 40
0.0
  9
$CHAMFERB
 40
0.0
  9
$SKPOLY
 70
     0
  9
$TDCREATE
 40
2458172.5207638889551163
  9
$TDUPDATE
 40
2459196.8637384260073304
  9
$TDINDWG
 40
0.0843397569
  9
$TDUSRTIMER
 40
0.0843397569
  9
$USRTIMER
 70
     1
  9
$ANGBASE
 50
0.0
  9
$ANGDIR
 70
     0
  9
$PDMODE
 70
     0
  9
$PDSIZE
 40
0.3125
  9
$PLINEWID
 40
0.0
  9
$COORDS
 70
     1
  9
$SPLFRAME
 70
     0
  9
$SPLINETYPE
 70
     6
  9
$SPLINESEGS
 70
     8
  9
$ATTDIA
 70
     1
  9
$ATTREQ
 70
     1
  9
$HANDLING
 70
     1
  9
$HANDSEED
  5
3E64
  9
$SURFTAB1
 70
     6
  9
$SURFTAB2
 70
     6
  9
$SURFTYPE
 70
     6
  9
$SURFU
 70
     6
  9
$SURFV
 70
     6
  9
$UCSNAME
  2

  9
$UCSORG
 10
0.0
 20
0.0
 30
0.0
  9
$UCSXDIR
 10
1.0
 20
0.0
 30
0.0
  9
$UCSYDIR
 10
0.0
 20
1.0
 30
0.0
  9
$PUCSNAME
  2

  9
$PUCSORG
 10
0.0
 20
0.0
 30
0.0
  9
$PUCSXDIR
 10
1.0
 20
0.0
 30
0.0
  9
$PUCSYDIR
 10
0.0
 20
1.0
 30
0.0
  9
$USERI1
 70
     0
  9
$USERI2
 70
     0
  9
$USERI3
 70
     0
  9
$USERI4
 70
     0
  9
$USERI5
 70
     0
  9
$USERR1
 40
0.0
  9
$USERR2
 40
0.0
  9
$USERR3
 40
0.0
  9
$USERR4
 40
0.0
  9
$USERR5
 40
0.0
  9
$WORLDVIEW
 70
     1
  9
$SHADEDGE
 70
     3
  9
$SHADEDIF
 70
    70
  9
$TILEMODE
 70
     1
  9
$MAXACTVP
 70
    64
  9
$PLIMCHECK
 70
     0
  9
$PEXTMIN
 10
1.0000000000000000E+20
 20
1.0000000000000000E+20
 30
1.0000000000000000E+20
  9
$PEXTMAX
 10
-1.0000000000000000E+20
 20
-1.0000000000000000E+20
 30
-1.0000000000000000E+20
  9
$PLIMMIN
 10
0.0
 20
0.0
  9
$PLIMMAX
 10
12.0
 20
9.0
  9
$UNITMODE
 70
     0
  9
$VISRETAIN
 70
     1
  9
$PLINEGEN
 70
     0
  9
$PSLTSCALE
 70
     1
  0
ENDSEC
  0
SECTION
  2
TABLES
  0
TABLE
  2
VPORT
 70
     1
  0
VPORT
  2
*ACTIVE
 70
     0
 10
0.0
 20
0.0
 11
1.0
 21
1.0
 12
14.6921509886070698
 22
1.6310906351047749
 13
0.0
 23
0.0
 14
1.0
 24
1.0
 15
0.0
 25
0.0
 16
0.0
 26
0.0
 36
15.0284134128865094
 17
268.6621435628690051
 27
28.0824196760662588
 37
0.0
 40
5.2120751676188632
 41
2.887234042553191
 42
50.0
 43
0.0
 44
0.0
 50
0.0
 51
0.0
 71
     0
 72
   100
 73
     1
 74
     1
 75
     0
 76
     0
 77
     0
 78
     0
  0
ENDTAB
  0
TABLE
  2
LTYPE
 70
     2
  0
LTYPE
  2
CONTINUOUS
 70
     0
  3
Solid line
 72
    65
 73
     0
 40
0.0
  0
LTYPE
  2
PHANTOM2
 70
     0
  3
___ _ _ ___ _ _ ___ _ _ ___ _ _
 72
    65
 73
     6
 40
1.25
 49
0.625
 49
-0.125
 49
0.125
 49
-0.125
 49
0.125
 49
-0.125
  0
ENDTAB
  0
TABLE
  2
LAYER
 70
     2
  0
LAYER
  2
0
 70
     0
 62
   255
  6
CONTINUOUS
  0
LAYER
  2
DEFPOINTS
 70
     0
 62
     7
  6
CONTINUOUS
  0
ENDTAB
  0
TABLE
  2
STYLE
 70
     1
  0
STYLE
  2
STANDARD
 70
     0
 40
0.0
 41
0.8
 50
0.0
 71
     0
 42
0.2
  3
txt
  4

  0
ENDTAB
  0
TABLE
  2
VIEW
 70
     0
  0
ENDTAB
  0
TABLE
  2
UCS
 70
     0
  0
ENDTAB
  0
TABLE
  2
APPID
 70
    10
  0
APPID
  2
ACAD
 70
     0
  0
APPID
  2
ACAD_MLEADERVER
 70
     0
  0
APPID
  2
ACAD_EXEMPT_FROM_CAD_STANDARDS
 70
     0
  0
APPID
  2
ACAD_DSTYLE_DIMJAG
 70
     0
  0
APPID
  2
ACAD_DSTYLE_DIMTALN
 70
     0
  0
APPID
  2
ACAD_NAV_VCDISPLAY
 70
     0
  0
APPID
  2
ACAECLAYERSTANDARD
 70
     0
  0
APPID
  2
ACCMTRANSPARENCY
 70
     0
  0
APPID
  2
DCO15
 70
     0
  0
APPID
  2
ACDBATTR
 70
     0
  0
ENDTAB
  0
TABLE
  2
DIMSTYLE
 70
     1
  0
DIMSTYLE
  2
STANDARD
 70
     0
  3

  4

  5

  6

  7

 40
1.0
 41
0.1875
 42
0.0625
 43
0.38
 44
0.125
 45
0.0
 46
0.0
 47
0.01
 48
0.01
140
0.15625
141
0.09
142
0.0
143
25.3999999999999986
144
1.0
145
0.0
146
1.0
147
0.09
 71
     1
 72
     0
 73
     1
 74
     1
 75
     0
 76
     0
 77
     0
 78
     4
170
     0
171
     2
172
     0
173
     0
174
     0
175
     0
176
     0
177
     0
178
     0
  0
ENDTAB
  0
ENDSEC
  0
SECTION
  2
BLOCKS
  0
BLOCK
  8
0
  2
$MODEL_SPACE
 70
     0
 10
0.0
 20
0.0
 30
0.0
  3
$MODEL_SPACE
  1

  0
ENDBLK
  5
21
  8
0
  0
BLOCK
 67
     1
  8
0
  2
$PAPER_SPACE
 70
     0
 10
0.0
 20
0.0
 30
0.0
  3
$PAPER_SPACE
  1

  0
ENDBLK
  5
1D
 67
     1
  8
0
  0
ENDSEC
  0
SECTION
  2
ENTITIES
  0
ATTDEF
  5
829
  8
DEFPOINTS
 10
283.046115284370785
 20
31.2257952515093784
 30
0.0
 40
0.001
  1
K-16028BR-4
  3

  2
MODELNUMBER
 70
     0
1001
ACDBATTR
1070
     0
1070
     1
  0
ATTDEF
  5
82A
  8
DEFPOINTS
 10
283.046115284370785
 20
31.2241285848427204
 30
0.0
 40
0.001
  1
JULY
  3

  2
TRADENAME
 70
     0
1001
ACDBATTR
1070
     0
1070
     1
  0
ATTDEF
  5
82B
  8
DEFPOINTS
 10
283.046115284370785
 20
31.2224619181760517
 30
0.0
 40
0.001
  1
BATHROOM SINK FAUCET
  3

  2
PRODUCT
 70
     0
1001
ACDBATTR
1070
     0
1070
     1
  0
ARC
  5
3D5C
  8
0
 10
-1311.6798960864020955
 20
-59.165458989652052
 30
0.0
 40
1596.5260341880559736
 50
3.1214694186488572
 51
3.1919629688851461
  0
ARC
  5
3D5D
  8
0
 10
276.5431825791471852
 20
29.257899469235479
 30
0.0
 40
5.8452921999705012
 50
4.6466207208316606
 51
15.9260445291253898
  0
ARC
  5
3D5E
  8
0
 10
283.9796003238172943
 20
31.2872610936200992
 30
0.0
 40
1.86466853211758
 50
181.3026861032423938
 51
193.188512943851606
  0
ARC
  5
3D5F
  8
0
 10
283.0518185014155961
 20
31.3539785368056414
 30
0.0
 40
0.932241413496577
 50
0.067559258037352
 51
179.9374744287513863
  0
ARC
  5
3D60
  8
0
 10
283.0518642458134764
 20
27.8058712293365495
 30
0.0
 40
0.5754576408541016
 50
183.5604120645421915
 51
356.4390993398807836
  0
ARC
  5
3D61
  8
0
 10
286.0174934990697011
 20
31.1524726040118694
 30
0.0
 40
3.9031735443912128
 50
177.025767711022695
 51
178.6435556692700004
  0
LINE
  5
3D62
  8
0
 10
282.5990646760300251
 20
27.3655558206305507
 30
0.0
 11
282.5990646760300251
 21
27.4507317552967187
 31
0.0
  0
LINE
  5
3D63
  8
0
 10
282.6466626237545938
 20
27.1490214706053408
 30
0.0
 11
283.4569785393053962
 21
27.1490214706053408
 31
0.0
  0
LINE
  5
3D64
  8
0
 10
282.6955212178299917
 20
27.1411474549053509
 30
0.0
 11
283.4081199452299984
 21
27.1411474549051093
 31
0.0
  0
ARC
  5
3D65
  8
0
 10
283.2142183581004815
 20
27.3655558206305507
 30
0.0
 40
0.6151536820714818
 50
180.0
 51
199.8358922495629031
  0
ARC
  5
3D66
  8
0
 10
282.6466626237545938
 20
27.1608214706053595
 30
0.0
 40
0.0118
 50
199.8358922496412902
 51
269.9999999999902229
  0
ARC
  5
3D67
  8
0
 10
282.6955212178299917
 20
27.1490214706053408
 30
0.0
 40
0.0078740156999846
 50
179.9999999999741078
 51
270.000000000104194
  0
ARC
  5
3D68
  8
0
 10
277.3980474189820029
 20
29.5454985081918302
 30
0.0
 40
4.9478071624356872
 50
1.9192256920326021
 51
12.3960767071393008
  0
LINE
  5
3D69
  8
0
 10
282.4291149632435918
 20
28.3202813132053386
 30
0.0
 11
282.4473331785350751
 21
28.3202813132053386
 31
0.0
  0
LINE
  5
3D6A
  8
0
 10
283.6563079845250854
 20
28.3202813132053386
 30
0.0
 11
283.6745261998163983
 21
28.3202813132053386
 31
0.0
  0
LINE
  5
3D6B
  8
0
 10
282.3897383751991015
 20
28.3583232579895892
 30
0.0
 11
282.3430790318111008
 21
29.7112032599949885
 31
0.0
  0
ARC
  5
3D6C
  8
0
 10
282.4291149632435918
 20
28.3596813132053391
 30
0.0
 40
0.0394
 50
181.9752854801469937
 51
270.0
  0
ARC
  5
3D6D
  8
0
 10
1877.7835372494610056
 20
-59.165458989652052
 30
0.0
 40
1596.5260341880559736
 50
176.8080370311147931
 51
176.8785305813511002
  0
ARC
  5
3D6E
  8
0
 10
289.5604585839128049
 20
29.257899469235479
 30
0.0
 40
5.8452921999705012
 50
164.0739554708746084
 51
175.3533792791681094
  0
ARC
  5
3D6F
  8
0
 10
282.124040839242582
 20
31.2872610936200992
 30
0.0
 40
1.86466853211758
 50
346.8114870561482235
 51
358.697313896757521
  0
ARC
  5
3D70
  8
0
 10
280.0861476639902889
 20
31.1524726040118694
 30
0.0
 40
3.9031735443912128
 50
1.3564443307299769
 51
2.9754352995549702
  0
LINE
  5
3D71
  8
0
 10
283.5045764870300218
 20
27.3655558206305507
 30
0.0
 11
283.5045764870300218
 21
27.4506204403577492
 31
0.0
  0
ARC
  5
3D72
  8
0
 10
282.8894228049595085
 20
27.3655558206305507
 30
0.0
 40
0.6151536820714818
 50
340.1641077504370969
 51
0.0
  0
ARC
  5
3D73
  8
0
 10
283.4569785393053962
 20
27.1608214706053595
 30
0.0
 40
0.0118
 50
270.0000000000097771
 51
340.1641077503584825
  0
ARC
  5
3D74
  8
0
 10
283.4081199452301121
 20
27.1490214706053408
 30
0.0
 40
0.0078740156999846
 50
269.999999999895806
 51
0.0000000000258515
  0
ARC
  5
3D75
  8
0
 10
288.7055937440781008
 20
29.5454985081918302
 30
0.0
 40
4.9478071624356872
 50
167.6039232928607134
 51
178.0807743079676015
  0
LINE
  5
3D76
  8
0
 10
283.7139027878610023
 20
28.3583232579895892
 30
0.0
 11
283.7605621312488893
 21
29.7112032599949885
 31
0.0
  0
ARC
  5
3D77
  8
0
 10
283.6745261998163983
 20
28.3596813132053391
 30
0.0
 40
0.0394
 50
270.0
 51
358.0247145198529211
  0
ARC
  5
3D78
  8
0
 10
284.4440448334673874
 20
31.717103882492431
 30
0.0
 40
0.2324838640740947
 50
142.9420029510044117
 51
180.3664072764393893
  0
ARC
  5
3D79
  8
0
 10
284.4082351510955959
 20
31.7463895161522203
 30
0.0
 40
0.1862672194415842
 50
101.897102773171099
 51
143.492908124163506
  0
ARC
  5
3D7A
  8
0
 10
284.405072207223327
 20
31.7614025228347998
 30
0.0
 40
0.1709246452250249
 50
64.7086127445244017
 51
101.897102773171099
  0
ARC
  5
3D7B
  8
0
 10
284.3931424628195259
 20
31.736155131321091
 30
0.0
 40
0.1988486417116446
 50
27.0105738081296884
 51
64.7086127445243164
  0
ARC
  5
3D7C
  8
0
 10
284.3437894495590967
 20
31.7109970414071007
 30
0.0
 40
0.2542440332709177
 50
8.4344356950177133
 51
27.0105738081302391
  0
ARC
  5
3D7D
  8
0
 10
284.1803162622518926
 20
31.7038066799956191
 30
0.0
 40
0.4173447264887635
 50
1.621634809729394
 51
6.1184336435337761
  0
ARC
  5
3D7E
  8
0
 10
284.2852054135246931
 20
31.7661498802859796
 30
0.0
 40
0.2205785018168309
 50
63.1176743681306718
 51
84.9927985925364453
  0
ARC
  5
3D7F
  8
0
 10
284.285680754701275
 20
31.7715752009073107
 30
0.0
 40
0.2151323974221003
 50
84.9927985925364453
 51
113.3547535198520961
  0
ARC
  5
3D80
  8
0
 10
284.2962383217040951
 20
31.7471251470868587
 30
0.0
 40
0.2417644711836779
 50
113.3547535198520961
 51
141.4598128783867992
  0
ARC
  5
3D81
  8
0
 10
284.3298410321173719
 20
31.7203578415299887
 30
0.0
 40
0.2847252765054246
 50
141.4598128783867992
 51
161.0556207567032914
  0
ARC
  5
3D82
  8
0
 10
284.3379004875719147
 20
31.7175914969936308
 30
0.0
 40
0.2932462790471673
 50
161.0556207567028935
 51
172.5164282561362086
  0
ARC
  5
3D83
  8
0
 10
284.3577633520195036
 20
31.7149822949957887
 30
0.0
 40
0.3132797839609495
 50
172.5164282561362086
 51
179.8838902560999031
  0
ARC
  5
3D84
  8
0
 10
284.0742107241057965
 20
31.744139058309031
 30
0.0
 40
0.1191211120266582
 50
85.5902458171943437
 51
114.5183439878523046
  0
ARC
  5
3D85
  8
0
 10
284.078764440437908
 20
31.7341553116343214
 30
0.0
 40
0.1300943307932052
 50
114.5183439878523046
 51
137.7398789542293969
  0
ARC
  5
3D86
  8
0
 10
284.0941361981195996
 20
31.7201876335183108
 30
0.0
 40
0.1508641879467043
 50
137.7398789542297948
 51
159.6054463881384891
  0
ARC
  5
3D87
  8
0
 10
284.1058610767094024
 20
31.7158284588974304
 30
0.0
 40
0.1633731919566983
 50
159.6054463881393986
 51
173.2529949655815926
  0
ARC
  5
3D88
  8
0
 10
284.107640423622513
 20
31.715617953624399
 30
0.0
 40
0.1651649474944076
 50
173.2529949655821895
 51
180.0002769718589946
  0
LINE
  5
3D89
  8
0
 10
283.9627632104313761
 20
31.7943573127053405
 30
0.0
 11
283.8734878916055777
 21
31.7943573127053405
 31
0.0
  0
LINE
  5
3D8A
  8
0
 10
284.4762299998535013
 20
31.9168110261198095
 30
0.0
 11
284.3849420984092831
 21
31.9628920190158006
 31
0.0
  0
ARC
  5
3D8B
  8
0
 10
284.4440448334673874
 20
31.7141304279182492
 30
0.0
 40
0.2324838640740947
 50
179.6335927235606107
 51
217.0579970489955031
  0
ARC
  5
3D8C
  8
0
 10
284.4082351510955959
 20
31.6848447942584599
 30
0.0
 40
0.1862672194415842
 50
216.5070918758364087
 51
258.1028972268288726
  0
ARC
  5
3D8D
  8
0
 10
284.405072207223327
 20
31.669831787575891
 30
0.0
 40
0.1709246452250249
 50
258.1028972268288726
 51
295.2913872554756267
  0
ARC
  5
3D8E
  8
0
 10
284.3931424628195259
 20
31.6950791790895892
 30
0.0
 40
0.1988486417116446
 50
295.2913872554756836
 51
332.9894261918701091
  0
ARC
  5
3D8F
  8
0
 10
284.3437894495590967
 20
31.7202372690035794
 30
0.0
 40
0.2542440332709177
 50
332.9894261918698248
 51
351.5655643049822743
  0
ARC
  5
3D90
  8
0
 10
284.1803162622518926
 20
31.7274276304150611
 30
0.0
 40
0.4173447264887635
 50
353.8815663564661236
 51
358.3783651902708129
  0
ARC
  5
3D91
  8
0
 10
284.2852054135246931
 20
31.6650844301247005
 30
0.0
 40
0.2205785018168309
 50
275.0072014074635263
 51
296.8823256318693211
  0
ARC
  5
3D92
  8
0
 10
284.285680754701275
 20
31.6596591095033695
 30
0.0
 40
0.2151323974221003
 50
246.6452464801479039
 51
275.0072014074635263
  0
ARC
  5
3D93
  8
0
 10
284.2962383217040951
 20
31.6841091633238285
 30
0.0
 40
0.2417644711836779
 50
218.5401871216132008
 51
246.6452464801479039
  0
ARC
  5
3D94
  8
0
 10
284.3298410321173719
 20
31.7108764688806914
 30
0.0
 40
0.2847252765054246
 50
198.944379243296595
 51
218.5401871216132008
  0
ARC
  5
3D95
  8
0
 10
284.3379004875719147
 20
31.71364281341706
 30
0.0
 40
0.2932462790471673
 50
187.4835717438635925
 51
198.9443792432969929
  0
ARC
  5
3D96
  8
0
 10
284.3577633520195036
 20
31.7162520154148915
 30
0.0
 40
0.3132797839609495
 50
180.1161097439000116
 51
187.4835717438635925
  0
ARC
  5
3D97
  8
0
 10
284.0742107241057965
 20
31.6870952521016491
 30
0.0
 40
0.1191211120266582
 50
245.4816560121475959
 51
274.4097541828056137
  0
ARC
  5
3D98
  8
0
 10
284.078764440437908
 20
31.6970789987763588
 30
0.0
 40
0.1300943307932052
 50
222.2601210457704894
 51
245.4816560121475959
  0
ARC
  5
3D99
  8
0
 10
284.0941361981195996
 20
31.7110466768923693
 30
0.0
 40
0.1508641879467043
 50
200.3945536118615109
 51
222.2601210457702052
  0
ARC
  5
3D9A
  8
0
 10
284.1058610767094024
 20
31.7154058515132498
 30
0.0
 40
0.1633731919566983
 50
186.7470050344182937
 51
200.3945536118604025
  0
ARC
  5
3D9B
  8
0
 10
284.107640423622513
 20
31.7156163567862812
 30
0.0
 40
0.1651649474944076
 50
179.9997230281408065
 51
186.7470050344174979
  0
LINE
  5
3D9C
  8
0
 10
283.9627632104313761
 20
31.6368769977053397
 30
0.0
 11
283.9400991518065211
 21
31.6368769977053397
 31
0.0
  0
LINE
  5
3D9D
  8
0
 10
284.4762299998535013
 20
31.5144232842908707
 30
0.0
 11
284.3849420984092831
 21
31.4683422913948796
 31
0.0
  0
ENDSEC
  0
EOF
