  0
SECTION
  2
HEADER
  9
$ACADVER
  1
AC1009
  9
$INSBASE
 10
265.4509741414540827
 20
26.1337547137696689
 30
0.0
  9
$EXTMIN
 10
264.5053695906124744
 20
26.1281374607006107
 30
-0.0015258207003583
  9
$EXTMAX
 10
266.3954772603229912
 20
30.6341169669472997
 30
0.0000000349246037
  9
$LIMMIN
 10
0.0
 20
0.0
  9
$LIMMAX
 10
11.6929133858000007
 20
8.2677165353999982
  9
$ORTHOMODE
 70
     0
  9
$REGENMODE
 70
     1
  9
$FILLMODE
 70
     1
  9
$QTEXTMODE
 70
     0
  9
$MIRRTEXT
 70
     0
  9
$DRAGMODE
 70
     2
  9
$LTSCALE
 40
0.6431102362
  9
$OSMODE
 70
  4095
  9
$ATTMODE
 70
     1
  9
$TEXTSIZE
 40
0.2
  9
$TRACEWID
 40
0.05
  9
$TEXTSTYLE
  7
STANDARD
  9
$CLAYER
  8
0
  9
$CELTYPE
  6
BYLAYER
  9
$CECOLOR
 62
   256
  9
$DIMSCALE
 40
1.0
  9
$DIMASZ
 40
0.1875
  9
$DIMEXO
 40
0.0625
  9
$DIMDLI
 40
0.4443307087
  9
$DIMRND
 40
0.0
  9
$DIMDLE
 40
0.0
  9
$DIMEXE
 40
0.125
  9
$DIMTP
 40
0.01
  9
$DIMTM
 40
0.01
  9
$DIMTXT
 40
1.0
  9
$DIMCEN
 40
0.1052362205
  9
$DIMTSZ
 40
0.0
  9
$DIMTOL
 70
     1
  9
$DIMLIM
 70
     0
  9
$DIMTIH
 70
     0
  9
$DIMTOH
 70
     1
  9
$DIMSE1
 70
     0
  9
$DIMSE2
 70
     0
  9
$DIMTAD
 70
     0
  9
$DIMZIN
 70
     0
  9
$DIMBLK
  1

  9
$DIMASO
 70
     1
  9
$DIMSHO
 70
     1
  9
$DIMPOST
  1
\X
  9
$DIMAPOST
  1

  9
$DIMALT
 70
     1
  9
$DIMALTD
 70
     2
  9
$DIMALTF
 40
25.3999999999999986
  9
$DIMLFAC
 40
1.0
  9
$DIMTOFL
 70
     0
  9
$DIMTVP
 40
0.0
  9
$DIMTIX
 70
     0
  9
$DIMSOXD
 70
     0
  9
$DIMSAH
 70
     0
  9
$DIMBLK1
  1

  9
$DIMBLK2
  1

  9
$DIMSTYLE
  2
STANDARD
  9
$DIMCLRD
 70
     0
  9
$DIMCLRE
 70
     0
  9
$DIMCLRT
 70
     0
  9
$DIMTFAC
 40
1.0
  9
$DIMGAP
 40
0.09
  9
$LUNITS
 70
     2
  9
$LUPREC
 70
     4
  9
$SKETCHINC
 40
0.1
  9
$FILLETRAD
 40
0.0
  9
$AUNITS
 70
     0
  9
$AUPREC
 70
     0
  9
$MENU
  1
.
  9
$ELEVATION
 40
0.0
  9
$PELEVATION
 40
0.0
  9
$THICKNESS
 40
0.0
  9
$LIMCHECK
 70
     0
  9
$BLIPMODE
 70
     0
  9
$CHAMFERA
 40
0.0
  9
$CHAMFERB
 40
0.0
  9
$SKPOLY
 70
     0
  9
$TDCREATE
 40
2458172.5207638889551163
  9
$TDUPDATE
 40
2459196.4589120368473232
  9
$TDINDWG
 40
0.1778698495
  9
$TDUSRTIMER
 40
0.1778698495
  9
$USRTIMER
 70
     1
  9
$ANGBASE
 50
0.0
  9
$ANGDIR
 70
     0
  9
$PDMODE
 70
     0
  9
$PDSIZE
 40
0.3125
  9
$PLINEWID
 40
0.0
  9
$COORDS
 70
     1
  9
$SPLFRAME
 70
     0
  9
$SPLINETYPE
 70
     6
  9
$SPLINESEGS
 70
     8
  9
$ATTDIA
 70
     1
  9
$ATTREQ
 70
     1
  9
$HANDLING
 70
     1
  9
$HANDSEED
  5
336D
  9
$SURFTAB1
 70
     6
  9
$SURFTAB2
 70
     6
  9
$SURFTYPE
 70
     6
  9
$SURFU
 70
     6
  9
$SURFV
 70
     6
  9
$UCSNAME
  2

  9
$UCSORG
 10
0.0
 20
0.0
 30
0.0
  9
$UCSXDIR
 10
1.0
 20
0.0
 30
0.0
  9
$UCSYDIR
 10
0.0
 20
1.0
 30
0.0
  9
$PUCSNAME
  2

  9
$PUCSORG
 10
0.0
 20
0.0
 30
0.0
  9
$PUCSXDIR
 10
1.0
 20
0.0
 30
0.0
  9
$PUCSYDIR
 10
0.0
 20
1.0
 30
0.0
  9
$USERI1
 70
     0
  9
$USERI2
 70
     0
  9
$USERI3
 70
     0
  9
$USERI4
 70
     0
  9
$USERI5
 70
     0
  9
$USERR1
 40
0.0
  9
$USERR2
 40
0.0
  9
$USERR3
 40
0.0
  9
$USERR4
 40
0.0
  9
$USERR5
 40
0.0
  9
$WORLDVIEW
 70
     1
  9
$SHADEDGE
 70
     3
  9
$SHADEDIF
 70
    70
  9
$TILEMODE
 70
     1
  9
$MAXACTVP
 70
    64
  9
$PLIMCHECK
 70
     0
  9
$PEXTMIN
 10
1.0000000000000000E+20
 20
1.0000000000000000E+20
 30
1.0000000000000000E+20
  9
$PEXTMAX
 10
-1.0000000000000000E+20
 20
-1.0000000000000000E+20
 30
-1.0000000000000000E+20
  9
$PLIMMIN
 10
0.0
 20
0.0
  9
$PLIMMAX
 10
12.0
 20
9.0
  9
$UNITMODE
 70
     0
  9
$VISRETAIN
 70
     1
  9
$PLINEGEN
 70
     0
  9
$PSLTSCALE
 70
     1
  0
ENDSEC
  0
SECTION
  2
TABLES
  0
TABLE
  2
VPORT
 70
     1
  0
VPORT
  2
*ACTIVE
 70
     0
 10
0.0
 20
0.0
 11
1.0
 21
1.0
 12
-0.0005500852744271
 22
0.0001025292816479
 13
0.0
 23
0.0
 14
1.0
 24
1.0
 15
0.0
 25
0.0
 16
0.0
 26
0.0
 36
20.2517823456322503
 17
265.4509735107421875
 27
28.3810246845423109
 37
0.0
 40
4.5633805190651184
 41
2.887234042553191
 42
50.0
 43
0.0
 44
0.0
 50
0.0
 51
0.0
 71
     0
 72
   100
 73
     1
 74
     1
 75
     0
 76
     0
 77
     0
 78
     0
  0
ENDTAB
  0
TABLE
  2
LTYPE
 70
     2
  0
LTYPE
  2
CONTINUOUS
 70
     0
  3
Solid line
 72
    65
 73
     0
 40
0.0
  0
LTYPE
  2
PHANTOM2
 70
     0
  3
___ _ _ ___ _ _ ___ _ _ ___ _ _
 72
    65
 73
     6
 40
1.25
 49
0.625
 49
-0.125
 49
0.125
 49
-0.125
 49
0.125
 49
-0.125
  0
ENDTAB
  0
TABLE
  2
LAYER
 70
     2
  0
LAYER
  2
0
 70
     0
 62
   255
  6
CONTINUOUS
  0
LAYER
  2
DEFPOINTS
 70
     0
 62
     7
  6
CONTINUOUS
  0
ENDTAB
  0
TABLE
  2
STYLE
 70
     1
  0
STYLE
  2
STANDARD
 70
     0
 40
0.0
 41
0.8
 50
0.0
 71
     0
 42
0.2
  3
txt
  4

  0
ENDTAB
  0
TABLE
  2
VIEW
 70
     0
  0
ENDTAB
  0
TABLE
  2
UCS
 70
     0
  0
ENDTAB
  0
TABLE
  2
APPID
 70
    10
  0
APPID
  2
ACAD
 70
     0
  0
APPID
  2
ACAD_MLEADERVER
 70
     0
  0
APPID
  2
ACAD_EXEMPT_FROM_CAD_STANDARDS
 70
     0
  0
APPID
  2
ACAD_DSTYLE_DIMJAG
 70
     0
  0
APPID
  2
ACAD_DSTYLE_DIMTALN
 70
     0
  0
APPID
  2
ACAD_NAV_VCDISPLAY
 70
     0
  0
APPID
  2
ACAECLAYERSTANDARD
 70
     0
  0
APPID
  2
ACCMTRANSPARENCY
 70
     0
  0
APPID
  2
DCO15
 70
     0
  0
APPID
  2
ACDBATTR
 70
     0
  0
ENDTAB
  0
TABLE
  2
DIMSTYLE
 70
     1
  0
DIMSTYLE
  2
STANDARD
 70
     0
  3

  4

  5

  6

  7

 40
1.0
 41
0.1875
 42
0.0625
 43
0.38
 44
0.125
 45
0.0
 46
0.0
 47
0.01
 48
0.01
140
0.15625
141
0.09
142
0.0
143
25.3999999999999986
144
1.0
145
0.0
146
1.0
147
0.09
 71
     1
 72
     0
 73
     1
 74
     1
 75
     0
 76
     0
 77
     0
 78
     4
170
     0
171
     2
172
     0
173
     0
174
     0
175
     0
176
     0
177
     0
178
     0
  0
ENDTAB
  0
ENDSEC
  0
SECTION
  2
BLOCKS
  0
BLOCK
  8
0
  2
$MODEL_SPACE
 70
     0
 10
0.0
 20
0.0
 30
0.0
  3
$MODEL_SPACE
  1

  0
ENDBLK
  5
21
  8
0
  0
BLOCK
 67
     1
  8
0
  2
$PAPER_SPACE
 70
     0
 10
0.0
 20
0.0
 30
0.0
  3
$PAPER_SPACE
  1

  0
ENDBLK
  5
1D
 67
     1
  8
0
  0
BLOCK
  8
0
  2
_FILLED
 70
     0
 10
0.0
 20
0.0
 30
0.0
  3
_FILLED
  1

  0
SOLID
  5
2836
  8
0
  6
BYBLOCK
 62
     0
 10
0.0
 20
0.0
 30
0.0
 11
-1.0
 21
0.1666666667
 31
0.0
 12
-1.0
 22
-0.1666666667
 32
0.0
 13
-1.0
 23
-0.1666666667
 33
0.0
  0
ENDBLK
  5
2837
  8
0
  6
BYBLOCK
 62
     0
  0
ENDSEC
  0
SECTION
  2
ENTITIES
  0
ATTDEF
  5
829
  8
DEFPOINTS
 10
265.4512984286607207
 20
26.1322001767831793
 30
0.0
 40
0.001
  1
K-16027BR-4ND
  3

  2
MODELNUMBER
 70
     0
1001
ACDBATTR
1070
     0
1070
     1
  0
ATTDEF
  5
82A
  8
DEFPOINTS
 10
265.4512984286607207
 20
26.1305335101165106
 30
0.0
 40
0.001
  1
JULY
  3

  2
TRADENAME
 70
     0
1001
ACDBATTR
1070
     0
1070
     1
  0
ATTDEF
  5
82B
  8
DEFPOINTS
 10
265.4512984286607207
 20
26.1288668434498383
 30
0.0
 40
0.001
  1
BATHROOM SINK FAUCET
  3

  2
PRODUCT
 70
     0
1001
ACDBATTR
1070
     0
1070
     1
  0
LINE
  5
2C6A
  8
0
 10
264.5146011395041228
 20
26.1337547137696689
 30
0.0
 11
266.3873471434042131
 21
26.1337547137696689
 31
0.0
  0
LINE
  5
2C6B
  8
0
 10
265.6395493145041087
 20
28.2219097664067391
 30
0.0
 11
265.2643976984040819
 21
28.2219097664067391
 31
0.0
  0
LINE
  5
2C6C
  8
0
 10
264.5567748053040873
 20
29.1994493515696689
 30
0.0
 11
266.3451734776035096
 21
29.1994493515696689
 31
0.0
  0
CIRCLE
  5
2C6D
  8
0
 10
265.4510075856042022
 20
29.8214965956696716
 30
0.0
 40
0.1377952756
  0
LINE
  5
2C6E
  8
0
 10
264.5492659040041872
 20
30.5784038505469304
 30
0.0
 11
266.3526823789040918
 21
30.5784038505469304
 31
0.0
  0
LINE
  5
2C6F
  8
0
 10
266.3873471434042131
 20
30.5393356198696715
 30
0.0
 11
266.3873471434042131
 21
29.2397108905696683
 31
0.0
  0
LINE
  5
2C70
  8
0
 10
266.3873471434042131
 20
29.0572347432696709
 30
0.0
 11
266.3873471434042131
 21
26.1337547137696689
 31
0.0
  0
LINE
  5
2C71
  8
0
 10
265.9244394273040939
 20
28.2344161241696803
 30
0.0
 11
265.9242975717643844
 21
27.9799623434699285
 31
0.0
  0
LINE
  5
2C72
  8
0
 10
265.6395493145041087
 20
28.2219097664067391
 30
0.0
 11
265.6395493144881925
 21
28.1036865012360586
 31
0.0
  0
LINE
  5
2C73
  8
0
 10
266.3479829828041261
 20
29.0962762488696711
 30
0.0
 11
266.2172544044951223
 21
29.096275642969669
 31
0.0
  0
ARC
  5
2C74
  8
0
 10
265.448739663001902
 20
23.1474653463204696
 30
0.0
 40
7.4857170322707187
 50
83.0642840251477281
 51
89.9828972714202848
  0
ARC
  5
2C75
  8
0
 10
266.1202177396658044
 20
29.0604604368375412
 30
0.0
 40
0.0392335755704503
 50
0.1633318830727298
 51
84.1598541343839344
  0
ARC
  5
2C76
  8
0
 10
266.093774670195728
 20
30.53874543260401
 30
0.0
 40
0.0399211905804174
 50
345.625572614876603
 51
83.4224453262830536
  0
ARC
  5
2C77
  8
0
 10
265.3958225922041265
 20
29.0963706584696702
 30
0.0
 40
0.8661417323
 50
359.9937216311000157
 51
6.835672880900141
  0
CIRCLE
  5
2C78
  8
0
 10
265.4509406973040768
 20
29.8214965956696716
 30
0.0
 40
0.1377952756
  0
ARC
  5
2C79
  8
0
 10
266.3480875861566801
 20
29.0570162228306401
 30
0.0
 40
0.0392601653899526
 50
0.3189075597772187
 51
90.1526569655759147
  0
ARC
  5
2C7A
  8
0
 10
266.1949458570343268
 20
29.7987040479293483
 30
0.0
 40
0.7027825662208845
 50
264.223324352568909
 51
271.8190553259930198
  0
ARC
  5
2C7B
  8
0
 10
265.2329716542254801
 20
18.1825143590540392
 30
0.0
 40
10.9532949818166898
 50
85.3328469679131842
 51
86.2929253855889158
  0
ARC
  5
2C7C
  8
0
 10
265.4367309158990906
 20
23.8324885132157789
 30
0.0
 40
5.3044418408037277
 50
84.5431484592473623
 51
87.898923006423189
  0
ARC
  5
2C7D
  8
0
 10
265.4135528670053077
 20
22.0541265213225088
 30
0.0
 40
7.0825827633133942
 50
88.2389883110236042
 51
89.6972727128782452
  0
ARC
  5
2C7E
  8
0
 10
265.7574153525092129
 20
27.9902268309929987
 30
0.0
 40
0.0624212857206693
 50
301.0365053929660917
 51
1.1912763262122561
  0
ARC
  5
2C7F
  8
0
 10
265.5984485883059847
 20
28.2436317147787292
 30
0.0
 40
0.3615519173296741
 50
279.1906417714022268
 51
301.9172294790507749
  0
ARC
  5
2C80
  8
0
 10
265.4789452126228184
 20
28.7771015196267612
 30
0.0
 40
0.9078516985629024
 50
275.0613893246626844
 51
281.2588383932438774
  0
ARC
  5
2C81
  8
0
 10
265.4536609388208035
 20
29.0395106277134083
 30
0.0
 40
1.1714700300938079
 50
269.8685905054999807
 51
275.1609270951605026
  0
ARC
  5
2C82
  8
0
 10
265.7920243599353967
 20
27.9428624347937813
 30
0.0
 40
0.0560426363069942
 50
0.0142347844637407
 51
60.2623571415592281
  0
ARC
  5
2C83
  8
0
 10
265.7666198009725917
 20
27.9721014594894193
 30
0.0
 40
0.0865317969215772
 50
292.9615123840104047
 51
340.2608616681167746
  0
ARC
  5
2C84
  8
0
 10
265.5931353145949174
 20
28.3177946795494115
 30
0.0
 40
0.4731677908460462
 50
279.6612610098966911
 51
295.9755543993334186
  0
ARC
  5
2C85
  8
0
 10
265.4726611555062732
 20
28.9027410642111491
 30
0.0
 40
1.070234534815619
 50
273.3709499731805863
 51
280.7640635039554127
  0
ARC
  5
2C86
  8
0
 10
265.4531437171124253
 20
29.1586769067340406
 30
0.0
 40
1.3268825897149199
 50
269.9063160637539909
 51
273.5624387919248761
  0
ARC
  5
2C87
  8
0
 10
265.6680994447891067
 20
27.9173566526348402
 30
0.0
 40
0.1190920135780531
 50
38.7803926289568679
 51
75.7247643169301909
  0
ARC
  5
2C88
  8
0
 10
265.4848659971301004
 20
27.2998042198421587
 30
0.0
 40
0.7631770979018532
 50
73.8250508074433753
 51
83.7735997769140965
  0
ARC
  5
2C89
  8
0
 10
265.4534968841218188
 20
27.0654122496150684
 30
0.0
 40
0.9996052353627991
 50
83.4432994101584029
 51
87.8828495136071268
  0
ARC
  5
2C8A
  8
0
 10
265.4509723511604875
 20
27.0138093216027109
 30
0.0
 40
1.051266382356395
 50
87.8492518974842227
 51
89.9999024260002045
  0
ARC
  5
2C8B
  8
0
 10
265.4590196311036721
 20
28.876701584742559
 30
0.0
 40
1.005973627387726
 50
269.5417598405556987
 51
281.316882627179325
  0
ARC
  5
2C8C
  8
0
 10
265.5945635718401832
 20
28.2197021867544606
 30
0.0
 40
0.3351735292632925
 50
280.6361326119272803
 51
303.9039474346067777
  0
ARC
  5
2C8D
  8
0
 10
265.7619535647609723
 20
27.9711128684491293
 30
0.0
 40
0.035481366573584
 50
303.4750062165488771
 51
42.8202151320174096
  0
ARC
  5
2C8E
  8
0
 10
265.6916373835175023
 20
27.9053987102579306
 30
0.0
 40
0.1317241396173685
 50
42.9971457203745402
 51
67.6331590758400409
  0
ARC
  5
2C8F
  8
0
 10
265.6954885039099281
 20
28.0169352796258195
 30
0.0
 40
0.0950031180468599
 50
291.973043932503515
 51
346.7927665846236778
  0
ARC
  5
2C90
  8
0
 10
265.5444606038386155
 20
28.3538711508295194
 30
0.0
 40
0.4641848691187506
 50
277.7364406974260191
 51
293.6996188755812796
  0
ARC
  5
2C91
  8
0
 10
265.4559179197603953
 20
28.8842197666301317
 30
0.0
 40
1.001758759966296
 50
269.717238527948723
 51
278.6712294033608259
  0
ARC
  5
2C92
  8
0
 10
265.457061305853415
 20
28.8247252745446296
 30
0.0
 40
0.9388045063919676
 50
269.6284942490647154
 51
279.950552807840495
  0
ARC
  5
2C93
  8
0
 10
265.5655848248180178
 20
28.2564305937558409
 30
0.0
 40
0.3604106689155561
 50
278.5688232358182859
 51
299.1109978335192068
  0
ARC
  5
2C94
  8
0
 10
265.7161316895201821
 20
27.9805656157058493
 30
0.0
 40
0.0462294770162618
 50
302.4338369073469153
 51
14.2541461192500893
  0
ARC
  5
2C95
  8
0
 10
265.8013671131981255
 20
27.9983761565873586
 30
0.0
 40
0.1243019153386362
 50
286.6226712158601231
 51
351.4809748731270815
  0
ARC
  5
2C96
  8
0
 10
265.5942969280484931
 20
28.4456827374709711
 30
0.0
 40
0.6161927036794431
 50
280.0231864381249807
 51
293.1883462408463856
  0
ARC
  5
2C97
  8
0
 10
265.4509741414540827
 20
29.5634104917036815
 30
0.0
 40
1.742624302534002
 50
261.73287791370592
 51
278.26712208629408
  0
ARC
  5
2C98
  8
0
 10
265.4575511198850108
 20
26.8035971372512805
 30
0.0
 40
1.4299419767481809
 50
82.6877526820998554
 51
90.2633939511915742
  0
ARC
  5
2C99
  8
0
 10
265.6121766114260936
 20
28.1120688557586007
 30
0.0
 40
0.0286274123920782
 50
281.2243679709782214
 51
342.9738180064369999
  0
ARC
  5
2C9A
  8
0
 10
265.5486556778351996
 20
28.3379218566615911
 30
0.0
 40
0.2631649149262963
 50
267.4957308369029079
 51
285.2212785294394166
  0
ARC
  5
2C9B
  8
0
 10
265.9236453684322896
 20
28.2278878966003504
 30
0.0
 40
0.0065763428050029
 50
275.9975115031106725
 51
83.064913811796913
  0
ARC
  5
2C9C
  8
0
 10
265.7887242939723933
 20
27.7456112483567701
 30
0.0
 40
0.5072955785670876
 50
74.4828535593323977
 51
90.4987089724447173
  0
ARC
  5
2C9D
  8
0
 10
265.5321322969248854
 20
20.44539069510882
 30
0.0
 40
7.811568412607115
 50
88.1500309714882775
 51
89.4337327674477365
  0
ARC
  5
2C9E
  8
0
 10
265.4356548231143051
 20
17.4340524130957313
 30
0.0
 40
10.8239187028668198
 50
89.0805970899814241
 51
89.9189080588089524
  0
ARC
  5
2C9F
  8
0
 10
256.5038730205056936
 20
28.969170542429481
 30
0.0
 40
9.6560107396724852
 50
357.987994562064614
 51
0.5423577186344295
  0
ARC
  5
2CA0
  8
0
 10
265.3767581356937058
 20
28.6206245257651197
 30
0.0
 40
0.7772310989163939
 50
337.4872279867811926
 51
0.7028488197034072
  0
ARC
  5
2CA1
  8
0
 10
265.8556431996053107
 20
28.4604416635269395
 30
0.0
 40
0.2757868751443087
 50
284.4403146381562806
 51
330.1157472306410909
  0
ARC
  5
2CA2
  8
0
 10
266.3479481578455079
 20
30.53929030727544
 30
0.0
 40
0.0393990116155503
 50
0.0658955865703788
 51
83.0986108043394154
  0
ARC
  5
2CA3
  8
0
 10
266.3446686914425072
 20
29.2421971831344685
 30
0.0
 40
0.0427508118351103
 50
270.6765436134393212
 51
356.6659230233663038
  0
ARC
  5
2CA4
  8
0
 10
265.9851849255284719
 20
30.5725021396785408
 30
0.0
 40
0.1535991418874685
 50
287.0501908241334945
 51
343.4832972467531818
  0
ARC
  5
2CA5
  8
0
 10
265.7778648157056978
 20
31.2090676433214398
 30
0.0
 40
0.8230558795565602
 50
272.2887982788307113
 51
287.8550256575301773
  0
ARC
  5
2CA6
  8
0
 10
265.4120097571201882
 20
37.6150433774178268
 30
0.0
 40
7.2393636958465191
 50
270.3083842235978977
 51
273.1572974731548129
  0
ARC
  5
2CA7
  8
0
 10
273.8014063822059256
 20
106.6151605616755944
 30
0.0
 40
76.4259477293406633
 50
263.9866435755466796
 51
264.2152700370382945
  0
ARC
  5
2CA8
  8
0
 10
265.4205510987652019
 20
27.0838872039014795
 30
0.0
 40
3.5456870779744891
 50
83.9378454002175971
 51
89.5083792515232659
  0
ARC
  5
2CA9
  8
0
 10
265.8020722670910914
 20
27.9260412258438997
 30
0.0
 40
0.1335908381159926
 50
23.8052329203898303
 51
64.2046680577702347
  0
ARC
  5
2CAA
  8
0
 10
265.6299230139994734
 20
27.5557778082393803
 30
0.0
 40
0.5419057986287448
 50
64.8525630535725526
 51
78.3188074633154798
  0
ARC
  5
2CAB
  8
0
 10
265.5807243226396963
 20
27.4624893818025306
 30
0.0
 40
0.6438898397092589
 50
75.7113905478812228
 51
84.7582183279462242
  0
LINE
  5
2CAC
  8
0
 10
265.4509741414540827
 20
28.0597183106694814
 30
0.0
 11
265.4668800315668022
 21
28.0597183149833391
 31
0.0
  0
ARC
  5
2CAD
  8
0
 10
265.4668800310864754
 20
28.0614891402020703
 30
0.0
 40
0.0017708252187321
 50
270.0000155392575039
 51
308.8238860937336199
  0
ARC
  5
2CAE
  8
0
 10
265.4680522156618281
 20
28.0666986683250101
 30
0.0
 40
0.0065894284592988
 50
269.4608650237266261
 51
303.2206177925261272
  0
LINE
  5
2CAF
  8
0
 10
265.471662328247703
 20
28.0611861684803507
 30
0.0
 11
265.4769376835050139
 21
28.0647549948841295
 31
0.0
  0
ARC
  5
2CB0
  8
0
 10
265.4737796981083875
 20
28.06651069307458
 30
0.0
 40
0.0086309336668483
 50
190.2271851094807005
 51
227.8724528738885056
  0
LINE
  5
2CB1
  8
0
 10
265.4509741414540827
 20
28.0434877870694805
 30
0.0
 11
265.4651489259687196
 21
28.04348779091384
 31
0.0
  0
LINE
  5
2CB2
  8
0
 10
265.4651489259687196
 20
28.04348779091384
 30
0.0
 11
265.4651481328194791
 21
28.0597190049302014
 31
0.0
  0
ARC
  5
2CB3
  8
0
 10
265.4680522219198906
 20
28.0436239954250084
 30
0.0
 40
0.0065894284592988
 50
269.4608650237266261
 51
303.2206177925261272
  0
LINE
  5
2CB4
  8
0
 10
265.4716623345058224
 20
28.038111495580349
 30
0.0
 11
265.4865468153478218
 21
28.0481809839171916
 31
0.0
  0
LINE
  5
2CB5
  8
0
 10
265.4651489259687196
 20
28.04348779091384
 30
0.0
 11
265.4778064276238752
 21
28.052053964832151
 31
0.0
  0
LINE
  5
2CB6
  8
0
 10
265.4667548266169206
 20
28.05953331014938
 30
0.0
 11
265.4813663774468182
 21
28.0496471644648189
 31
0.0
  0
ARC
  5
2CB7
  8
0
 10
265.4848799270861264
 20
28.0548401295279106
 30
0.0
 40
0.0062699216274807
 50
235.9177977511234872
 51
271.4442841987806787
  0
ARC
  5
2CB8
  8
0
 10
265.48647745020412
 20
28.0510187672476086
 30
0.0
 40
0.0028386309646651
 50
239.5286547937272132
 51
271.4002262575990017
  0
LINE
  5
2CB9
  8
0
 10
265.4760958930260131
 20
28.0629997051447297
 30
0.0
 11
265.4878792484395831
 21
28.0550251335785603
 31
0.0
  0
LINE
  5
2CBA
  8
0
 10
265.4878792458894736
 20
28.0644276575335816
 30
0.0
 11
265.4878792484395831
 21
28.0550251335785603
 31
0.0
  0
ARC
  5
2CBB
  8
0
 10
265.4791308868253736
 20
28.0550251312059089
 30
0.0
 40
0.0087483616141757
 50
312.4712716214020247
 51
0.0000155392536148
  0
ARC
  5
2CBC
  8
0
 10
265.4737797043665068
 20
28.0434360201745783
 30
0.0
 40
0.0086309336668483
 50
179.6563219271673972
 51
227.8724528738885056
  0
LINE
  5
2CBD
  8
0
 10
265.4679902183337958
 20
28.0370348587420004
 30
0.0
 11
265.4509741414540827
 21
28.0370348541270502
 31
0.0
  0
LINE
  5
2CBE
  8
0
 10
265.4509741414540827
 20
27.9973384411694788
 30
0.0
 11
265.4651489384348793
 21
27.9973384450138383
 31
0.0
  0
LINE
  5
2CBF
  8
0
 10
265.4651489384348793
 20
27.9973384450138383
 30
0.0
 11
265.4651481452856956
 21
28.0135696590301997
 31
0.0
  0
ARC
  5
2CC0
  8
0
 10
265.4680522343862208
 20
27.9974746495250102
 30
0.0
 40
0.0065894284592988
 50
269.4608650237266261
 51
303.2206177925261272
  0
LINE
  5
2CC1
  8
0
 10
265.4716623469719821
 20
27.9919621496803508
 30
0.0
 11
265.4865468278139815
 21
28.0020316380171899
 31
0.0
  0
LINE
  5
2CC2
  8
0
 10
265.4651489384348793
 20
27.9973384450138383
 30
0.0
 11
265.4778064400900917
 21
28.0059046189321492
 31
0.0
  0
LINE
  5
2CC3
  8
0
 10
265.4664814051785129
 20
28.0135689690752301
 30
0.0
 11
265.4813663899129779
 21
28.0034978185648207
 31
0.0
  0
ARC
  5
2CC4
  8
0
 10
265.484879939552286
 20
28.0086907836279195
 30
0.0
 40
0.0062699216274807
 50
235.9177977511234872
 51
271.4442841987806787
  0
ARC
  5
2CC5
  8
0
 10
265.4864774626703934
 20
28.0048694213476104
 30
0.0
 40
0.0028386309646651
 50
239.5286547937272132
 51
271.4002262575990017
  0
LINE
  5
2CC6
  8
0
 10
265.4741783449543959
 20
28.0181480985731817
 30
0.0
 11
265.4878792609057996
 21
28.0088757876785586
 31
0.0
  0
LINE
  5
2CC7
  8
0
 10
265.4878792565039021
 20
28.0251063112785594
 30
0.0
 11
265.4878792609057996
 21
28.0088757876785586
 31
0.0
  0
ARC
  5
2CC8
  8
0
 10
265.4791308992915901
 20
28.0088757853059107
 30
0.0
 40
0.0087483616141757
 50
312.4712716214020247
 51
0.0000155392536148
  0
ARC
  5
2CC9
  8
0
 10
265.4737797168327234
 20
27.9972866742745907
 30
0.0
 40
0.0086309336668483
 50
179.6563219271673972
 51
227.8724528738885056
  0
LINE
  5
2CCA
  8
0
 10
265.4679902308000123
 20
27.9908855128419987
 30
0.0
 11
265.4509741414540827
 21
27.9908855082270485
 31
0.0
  0
LINE
  5
2CCB
  8
0
 10
265.4509741414540827
 20
27.9742637682694806
 30
0.0
 11
265.4651489446929986
 21
27.9742637721138401
 31
0.0
  0
LINE
  5
2CCC
  8
0
 10
265.4651489446929986
 20
27.9742637721138401
 30
0.0
 11
265.4651481515438718
 21
27.9904949861301908
 31
0.0
  0
ARC
  5
2CCD
  8
0
 10
265.4680522406442833
 20
27.9743999766250191
 30
0.0
 40
0.0065894284592988
 50
269.4608650237266261
 51
303.2206177925261272
  0
LINE
  5
2CCE
  8
0
 10
265.4716623532301014
 20
27.968887476780349
 30
0.0
 11
265.4865468340722146
 21
27.9789569651171917
 31
0.0
  0
LINE
  5
2CCF
  8
0
 10
265.4651489446929986
 20
27.9742637721138401
 30
0.0
 11
265.4778064463483247
 21
27.982829946032151
 31
0.0
  0
LINE
  5
2CD0
  8
0
 10
265.4659032008656254
 20
27.9908855122759803
 30
0.0
 11
265.4813663961710972
 21
27.9804231456648296
 31
0.0
  0
ARC
  5
2CD1
  8
0
 10
265.4848799458104054
 20
27.9856161107279213
 30
0.0
 40
0.0062699216274807
 50
235.9177977511234872
 51
271.4442841987806787
  0
ARC
  5
2CD2
  8
0
 10
265.4864774689285127
 20
27.9817947484476086
 30
0.0
 40
0.0028386309646651
 50
239.5286547937272132
 51
271.4002262575990017
  0
LINE
  5
2CD3
  8
0
 10
265.475221760906777
 20
27.9943672817109999
 30
0.0
 11
265.4878792671639189
 21
27.985801114778571
 31
0.0
  0
LINE
  5
2CD4
  8
0
 10
265.4878792627620783
 20
28.0020316383785612
 30
0.0
 11
265.4878792671639758
 21
27.985801114778571
 31
0.0
  0
ARC
  5
2CD5
  8
0
 10
265.4791309055497095
 20
27.985801112405909
 30
0.0
 40
0.0087483616141757
 50
312.4712716214020247
 51
0.0000155392536148
  0
ARC
  5
2CD6
  8
0
 10
265.4737797230907859
 20
27.9742120013745783
 30
0.0
 40
0.0086309336668483
 50
179.6563219271673972
 51
227.8724528738885056
  0
LINE
  5
2CD7
  8
0
 10
265.4679902370580749
 20
27.9678108399420005
 30
0.0
 11
265.4509741414540827
 21
27.9678108353270503
 31
0.0
  0
LINE
  5
2CD8
  8
0
 10
265.4509741414540827
 20
27.9511890952694806
 30
0.0
 11
265.465148950951118
 21
27.9511890991138401
 31
0.0
  0
LINE
  5
2CD9
  8
0
 10
265.465148950951118
 20
27.9511890991138401
 30
0.0
 11
265.4651481578019911
 21
27.9674203131302015
 31
0.0
  0
ARC
  5
2CDA
  8
0
 10
265.468052246902289
 20
27.9513253036250191
 30
0.0
 40
0.0065894284592988
 50
269.4608650237266261
 51
303.2206177925261272
  0
LINE
  5
2CDB
  8
0
 10
265.4716623594882776
 20
27.945812803780349
 30
0.0
 11
265.4865468403302202
 21
27.9558822921171917
 31
0.0
  0
LINE
  5
2CDC
  8
0
 10
265.465148950951118
 20
27.9511890991138401
 30
0.0
 11
265.4778064526063872
 21
27.959755273032151
 31
0.0
  0
LINE
  5
2CDD
  8
0
 10
265.465903206975895
 20
27.9678108393759715
 30
0.0
 11
265.4813664024292166
 21
27.9573484726648296
 31
0.0
  0
ARC
  5
2CDE
  8
0
 10
265.4848799520685247
 20
27.9625414377279213
 30
0.0
 40
0.0062699216274807
 50
235.9177977511234872
 51
271.4442841987806787
  0
ARC
  5
2CDF
  8
0
 10
265.4864774751865752
 20
27.9587200754476086
 30
0.0
 40
0.0028386309646651
 50
239.5286547937272132
 51
271.4002262575990017
  0
LINE
  5
2CE0
  8
0
 10
265.475221767146877
 20
27.9712926087231715
 30
0.0
 11
265.4878792734220951
 21
27.9627264417785604
 31
0.0
  0
LINE
  5
2CE1
  8
0
 10
265.4878792690200839
 20
27.9789569653785613
 30
0.0
 11
265.4878792734220951
 21
27.9627264417785604
 31
0.0
  0
ARC
  5
2CE2
  8
0
 10
265.4791309118078857
 20
27.962726439405909
 30
0.0
 40
0.0087483616141757
 50
312.4712716214020247
 51
0.0000155392536148
  0
ARC
  5
2CE3
  8
0
 10
265.4737797293489052
 20
27.951137328374589
 30
0.0
 40
0.0086309336668483
 50
179.6563219271673972
 51
227.8724528738885056
  0
LINE
  5
2CE4
  8
0
 10
265.4679902433160805
 20
27.9447361669420005
 30
0.0
 11
265.4509741414540827
 21
27.9447361623270396
 31
0.0
  0
LINE
  5
2CE5
  8
0
 10
265.4509741414540827
 20
27.9281144223694788
 30
0.0
 11
265.4651489572592027
 21
27.928114426213849
 31
0.0
  0
LINE
  5
2CE6
  8
0
 10
265.4651489572592027
 20
27.928114426213849
 30
0.0
 11
265.4651481450267738
 21
27.9447361661712002
 31
0.0
  0
ARC
  5
2CE7
  8
0
 10
265.4680522532104874
 20
27.9282506307250209
 30
0.0
 40
0.0065894284592988
 50
269.4608650237266261
 51
303.2206177925261272
  0
LINE
  5
2CE8
  8
0
 10
265.4716623657964192
 20
27.9227381308803615
 30
0.0
 11
265.4865468466383049
 21
27.9328076192172006
 31
0.0
  0
LINE
  5
2CE9
  8
0
 10
265.4651489572592027
 20
27.928114426213849
 30
0.0
 11
265.4778064589144719
 21
27.9366806001321493
 31
0.0
  0
LINE
  5
2CEA
  8
0
 10
265.4659032134317727
 20
27.9447361663759786
 30
0.0
 11
265.4813664087373013
 21
27.9342737997648314
 31
0.0
  0
ARC
  5
2CEB
  8
0
 10
265.4848799583767232
 20
27.9394667648279196
 30
0.0
 40
0.0062699216274807
 50
235.9177977511234872
 51
271.4442841987806787
  0
ARC
  5
2CEC
  8
0
 10
265.4864774814947168
 20
27.9356454025476211
 30
0.0
 40
0.0028386309646651
 50
239.5286547937272132
 51
271.4002262575990017
  0
LINE
  5
2CED
  8
0
 10
265.4752217733980046
 20
27.9482179358617593
 30
0.0
 11
265.4878792797301799
 21
27.9396517688785693
 31
0.0
  0
LINE
  5
2CEE
  8
0
 10
265.4878792753282823
 20
27.9558822924785702
 30
0.0
 11
265.4878792797301799
 21
27.9396517688785693
 31
0.0
  0
ARC
  5
2CEF
  8
0
 10
265.4791309181160273
 20
27.9396517665059108
 30
0.0
 40
0.0087483616141757
 50
312.4712716214020247
 51
0.0000155392536148
  0
ARC
  5
2CF0
  8
0
 10
265.4737797356569899
 20
27.9280626554745801
 30
0.0
 40
0.0086309336668483
 50
179.6563219271673972
 51
227.8724528738885056
  0
LINE
  5
2CF1
  8
0
 10
265.4679902496242789
 20
27.9216614940419987
 30
0.0
 11
265.4509741414540827
 21
27.9216614894270485
 31
0.0
  0
LINE
  5
2CF2
  8
0
 10
265.4878792484896053
 20
28.055025133574329
 30
0.0
 11
265.5162921553396131
 21
28.0550251412802183
 31
0.0
  0
LINE
  5
2CF3
  8
0
 10
265.5162921553396131
 20
28.0550251412802183
 30
0.0
 11
265.516292153165125
 21
28.063043133635059
 31
0.0
  0
LINE
  5
2CF4
  8
0
 10
265.4865468153977872
 20
28.0481809839129603
 30
0.0
 11
265.5180232671958152
 21
28.048180992549721
 31
0.0
  0
ARC
  5
2CF5
  8
0
 10
265.5179086461957922
 20
28.0502768102545517
 30
0.0
 40
0.0020990007642493
 50
273.1640635927436733
 51
305.6982570200170812
  0
ARC
  5
2CF6
  8
0
 10
265.5248079671125083
 20
28.0549227495532101
 30
0.0
 40
0.0085164273153424
 50
179.3111248481733924
 51
228.2176499527130034
  0
LINE
  5
2CF7
  8
0
 10
265.4878792546977024
 20
28.031950460574329
 30
0.0
 11
265.5162921615477103
 21
28.031950468280229
 31
0.0
  0
LINE
  5
2CF8
  8
0
 10
265.5162921615477103
 20
28.031950468280229
 30
0.0
 11
265.5162921571458128
 21
28.0481809919802316
 31
0.0
  0
LINE
  5
2CF9
  8
0
 10
265.4865468216058844
 20
28.0251063109129603
 30
0.0
 11
265.5180232734039123
 21
28.025106319549721
 31
0.0
  0
ARC
  5
2CFA
  8
0
 10
265.5179086524038894
 20
28.0272021372545588
 30
0.0
 40
0.0020990007642493
 50
273.1640635927436733
 51
305.6982570200170812
  0
ARC
  5
2CFB
  8
0
 10
265.5248079733206055
 20
28.0318480765532101
 30
0.0
 40
0.0085164273153424
 50
179.3111248481733924
 51
228.2176499527130034
  0
LINE
  5
2CFC
  8
0
 10
265.4878792609558218
 20
28.0088757876743308
 30
0.0
 11
265.5162921678058865
 21
28.0088757953802308
 31
0.0
  0
LINE
  5
2CFD
  8
0
 10
265.5162921678058865
 20
28.0088757953802308
 30
0.0
 11
265.5162921634038753
 21
28.0251063190802192
 31
0.0
  0
LINE
  5
2CFE
  8
0
 10
265.4865468278640037
 20
28.0020316380129586
 30
0.0
 11
265.5180232796619748
 21
28.0020316466497192
 31
0.0
  0
ARC
  5
2CFF
  8
0
 10
265.5179086586620087
 20
28.0041274643545606
 30
0.0
 40
0.0020990007642493
 50
273.1640635927436733
 51
305.6982570200170812
  0
ARC
  5
2D00
  8
0
 10
265.5248079795787817
 20
28.0087734036532083
 30
0.0
 40
0.0085164273153424
 50
179.3111248481733924
 51
228.2176499527130034
  0
LINE
  5
2D01
  8
0
 10
265.4878792672640202
 20
27.9858011146743308
 30
0.0
 11
265.5162921741140281
 21
27.9858011223802308
 31
0.0
  0
LINE
  5
2D02
  8
0
 10
265.5162921741140281
 20
27.9858011223802308
 30
0.0
 11
265.5162921697120737
 21
28.0020316460802299
 31
0.0
  0
LINE
  5
2D03
  8
0
 10
265.4865468341720884
 20
27.9789569650129586
 30
0.0
 11
265.5180232859701732
 21
27.9789569736497299
 31
0.0
  0
ARC
  5
2D04
  8
0
 10
265.5179086649700935
 20
27.9810527913545606
 30
0.0
 40
0.0020990007642493
 50
273.1640635927436733
 51
305.6982570200170812
  0
ARC
  5
2D05
  8
0
 10
265.5248079858869232
 20
27.9856987306532083
 30
0.0
 40
0.0085164273153424
 50
179.3111248481733924
 51
228.2176499527130034
  0
LINE
  5
2D06
  8
0
 10
265.4878792735220827
 20
27.9627264417743291
 30
0.0
 11
265.5162921803719769
 21
27.962726449480229
 31
0.0
  0
LINE
  5
2D07
  8
0
 10
265.5162921803719769
 20
27.962726449480229
 30
0.0
 11
265.5162921759700794
 21
27.9789569731802317
 31
0.0
  0
LINE
  5
2D08
  8
0
 10
265.4865468404302078
 20
27.9558822921129604
 30
0.0
 11
265.5180232922282926
 21
27.9558823007497317
 31
0.0
  0
ARC
  5
2D09
  8
0
 10
265.5179086712282128
 20
27.9579781184545588
 30
0.0
 40
0.0020990007642493
 50
273.1640635927436733
 51
305.6982570200170812
  0
ARC
  5
2D0A
  8
0
 10
265.5248079921449857
 20
27.9626240577532101
 30
0.0
 40
0.0085164273153424
 50
179.3111248481733924
 51
228.2176499527130034
  0
LINE
  5
2D0B
  8
0
 10
265.4878792797802021
 20
27.9396517688743309
 30
0.0
 11
265.5162921866302099
 21
27.9396517765802308
 31
0.0
  0
LINE
  5
2D0C
  8
0
 10
265.5162921866302099
 20
27.9396517765802308
 30
0.0
 11
265.5162921822283124
 21
27.9558823002802299
 31
0.0
  0
LINE
  5
2D0D
  8
0
 10
265.486546846688384
 20
27.9328076192129586
 30
0.0
 11
265.5180232984862982
 21
27.9328076278497299
 31
0.0
  0
ARC
  5
2D0E
  8
0
 10
265.5179086774862753
 20
27.9349034455545606
 30
0.0
 40
0.0020990007642493
 50
273.1640635927436733
 51
305.6982570200170812
  0
ARC
  5
2D0F
  8
0
 10
265.5248079984031051
 20
27.9395493848532084
 30
0.0
 40
0.0085164273153424
 50
179.3111248481733924
 51
228.2176499527130034
  0
LINE
  5
2D10
  8
0
 10
265.5162921928882724
 20
27.9165771035844692
 30
0.0
 11
265.5162921884863749
 21
27.9328076272844612
 31
0.0
  0
LINE
  5
2D11
  8
0
 10
265.5162921866856891
 20
27.9394469885077683
 30
0.0
 11
265.5162921866302099
 21
27.9396517765802308
 31
0.0
  0
LINE
  5
2D12
  8
0
 10
265.4878792502958049
 20
28.0481809842785594
 30
0.0
 11
265.4878792547040121
 21
28.031950460574329
 31
0.0
  0
LINE
  5
2D13
  8
0
 10
265.4878792547040121
 20
28.031950460574329
 30
0.0
 11
265.4752217483959953
 21
28.040516627631149
 31
0.0
  0
LINE
  5
2D14
  8
0
 10
265.4679902123015154
 20
28.0370348642171514
 30
0.0
 11
265.4850379657477788
 21
28.0254975268079711
 31
0.0
  0
ARC
  5
2D15
  8
0
 10
265.4778969223008858
 20
28.0324937874358504
 30
0.0
 40
0.0099971077959993
 50
315.5867564593971792
 51
356.884530775984615
  0
ARC
  5
2D16
  8
0
 10
265.4864774564840104
 20
28.0279440942995883
 30
0.0
 40
0.0028386310203337
 50
239.5286549492317079
 51
271.4002257923307866
  0
LINE
  5
2D17
  8
0
 10
265.4509741414540827
 20
28.0135689648694814
 30
0.0
 11
265.4664814051785129
 21
28.0135689690752301
 31
0.0
  0
ARC
  5
2D18
  8
0
 10
265.4664814043363776
 20
28.0166741404791786
 30
0.0
 40
0.0031051714039529
 50
270.0000155392281727
 51
299.0718254191256165
  0
LINE
  5
2D19
  8
0
 10
265.4679902246768961
 20
28.0139601856844287
 30
0.0
 11
265.4850379657460735
 21
28.0254975268091187
 31
0.0
  0
ARC
  5
2D1A
  8
0
 10
265.5251769927957071
 20
27.916637181129289
 30
0.0
 40
0.0088850030222379
 50
180.3874186631674092
 51
227.1413561378616066
  0
ARC
  5
2D1B
  8
0
 10
265.5178011049869156
 20
27.9121854065344195
 30
0.0
 40
0.0024543691380111
 50
272.2648720603747279
 51
302.8785867734118824
  0
LINE
  5
2D1C
  8
0
 10
265.5178980996445262
 20
27.9097329547200097
 30
0.0
 11
265.4861464340444854
 21
27.9097329686086013
 31
0.0
  0
LINE
  5
2D1D
  8
0
 10
265.4861464340444854
 20
27.9097329686086013
 30
0.0
 11
265.4850379970383756
 21
27.9101241621079801
 31
0.0
  0
ARC
  5
2D1E
  8
0
 10
265.4849804598831042
 20
27.9167476604595883
 30
0.0
 40
0.0066237482544255
 50
236.8800388736414959
 51
270.497705754392598
  0
LINE
  5
2D1F
  8
0
 10
265.4813612850466029
 20
27.9112000831108098
 30
0.0
 11
265.4659034361810086
 21
27.9216614934760408
 31
0.0
  0
LINE
  5
2D20
  8
0
 10
265.4641694271093115
 20
27.9216614930057503
 30
0.0
 11
265.4641694317089105
 21
27.9047020813481907
 31
0.0
  0
ARC
  5
2D21
  8
0
 10
265.4677300921342749
 20
27.9045507697207498
 30
0.0
 40
0.0035638739379743
 50
177.5666572491234092
 51
237.506656155128411
  0
ARC
  5
2D22
  8
0
 10
265.4703532307096907
 20
27.9086693282766092
 30
0.0
 40
0.008446842355221
 50
237.5066561551400923
 51
257.8446660657231178
  0
ARC
  5
2D23
  8
0
 10
265.4702352907955856
 20
27.9081217683148815
 30
0.0
 40
0.0078867247469983
 50
257.8446660657231178
 51
285.5955074623773839
  0
LINE
  5
2D24
  8
0
 10
265.4723555917786939
 20
27.9005254039886808
 30
0.0
 11
265.4865587638312263
 21
27.9097329462204193
 31
0.0
  0
LINE
  5
2D25
  8
0
 10
265.4778064653164051
 20
27.9136059271617505
 30
0.0
 11
265.4641704319673181
 21
27.9043775157432705
 31
0.0
  0
LINE
  5
2D26
  8
0
 10
265.475221779636513
 20
27.9251432628973184
 30
0.0
 11
265.4878792859882992
 21
27.9165770958785693
 31
0.0
  0
LINE
  5
2D27
  8
0
 10
265.4878792859882992
 20
27.9165770958785693
 30
0.0
 11
265.5162921928882724
 21
27.9165771035857802
 31
0.0
  0
LINE
  5
2D28
  8
0
 10
265.4878792815864017
 20
27.9328076195785613
 30
0.0
 11
265.4878792859889813
 21
27.9165770958785693
 31
0.0
  0
ARC
  5
2D29
  8
0
 10
265.4791309243499882
 20
27.9165770935055093
 30
0.0
 40
0.0087483616389985
 50
312.471271802955016
 51
0.000015541926502
  0
ARC
  5
2D2A
  8
0
 10
265.4509453848216936
 20
28.7276284591065298
 30
0.0
 40
0.8230326230537478
 50
270.0020019056699994
 51
270.9206374836142004
  0
ARC
  5
2D2B
  8
0
 10
265.4521005331466768
 20
28.6995153385736508
 30
0.0
 40
0.7948957762986535
 50
271.9676957197921752
 51
274.9568474672611273
  0
LINE
  5
2D2C
  8
0
 10
265.5313299151894171
 20
28.0619826916007611
 30
0.0
 11
265.5325096068676771
 21
28.0611845146016101
 31
0.0
  0
ARC
  5
2D2D
  8
0
 10
265.536023156507099
 20
28.0663774796646912
 30
0.0
 40
0.0062699216274807
 50
235.9177977511234872
 51
271.4442841987806787
  0
ARC
  5
2D2E
  8
0
 10
265.5376206796250926
 20
28.0625561173843892
 30
0.0
 40
0.0028386309646651
 50
239.5286547937272132
 51
271.4002262575990017
  0
ARC
  5
2D2F
  8
0
 10
265.5302741162464031
 20
28.0665624813426895
 30
0.0
 40
0.0087483616141757
 50
312.4712716214020247
 51
324.5609548667903255
  0
LINE
  5
2D30
  8
0
 10
265.5376900447686808
 20
28.0597183340539686
 30
0.0
 11
265.5562880649908948
 21
28.0597183391570404
 31
0.0
  0
LINE
  5
2D31
  8
0
 10
265.517823965942398
 20
28.0481809922660617
 30
0.0
 11
265.5327089506768061
 21
28.03810984175567
 31
0.0
  0
ARC
  5
2D32
  8
0
 10
265.536222500316228
 20
28.0433028068187618
 30
0.0
 40
0.0062699216274807
 50
235.9177977511234872
 51
271.4442841987806787
  0
ARC
  5
2D33
  8
0
 10
265.5378200234342216
 20
28.039481444538449
 30
0.0
 40
0.0028386309646651
 50
239.5286547937272132
 51
271.4002262575990017
  0
LINE
  5
2D34
  8
0
 10
265.5265643152386019
 20
28.0520539779195097
 30
0.0
 11
265.5392218216696847
 21
28.0434878108694008
 31
0.0
  0
LINE
  5
2D35
  8
0
 10
265.5392218172677872
 20
28.0597183345693999
 30
0.0
 11
265.5392218216696847
 21
28.0434878108694008
 31
0.0
  0
ARC
  5
2D36
  8
0
 10
265.5304734600554752
 20
28.0434878084967494
 30
0.0
 40
0.0087483616141757
 50
312.4712716214020247
 51
0.0000155392536148
  0
LINE
  5
2D37
  8
0
 10
265.5392218216696847
 20
28.0434878108694008
 30
0.0
 11
265.5676347285195789
 21
28.0434878185753007
 31
0.0
  0
LINE
  5
2D38
  8
0
 10
265.5676347285195789
 20
28.0434878185753007
 30
0.0
 11
265.5676347244536828
 21
28.0584798102417885
 31
0.0
  0
LINE
  5
2D39
  8
0
 10
265.5378893885778098
 20
28.0366436612080285
 30
0.0
 11
265.5693658403758945
 21
28.0366436698447998
 31
0.0
  0
ARC
  5
2D3A
  8
0
 10
265.5692512193758148
 20
28.0387394875496305
 30
0.0
 40
0.0020990007642493
 50
273.1640635927436733
 51
305.6982570200170812
  0
ARC
  5
2D3B
  8
0
 10
265.5761505402925877
 20
28.0433854268482783
 30
0.0
 40
0.0085164273153424
 50
179.3111248481733924
 51
228.2176499527130034
  0
LINE
  5
2D3C
  8
0
 10
265.5176246347493816
 20
28.0251063193119982
 30
0.0
 11
265.5325096194839034
 21
28.0150351688015995
 31
0.0
  0
ARC
  5
2D3D
  8
0
 10
265.5360231691233253
 20
28.0202281338646983
 30
0.0
 40
0.0062699216274807
 50
235.9177977511234872
 51
271.4442841987806787
  0
ARC
  5
2D3E
  8
0
 10
265.5376206922413189
 20
28.0164067715843892
 30
0.0
 40
0.0028386309646651
 50
239.5286547937272132
 51
271.4002262575990017
  0
LINE
  5
2D3F
  8
0
 10
265.5263649840456992
 20
28.0289793049654499
 30
0.0
 11
265.539022490476782
 21
28.0204131379153409
 31
0.0
  0
LINE
  5
2D40
  8
0
 10
265.5390224860748845
 20
28.0366436616153401
 30
0.0
 11
265.539022490476782
 21
28.0204131379153409
 31
0.0
  0
ARC
  5
2D41
  8
0
 10
265.5302741288625725
 20
28.0204131355426895
 30
0.0
 40
0.0087483616141757
 50
312.4712716214020247
 51
0.0000155392536148
  0
LINE
  5
2D42
  8
0
 10
265.539022490476782
 20
28.0204131379153409
 30
0.0
 11
265.5674353973267898
 21
28.0204131456212409
 31
0.0
  0
LINE
  5
2D43
  8
0
 10
265.5674353973267898
 20
28.0204131456212409
 30
0.0
 11
265.5674353929248923
 21
28.03664366932124
 31
0.0
  0
LINE
  5
2D44
  8
0
 10
265.5376900573850207
 20
28.0135689882539687
 30
0.0
 11
265.5691665091829918
 21
28.0135689968907293
 31
0.0
  0
ARC
  5
2D45
  8
0
 10
265.5690518881830258
 20
28.0156648145955707
 30
0.0
 40
0.0020990007642493
 50
273.1640635927436733
 51
305.6982570200170812
  0
ARC
  5
2D46
  8
0
 10
265.575951209099685
 20
28.0203107538942184
 30
0.0
 40
0.0085164273153424
 50
179.3111248481733924
 51
228.2176499527130034
  0
LINE
  5
2D47
  8
0
 10
265.5176246409076271
 20
28.0020316463119983
 30
0.0
 11
265.5325096256419783
 21
27.9919604958016102
 31
0.0
  0
ARC
  5
2D48
  8
0
 10
265.5360231752814002
 20
27.9971534608646984
 30
0.0
 40
0.0062699216274807
 50
235.9177977511234872
 51
271.4442841987806787
  0
ARC
  5
2D49
  8
0
 10
265.5376206983993939
 20
27.9933320985843892
 30
0.0
 40
0.0028386309646651
 50
239.5286547937272132
 51
271.4002262575990017
  0
LINE
  5
2D4A
  8
0
 10
265.5263649902038878
 20
28.0059046319654605
 30
0.0
 11
265.5390224966349138
 21
27.9973384649153409
 31
0.0
  0
LINE
  5
2D4B
  8
0
 10
265.5390224922330162
 20
28.0135689886153401
 30
0.0
 11
265.5390224966349138
 21
27.9973384649153409
 31
0.0
  0
ARC
  5
2D4C
  8
0
 10
265.5302741350207043
 20
27.9973384625426895
 30
0.0
 40
0.0087483616141757
 50
312.4712716214020247
 51
0.0000155392536148
  0
LINE
  5
2D4D
  8
0
 10
265.5390224966349138
 20
27.9973384649153409
 30
0.0
 11
265.5674354034849216
 21
27.9973384726212409
 31
0.0
  0
LINE
  5
2D4E
  8
0
 10
265.5674354034849216
 20
27.9973384726212409
 30
0.0
 11
265.5674353990830241
 21
28.01356899632124
 31
0.0
  0
LINE
  5
2D4F
  8
0
 10
265.5376900635430957
 20
27.9904943152539687
 30
0.0
 11
265.5691665153411236
 21
27.99049432389074
 31
0.0
  0
ARC
  5
2D50
  8
0
 10
265.569051894340987
 20
27.9925901415955707
 30
0.0
 40
0.0020990007642493
 50
273.1640635927436733
 51
305.6982570200170812
  0
ARC
  5
2D51
  8
0
 10
265.5759512152578168
 20
27.9972360808942184
 30
0.0
 40
0.0085164273153424
 50
179.3111248481733924
 51
228.2176499527130034
  0
LINE
  5
2D52
  8
0
 10
265.5176246471656896
 20
27.9789569734120001
 30
0.0
 11
265.5325096319000977
 21
27.9688858229016084
 31
0.0
  0
ARC
  5
2D53
  8
0
 10
265.5360231815395196
 20
27.9740787879647002
 30
0.0
 40
0.0062699216274807
 50
235.9177977511234872
 51
271.4442841987806787
  0
ARC
  5
2D54
  8
0
 10
265.5376207046575132
 20
27.970257425684391
 30
0.0
 40
0.0028386309646651
 50
239.5286547937272132
 51
271.4002262575990017
  0
LINE
  5
2D55
  8
0
 10
265.5263649964620072
 20
27.9828299590654588
 30
0.0
 11
265.5390225028929763
 21
27.9742637920153392
 31
0.0
  0
LINE
  5
2D56
  8
0
 10
265.5390224984910787
 20
27.9904943157153383
 30
0.0
 11
265.5390225028929763
 21
27.9742637920153392
 31
0.0
  0
ARC
  5
2D57
  8
0
 10
265.5302741412788237
 20
27.9742637896426913
 30
0.0
 40
0.0087483616141757
 50
312.4712716214020247
 51
0.0000155392536148
  0
LINE
  5
2D58
  8
0
 10
265.5390225028929763
 20
27.9742637920153392
 30
0.0
 11
265.5674354097429841
 21
27.9742637997212498
 31
0.0
  0
LINE
  5
2D59
  8
0
 10
265.5674354097429841
 20
27.9742637997212498
 30
0.0
 11
265.5674354053410866
 21
27.9904943234212418
 31
0.0
  0
LINE
  5
2D5A
  8
0
 10
265.537690069801215
 20
27.9674196423539705
 30
0.0
 11
265.5691665215991861
 21
27.9674196509907382
 31
0.0
  0
ARC
  5
2D5B
  8
0
 10
265.5690519005992201
 20
27.9695154686955689
 30
0.0
 40
0.0020990007642493
 50
273.1640635927436733
 51
305.6982570200170812
  0
ARC
  5
2D5C
  8
0
 10
265.5759512215158793
 20
27.9741614079942202
 30
0.0
 40
0.0085164273153424
 50
179.3111248481733924
 51
228.2176499527130034
  0
LINE
  5
2D5D
  8
0
 10
265.5176246534238089
 20
27.9558823004120107
 30
0.0
 11
265.5325096381582171
 21
27.9458111499016013
 31
0.0
  0
ARC
  5
2D5E
  8
0
 10
265.5360231877975821
 20
27.9510041149647002
 30
0.0
 40
0.0062699216274807
 50
235.9177977511234872
 51
271.4442841987806787
  0
ARC
  5
2D5F
  8
0
 10
265.5376207109155757
 20
27.947182752684391
 30
0.0
 40
0.0028386309646651
 50
239.5286547937272132
 51
271.4002262575990017
  0
LINE
  5
2D60
  8
0
 10
265.5263650027200129
 20
27.9597552860654517
 30
0.0
 11
265.5390225091510956
 21
27.9511891190153392
 31
0.0
  0
LINE
  5
2D61
  8
0
 10
265.5390225047491981
 20
27.9674196427153383
 30
0.0
 11
265.5390225091510956
 21
27.9511891190153392
 31
0.0
  0
ARC
  5
2D62
  8
0
 10
265.5302741475368862
 20
27.9511891166426913
 30
0.0
 40
0.0087483616141757
 50
312.4712716214020247
 51
0.0000155392536148
  0
LINE
  5
2D63
  8
0
 10
265.5390225091510956
 20
27.9511891190153392
 30
0.0
 11
265.5674354160011035
 21
27.9511891267212391
 31
0.0
  0
LINE
  5
2D64
  8
0
 10
265.5674354160011035
 20
27.9511891267212391
 30
0.0
 11
265.567435411599206
 21
27.9674196504212382
 31
0.0
  0
LINE
  5
2D65
  8
0
 10
265.5376900760592775
 20
27.9443449693539705
 30
0.0
 11
265.5691665278573055
 21
27.9443449779907382
 31
0.0
  0
ARC
  5
2D66
  8
0
 10
265.5690519068572826
 20
27.9464407956955689
 30
0.0
 40
0.0020990007642493
 50
273.1640635927436733
 51
305.6982570200170812
  0
ARC
  5
2D67
  8
0
 10
265.5759512277739987
 20
27.9510867349942203
 30
0.0
 40
0.0085164273153424
 50
179.3111248481733924
 51
228.2176499527130034
  0
LINE
  5
2D68
  8
0
 10
265.5176246596819283
 20
27.932807627512009
 30
0.0
 11
265.5325096444162796
 21
27.9227364770016102
 31
0.0
  0
ARC
  5
2D69
  8
0
 10
265.5360231940557014
 20
27.9279294420646984
 30
0.0
 40
0.0062699216274807
 50
235.9177977511234872
 51
271.4442841987806787
  0
ARC
  5
2D6A
  8
0
 10
265.5376207171736951
 20
27.9241080797843892
 30
0.0
 40
0.0028386309646651
 50
239.5286547937272132
 51
271.4002262575990017
  0
LINE
  5
2D6B
  8
0
 10
265.5263650089780754
 20
27.9366806131654606
 30
0.0
 11
265.539022515409215
 21
27.9281144461153517
 31
0.0
  0
LINE
  5
2D6C
  8
0
 10
265.5390225110073175
 20
27.9443449698153401
 30
0.0
 11
265.539022515409215
 21
27.9281144461153517
 31
0.0
  0
ARC
  5
2D6D
  8
0
 10
265.5302741537951192
 20
27.9281144437426896
 30
0.0
 40
0.0087483616141757
 50
312.4712716214020247
 51
0.0000155392536148
  0
LINE
  5
2D6E
  8
0
 10
265.539022515409215
 20
27.9281144461153517
 30
0.0
 11
265.5674354222592228
 21
27.9281144538212409
 31
0.0
  0
LINE
  5
2D6F
  8
0
 10
265.5674354222592228
 20
27.9281144538212409
 30
0.0
 11
265.5674354178573253
 21
27.94434497752124
 31
0.0
  0
LINE
  5
2D70
  8
0
 10
265.5376900823173969
 20
27.9212702964539687
 30
0.0
 11
265.5691665341154248
 21
27.92127030509074
 31
0.0
  0
ARC
  5
2D71
  8
0
 10
265.5690519131154019
 20
27.9233661227955707
 30
0.0
 40
0.0020990007642493
 50
273.1640635927436733
 51
305.6982570200170812
  0
ARC
  5
2D72
  8
0
 10
265.575951234032118
 20
27.9280120620942185
 30
0.0
 40
0.0085164273153424
 50
179.3111248481733924
 51
228.2176499527130034
  0
LINE
  5
2D73
  8
0
 10
265.5228055638767728
 20
28.0496488459509692
 30
0.0
 11
265.5376900447187722
 21
28.0597183342878083
 31
0.0
  0
LINE
  5
2D74
  8
0
 10
265.5162921553396131
 20
28.0550251412844602
 30
0.0
 11
265.5270526947351755
 21
28.0623075145700902
 31
0.0
  0
ARC
  5
2D75
  8
0
 10
265.5191908790042135
 20
28.0551956088462795
 30
0.0
 40
0.0066236487445103
 50
269.5032032100846777
 51
303.1315359962731009
  0
LINE
  5
2D76
  8
0
 10
265.5228055702348797
 20
28.0265741729171296
 30
0.0
 11
265.5376900510768792
 21
28.0366436612539687
 31
0.0
  0
LINE
  5
2D77
  8
0
 10
265.5162921616977201
 20
28.0319504682506206
 30
0.0
 11
265.5289496633529893
 21
28.0405166421689209
 31
0.0
  0
ARC
  5
2D78
  8
0
 10
265.5191908853623204
 20
28.0321209358124399
 30
0.0
 40
0.0066236487445103
 50
269.5032032100846777
 51
303.1315359962731009
  0
LINE
  5
2D79
  8
0
 10
265.5228055764180226
 20
28.003499500050971
 30
0.0
 11
265.5376900572600221
 21
28.0135689883878101
 31
0.0
  0
LINE
  5
2D7A
  8
0
 10
265.5162921678808061
 20
28.0088757953844585
 30
0.0
 11
265.5289496695360754
 21
28.0174419693027694
 31
0.0
  0
ARC
  5
2D7B
  8
0
 10
265.5191908915454064
 20
28.0090462629462813
 30
0.0
 40
0.0066236487445103
 50
269.5032032100846777
 51
303.1315359962731009
  0
LINE
  5
2D7C
  8
0
 10
265.5228055826760851
 20
27.980424827050971
 30
0.0
 11
265.5376900635180846
 21
27.9904943153878101
 31
0.0
  0
LINE
  5
2D7D
  8
0
 10
265.5162921741389255
 20
27.9858011223844585
 30
0.0
 11
265.5289496757941947
 21
27.9943672963027588
 31
0.0
  0
ARC
  5
2D7E
  8
0
 10
265.5191908978035258
 20
27.9859715899462813
 30
0.0
 40
0.0066236487445103
 50
269.5032032100846777
 51
303.1315359962731009
  0
LINE
  5
2D7F
  8
0
 10
265.5228055889342045
 20
27.9573501541509692
 30
0.0
 11
265.5376900697762039
 21
27.9674196424878083
 31
0.0
  0
LINE
  5
2D80
  8
0
 10
265.516292180396988
 20
27.9627264494844603
 30
0.0
 11
265.5289496820523141
 21
27.9712926234027712
 31
0.0
  0
ARC
  5
2D81
  8
0
 10
265.5191909040615883
 20
27.9628969170462796
 30
0.0
 40
0.0066236487445103
 50
269.5032032100846777
 51
303.1315359962731009
  0
LINE
  5
2D82
  8
0
 10
265.5228055951673127
 20
27.9342754811509693
 30
0.0
 11
265.5376900760093122
 21
27.9443449694878083
 31
0.0
  0
LINE
  5
2D83
  8
0
 10
265.5162921866302099
 20
27.9396517764844603
 30
0.0
 11
265.5289496882854223
 21
27.9482179504027606
 31
0.0
  0
ARC
  5
2D84
  8
0
 10
265.5191909102946966
 20
27.9398222440462796
 30
0.0
 40
0.0066236487445103
 50
269.5032032100846777
 51
303.1315359962731009
  0
LINE
  5
2D85
  8
0
 10
265.5228056014987033
 20
27.9112008081665017
 30
0.0
 11
265.5376900823407027
 21
27.9212702965033408
 31
0.0
  0
LINE
  5
2D86
  8
0
 10
265.5162921929616004
 20
27.9165771034999892
 30
0.0
 11
265.5289496946168128
 21
27.9251432774182895
 31
0.0
  0
ARC
  5
2D87
  8
0
 10
265.5191909166262008
 20
27.9167475710618085
 30
0.0
 40
0.0066236487445103
 50
269.5032032100846777
 51
303.1315359962731009
  0
LINE
  5
2D88
  8
0
 10
265.5709433689311254
 20
28.0581115248483393
 30
0.0
 11
265.5834535050457248
 21
28.0496471921020003
 31
0.0
  0
ARC
  5
2D89
  8
0
 10
265.5869670546850898
 20
28.0548401571650885
 30
0.0
 40
0.0062699216274807
 50
235.9177977511234872
 51
271.4442841987806787
  0
ARC
  5
2D8A
  8
0
 10
265.5885645778030835
 20
28.0510187948847793
 30
0.0
 40
0.0028386309646651
 50
239.5286547937272132
 51
271.4002262575990017
  0
LINE
  5
2D8B
  8
0
 10
265.5886952572050745
 20
28.0558854109282692
 30
0.0
 11
265.5899663760386034
 21
28.0550251612157417
 31
0.0
  0
LINE
  5
2D8C
  8
0
 10
265.5899663758530096
 20
28.0557097649694711
 30
0.0
 11
265.5899663760386034
 21
28.0550251612157417
 31
0.0
  0
ARC
  5
2D8D
  8
0
 10
265.5812180144243939
 20
28.0550251588430797
 30
0.0
 40
0.0087483616141757
 50
312.4712716214020247
 51
0.0000155392536148
  0
LINE
  5
2D8E
  8
0
 10
265.5899663760386034
 20
28.0550251612157417
 30
0.0
 11
265.5947778277113116
 21
28.0550251625206606
 31
0.0
  0
LINE
  5
2D8F
  8
0
 10
265.5886339429467853
 20
28.0481810115543588
 30
0.0
 11
265.6201103947448132
 21
28.0481810201911301
 31
0.0
  0
ARC
  5
2D90
  8
0
 10
265.6199960708974004
 20
28.0502762686417988
 30
0.0
 40
0.0020983650807516
 50
273.1231547420185279
 51
305.7007377092468232
  0
ARC
  5
2D91
  8
0
 10
265.6268950946615064
 20
28.0549227771946086
 30
0.0
 40
0.0085164273153424
 50
207.0825061294229101
 51
228.2176499527132023
  0
LINE
  5
2D92
  8
0
 10
265.6248926914258277
 20
28.0496488735543004
 30
0.0
 11
265.6253287509929919
 21
28.0499438718664784
 31
0.0
  0
ARC
  5
2D93
  8
0
 10
265.6212780065532115
 20
28.0551956364496107
 30
0.0
 40
0.0066236487445103
 50
269.5032032100846777
 51
303.1315359962731009
  0
ARC
  5
2D94
  8
0
 10
265.5701393493690148
 20
28.0436240230621898
 30
0.0
 40
0.0065894284592988
 50
272.8520920083404917
 51
303.2206177925261272
  0
LINE
  5
2D95
  8
0
 10
265.5737494619547761
 20
28.0381115232175304
 30
0.0
 11
265.5886339427968892
 21
28.0481810115543588
 31
0.0
  0
LINE
  5
2D96
  8
0
 10
265.5672360534176732
 20
28.0434878185510215
 30
0.0
 11
265.5798935550729993
 21
28.0520539924693217
 31
0.0
  0
ARC
  5
2D97
  8
0
 10
265.5885645776530737
 20
28.0510187948847793
 30
0.0
 40
0.0028386309646651
 50
239.5286547937272132
 51
271.4002262575990017
  0
LINE
  5
2D98
  8
0
 10
265.5685685264693916
 20
28.0366436696123884
 30
0.0
 11
265.5834535112039134
 21
28.0265725191020003
 31
0.0
  0
ARC
  5
2D99
  8
0
 10
265.5869670608432216
 20
28.0317654841650885
 30
0.0
 40
0.0062699216274807
 50
235.9177977511234872
 51
271.4442841987806787
  0
ARC
  5
2D9A
  8
0
 10
265.5885645839612721
 20
28.02794412188479
 30
0.0
 40
0.0028386309646651
 50
239.5286547937272132
 51
271.4002262575990017
  0
LINE
  5
2D9B
  8
0
 10
265.5773067740732927
 20
28.0405180776192609
 30
0.0
 11
265.5899663821966783
 21
28.0319504882157311
 31
0.0
  0
LINE
  5
2D9C
  8
0
 10
265.5899663777947808
 20
28.0481810119157302
 30
0.0
 11
265.5899663821966783
 21
28.0319504882157311
 31
0.0
  0
ARC
  5
2D9D
  8
0
 10
265.5812180205825825
 20
28.0319504858430903
 30
0.0
 40
0.0087483616141757
 50
312.4712716214020247
 51
0.0000155392536148
  0
LINE
  5
2D9E
  8
0
 10
265.5899663821966783
 20
28.0319504882157311
 30
0.0
 11
265.6183792890466862
 21
28.0319504959216417
 31
0.0
  0
LINE
  5
2D9F
  8
0
 10
265.6183792890466862
 20
28.0319504959216417
 30
0.0
 11
265.6183792846447886
 21
28.0481810196216301
 31
0.0
  0
LINE
  5
2DA0
  8
0
 10
265.5886339491049171
 20
28.0251063385543588
 30
0.0
 11
265.6201104009030018
 21
28.0251063471911301
 31
0.0
  0
ARC
  5
2DA1
  8
0
 10
265.6199960770554753
 20
28.0272015956417917
 30
0.0
 40
0.0020983650807516
 50
273.1231547420185279
 51
305.7007377092468232
  0
ARC
  5
2DA2
  8
0
 10
265.6268951008195813
 20
28.0318481041946193
 30
0.0
 40
0.0085164273153424
 50
179.3111248481733924
 51
228.2176499527132023
  0
LINE
  5
2DA3
  8
0
 10
265.6183792890466862
 20
28.0319504958877985
 30
0.0
 11
265.6310367907020122
 21
28.0405166698060988
 31
0.0
  0
LINE
  5
2DA4
  8
0
 10
265.6197117558403988
 20
28.0481810199330113
 30
0.0
 11
265.634596740574807
 21
28.038109869422609
 31
0.0
  0
LINE
  5
2DA5
  8
0
 10
265.6341914638272215
 20
28.0482300262903301
 30
0.0
 11
265.641308949068673
 21
28.0434878385876587
 31
0.0
  0
ARC
  5
2DA6
  8
0
 10
265.6382335929844203
 20
28.0437109800725395
 30
0.0
 40
0.0066801772058202
 50
236.9523509097193141
 51
272.0080006860920889
  0
ARC
  5
2DA7
  8
0
 10
265.5701393556270204
 20
28.0205493501621916
 30
0.0
 40
0.0065894284592988
 50
271.1833835222602147
 51
303.2206177925261272
  0
LINE
  5
2DA8
  8
0
 10
265.5737494682130091
 20
28.0150368503175216
 30
0.0
 11
265.5886339490550085
 21
28.0251063386543606
 31
0.0
  0
LINE
  5
2DA9
  8
0
 10
265.5674353972901827
 20
28.0205480506836118
 30
0.0
 11
265.5798935613311187
 21
28.02897931956932
 31
0.0
  0
ARC
  5
2DAA
  8
0
 10
265.588564583911193
 20
28.0279441219847811
 30
0.0
 40
0.0028386309646651
 50
239.5286547937272132
 51
271.4002262575990017
  0
LINE
  5
2DAB
  8
0
 10
265.568568532727511
 20
28.0135689967123902
 30
0.0
 11
265.5834535174619759
 21
28.0034978462019986
 31
0.0
  0
ARC
  5
2DAC
  8
0
 10
265.5869670671012841
 20
28.0086908112650903
 30
0.0
 40
0.0062699216274807
 50
235.9177977511234872
 51
271.4442841987806787
  0
ARC
  5
2DAD
  8
0
 10
265.5885645902193914
 20
28.0048694489847882
 30
0.0
 40
0.0028386309646651
 50
239.5286547937272132
 51
271.4002262575990017
  0
LINE
  5
2DAE
  8
0
 10
265.5773067803315257
 20
28.0174434047192591
 30
0.0
 11
265.5899663884547977
 21
28.00887581531574
 31
0.0
  0
LINE
  5
2DAF
  8
0
 10
265.5899663840529001
 20
28.0251063390157285
 30
0.0
 11
265.5899663884547977
 21
28.00887581531574
 31
0.0
  0
ARC
  5
2DB0
  8
0
 10
265.5812180268407019
 20
28.0088758129430815
 30
0.0
 40
0.0087483616141757
 50
312.4712716214020247
 51
0.0000155392536148
  0
LINE
  5
2DB1
  8
0
 10
265.5899663884547977
 20
28.00887581531574
 30
0.0
 11
265.6183792953048055
 21
28.0088758230216293
 31
0.0
  0
LINE
  5
2DB2
  8
0
 10
265.6183792953048055
 20
28.0088758230216293
 30
0.0
 11
265.618379290902908
 21
28.0251063467216284
 31
0.0
  0
LINE
  5
2DB3
  8
0
 10
265.5886339553629796
 20
28.0020316656543713
 30
0.0
 11
265.6201104071611212
 21
28.0020316742911284
 31
0.0
  0
ARC
  5
2DB4
  8
0
 10
265.6199960833135947
 20
28.0041269227418006
 30
0.0
 40
0.0020983650807516
 50
273.1231547420185279
 51
305.7007377092468232
  0
ARC
  5
2DB5
  8
0
 10
265.6268951070777007
 20
28.008773431294621
 30
0.0
 40
0.0085164273153424
 50
179.3111248481733924
 51
228.2176499527132023
  0
LINE
  5
2DB6
  8
0
 10
265.6248927038419083
 20
28.0034995276543093
 30
0.0
 11
265.6397771846840214
 21
28.0135690159911412
 31
0.0
  0
LINE
  5
2DB7
  8
0
 10
265.6183792953048055
 20
28.0088758229878003
 30
0.0
 11
265.6310367969600748
 21
28.0174419969061006
 31
0.0
  0
ARC
  5
2DB8
  8
0
 10
265.6212780189694058
 20
28.0090462905496089
 30
0.0
 40
0.0066236487445103
 50
269.5032032100846777
 51
303.1315359962731009
  0
LINE
  5
2DB9
  8
0
 10
265.6197117620985182
 20
28.0251063470330095
 30
0.0
 11
265.6345967468329263
 21
28.0150351965226108
 31
0.0
  0
ARC
  5
2DBA
  8
0
 10
265.6382135802531934
 20
28.0205928077182413
 30
0.0
 40
0.006632801759574
 50
236.8923879191765138
 51
270.4729370613171113
  0
ARC
  5
2DBB
  8
0
 10
265.570139361885083
 20
27.9974746771621916
 30
0.0
 40
0.0065894284592988
 50
271.183382672210314
 51
303.2206177925261272
  0
LINE
  5
2DBC
  8
0
 10
265.5737494744710716
 20
27.9919621773175287
 30
0.0
 11
265.5886339553130142
 21
28.0020316656543713
 31
0.0
  0
LINE
  5
2DBD
  8
0
 10
265.567236065933912
 20
27.9973384726510197
 30
0.0
 11
265.5798935675891812
 21
28.00590464656932
 31
0.0
  0
ARC
  5
2DBE
  8
0
 10
265.5885645901694261
 20
28.0048694489847882
 30
0.0
 40
0.0028386309646651
 50
239.5286547937272132
 51
271.4002262575990017
  0
LINE
  5
2DBF
  8
0
 10
265.5685685389855735
 20
27.9904943237124009
 30
0.0
 11
265.5834535237200953
 21
27.9804231732019986
 31
0.0
  0
ARC
  5
2DC0
  8
0
 10
265.5869670733594035
 20
27.9856161382650903
 30
0.0
 40
0.0062699216274807
 50
235.9177977511234872
 51
271.4442841987806787
  0
ARC
  5
2DC1
  8
0
 10
265.5885645964775108
 20
27.9817947759847883
 30
0.0
 40
0.0028386309646651
 50
239.5286547937272132
 51
271.4002262575990017
  0
LINE
  5
2DC2
  8
0
 10
265.5773067865895882
 20
27.9943687317192591
 30
0.0
 11
265.5899663947129739
 21
27.98580114231574
 31
0.0
  0
LINE
  5
2DC3
  8
0
 10
265.5899663903110763
 20
28.0020316660157391
 30
0.0
 11
265.5899663947129739
 21
27.98580114231574
 31
0.0
  0
ARC
  5
2DC4
  8
0
 10
265.5812180330987076
 20
27.9858011399430815
 30
0.0
 40
0.0087483616141757
 50
312.4712716214020247
 51
0.0000155392536148
  0
LINE
  5
2DC5
  8
0
 10
265.5899663947129739
 20
27.98580114231574
 30
0.0
 11
265.6183793015629817
 21
27.9858011500216399
 31
0.0
  0
LINE
  5
2DC6
  8
0
 10
265.6183793015629817
 20
27.9858011500216399
 30
0.0
 11
265.6183792971610274
 21
28.0020316737216284
 31
0.0
  0
LINE
  5
2DC7
  8
0
 10
265.5886339616212126
 20
27.9789569926543713
 30
0.0
 11
265.6201104134191837
 21
27.9789570012911284
 31
0.0
  0
ARC
  5
2DC8
  8
0
 10
265.619996089571714
 20
27.9810522497418006
 30
0.0
 40
0.0020983650807516
 50
273.1231547420185279
 51
305.7007377092468232
  0
ARC
  5
2DC9
  8
0
 10
265.6268951133358769
 20
27.9856987582946211
 30
0.0
 40
0.0085164273153424
 50
179.3111248481733924
 51
228.2176499527132023
  0
LINE
  5
2DCA
  8
0
 10
265.6248927101000845
 20
27.9804248546543093
 30
0.0
 11
265.639777190942084
 21
27.9904943429911413
 31
0.0
  0
LINE
  5
2DCB
  8
0
 10
265.6183793015629817
 20
27.9858011499878003
 30
0.0
 11
265.6310368032181941
 21
27.9943673239061006
 31
0.0
  0
ARC
  5
2DCC
  8
0
 10
265.6212780252275252
 20
27.9859716175496089
 30
0.0
 40
0.0066236487445103
 50
269.5032032100846777
 51
303.1315359962731009
  0
LINE
  5
2DCD
  8
0
 10
265.6197117683565807
 20
28.0020316740330202
 30
0.0
 11
265.6345967530909888
 21
27.9919605235226108
 31
0.0
  0
LINE
  5
2DCE
  8
0
 10
265.6284521176527846
 20
28.0059046596864611
 30
0.0
 11
265.6413089615849117
 21
27.9973384927904192
 31
0.0
  0
ARC
  5
2DCF
  8
0
 10
265.6382336055036149
 20
27.997561634178961
 30
0.0
 40
0.0066801772128027
 50
236.9523509184585919
 51
272.008000824963176
  0
ARC
  5
2DD0
  8
0
 10
265.5701393681932814
 20
27.9744000042621899
 30
0.0
 40
0.0065894284592988
 50
271.1833822471933786
 51
303.2206177925261272
  0
LINE
  5
2DD1
  8
0
 10
265.5737494807790995
 20
27.9688875044175305
 30
0.0
 11
265.5886339616212126
 21
27.9789569927543589
 31
0.0
  0
LINE
  5
2DD2
  8
0
 10
265.5672360722419967
 20
27.9742637997510215
 30
0.0
 11
265.5798935738973228
 21
27.9828299736693182
 31
0.0
  0
ARC
  5
2DD3
  8
0
 10
265.5885645964775108
 20
27.9817947760847794
 30
0.0
 40
0.0028386309646651
 50
239.5286547937272132
 51
271.4002262575990017
  0
LINE
  5
2DD4
  8
0
 10
265.568568545293715
 20
27.9674196508123991
 30
0.0
 11
265.58345353002818
 21
27.9573485003020004
 31
0.0
  0
ARC
  5
2DD5
  8
0
 10
265.5869670796676019
 20
27.9625414653650886
 30
0.0
 40
0.0062699216274807
 50
235.9177977511234872
 51
271.4442841987806787
  0
ARC
  5
2DD6
  8
0
 10
265.5885646027855955
 20
27.9587201030847901
 30
0.0
 40
0.0028386309646651
 50
239.5286547937272132
 51
271.4002262575990017
  0
LINE
  5
2DD7
  8
0
 10
265.5773067928976729
 20
27.9712940588192716
 30
0.0
 11
265.5899664010211154
 21
27.9627264694157383
 31
0.0
  0
LINE
  5
2DD8
  8
0
 10
265.5899663966192179
 20
27.9789569931157409
 30
0.0
 11
265.5899664010211154
 21
27.9627264694157383
 31
0.0
  0
ARC
  5
2DD9
  8
0
 10
265.581218039406906
 20
27.9627264670430797
 30
0.0
 40
0.0087483616141757
 50
312.4712716214020247
 51
0.0000155392536148
  0
LINE
  5
2DDA
  8
0
 10
265.5899664010211154
 20
27.9627264694157383
 30
0.0
 11
265.6183793078711233
 21
27.9627264771216311
 31
0.0
  0
LINE
  5
2DDB
  8
0
 10
265.6183793078711233
 20
27.9627264771216311
 30
0.0
 11
265.6183793034692258
 21
27.9789570008216302
 31
0.0
  0
LINE
  5
2DDC
  8
0
 10
265.5886339679291837
 20
27.9558823197543695
 30
0.0
 11
265.6201104197273253
 21
27.9558823283911408
 31
0.0
  0
ARC
  5
2DDD
  8
0
 10
265.6199960958797988
 20
27.9579775768417989
 30
0.0
 40
0.0020983650807516
 50
273.1231547420185279
 51
305.7007377092468232
  0
ARC
  5
2DDE
  8
0
 10
265.6268951196440185
 20
27.9626240853946193
 30
0.0
 40
0.0085164273153424
 50
179.3111248481733924
 51
228.2176499527132023
  0
LINE
  5
2DDF
  8
0
 10
265.6248927164082261
 20
27.9573501817543111
 30
0.0
 11
265.6397771972502255
 21
27.9674196700911395
 31
0.0
  0
LINE
  5
2DE0
  8
0
 10
265.6183793078711233
 20
27.9627264770877986
 30
0.0
 11
265.6310368095262788
 21
27.9712926510060989
 31
0.0
  0
ARC
  5
2DE1
  8
0
 10
265.6212780315356099
 20
27.9628969446496214
 30
0.0
 40
0.0066236487445103
 50
269.5032032100846777
 51
303.1315359962731009
  0
LINE
  5
2DE2
  8
0
 10
265.6197117746647223
 20
27.9789570011330184
 30
0.0
 11
265.6345967593990736
 21
27.9688858506226197
 31
0.0
  0
LINE
  5
2DE3
  8
0
 10
265.6284521239609262
 20
27.98282998678647
 30
0.0
 11
265.6413089678429742
 21
27.9742638197904192
 31
0.0
  0
ARC
  5
2DE4
  8
0
 10
265.6382342437427724
 20
27.9744892371788687
 30
0.0
 40
0.0066824295644167
 50
236.9584508312811977
 51
272.0019030729815768
  0
ARC
  5
2DE5
  8
0
 10
265.5701393744013785
 20
27.9513253313621917
 30
0.0
 40
0.0065894284592988
 50
271.1833817212665281
 51
303.2206177925261272
  0
LINE
  5
2DE6
  8
0
 10
265.5737494869871966
 20
27.9458128315175287
 30
0.0
 11
265.5886339678293098
 21
27.9558823198543713
 31
0.0
  0
LINE
  5
2DE7
  8
0
 10
265.5672360784500938
 20
27.9511891268510198
 30
0.0
 11
265.5798935801054199
 21
27.95975530076932
 31
0.0
  0
ARC
  5
2DE8
  8
0
 10
265.588564602685608
 20
27.9587201031847883
 30
0.0
 40
0.0028386309646651
 50
239.5286547937272132
 51
271.4002262575990017
  0
LINE
  5
2DE9
  8
0
 10
265.5685685515019259
 20
27.9443449779124009
 30
0.0
 11
265.5834535362362772
 21
27.9342738274019986
 31
0.0
  0
ARC
  5
2DEA
  8
0
 10
265.586967085875699
 20
27.9394667924650904
 30
0.0
 40
0.0062699216274807
 50
235.9177977511234872
 51
271.4442841987806787
  0
ARC
  5
2DEB
  8
0
 10
265.5885646089936927
 20
27.9356454301847883
 30
0.0
 40
0.0028386309646651
 50
239.5286547937272132
 51
271.4002262575990017
  0
LINE
  5
2DEC
  8
0
 10
265.577308900798073
 20
27.948217963565849
 30
0.0
 11
265.5899664072292126
 21
27.93965179651574
 31
0.0
  0
LINE
  5
2DED
  8
0
 10
265.5899664028273151
 20
27.9558823202157392
 30
0.0
 11
265.5899664072292126
 21
27.93965179651574
 31
0.0
  0
ARC
  5
2DEE
  8
0
 10
265.5812180456150031
 20
27.9396517941430886
 30
0.0
 40
0.0087483616141757
 50
312.4712716214020247
 51
0.0000155392536148
  0
LINE
  5
2DEF
  8
0
 10
265.5899664072292126
 20
27.93965179651574
 30
0.0
 11
265.6183793140792204
 21
27.93965180422164
 31
0.0
  0
LINE
  5
2DF0
  8
0
 10
265.6183793140792204
 20
27.93965180422164
 30
0.0
 11
265.6183793096773229
 21
27.9558823279216391
 31
0.0
  0
LINE
  5
2DF1
  8
0
 10
265.5886339741372808
 20
27.9328076468543607
 30
0.0
 11
265.6201104259354224
 21
27.9328076554911284
 31
0.0
  0
ARC
  5
2DF2
  8
0
 10
265.6199961020878959
 20
27.9349029039418006
 30
0.0
 40
0.0020983650807516
 50
273.1231547420185279
 51
305.7007377092468232
  0
ARC
  5
2DF3
  8
0
 10
265.6268951258521156
 20
27.9395494124946211
 30
0.0
 40
0.0085164273153424
 50
179.3111248481733924
 51
228.2176499527132023
  0
LINE
  5
2DF4
  8
0
 10
265.6248927226163232
 20
27.9342755088543093
 30
0.0
 11
265.6397772034583227
 21
27.9443449971911484
 31
0.0
  0
LINE
  5
2DF5
  8
0
 10
265.6183793140792204
 20
27.9396518041878004
 30
0.0
 11
265.6310368157344897
 21
27.9482179781061006
 31
0.0
  0
ARC
  5
2DF6
  8
0
 10
265.6212780377438207
 20
27.939822271749609
 30
0.0
 40
0.0066236487445103
 50
269.5032032100846777
 51
303.1315359962731009
  0
LINE
  5
2DF7
  8
0
 10
265.6197117808728194
 20
27.9558823282330202
 30
0.0
 11
265.6345967656072276
 21
27.9458111777226215
 31
0.0
  0
LINE
  5
2DF8
  8
0
 10
265.6284521301690233
 20
27.9597553138864683
 30
0.0
 11
265.6413089741010936
 21
27.951189146890421
 31
0.0
  0
ARC
  5
2DF9
  8
0
 10
265.638233618245124
 20
27.9514122888687204
 30
0.0
 40
0.0066801777462436
 50
236.9523515888070051
 51
272.0079991979073952
  0
ARC
  5
2DFA
  8
0
 10
265.6724258144190003
 20
28.0436240508034196
 30
0.0
 40
0.0065894284592988
 50
269.4608650237266261
 51
303.2206177925261272
  0
LINE
  5
2DFB
  8
0
 10
265.6760359270048184
 20
28.0381115509587602
 30
0.0
 11
265.6766115818824119
 21
28.0385009867837205
 31
0.0
  0
ARC
  5
2DFC
  8
0
 10
265.6908510490112008
 20
28.0279441496260198
 30
0.0
 40
0.0028386309646651
 50
239.5286547937272132
 51
271.4002262575990017
  0
LINE
  5
2DFD
  8
0
 10
265.6864516397259877
 20
28.035876574615191
 30
0.0
 11
265.6922528472467206
 21
28.0319505159569715
 31
0.0
  0
LINE
  5
2DFE
  8
0
 10
265.6922528466195104
 20
28.0342631890301988
 30
0.0
 11
265.6922528472467206
 21
28.0319505159569715
 31
0.0
  0
ARC
  5
2DFF
  8
0
 10
265.6835044856326249
 20
28.0319505135843201
 30
0.0
 40
0.0087483616141757
 50
312.4712716214020247
 51
0.0000155392536148
  0
LINE
  5
2E00
  8
0
 10
265.6922528472467206
 20
28.0319505159569715
 30
0.0
 11
265.7005209449557128
 21
28.0319505181993698
 31
0.0
  0
LINE
  5
2E01
  8
0
 10
265.6909204141549026
 20
28.0251063662955993
 30
0.0
 11
265.7188232582714136
 21
28.0251063739518109
 31
0.0
  0
ARC
  5
2E02
  8
0
 10
265.6712536361017101
 20
28.0153398497804815
 30
0.0
 40
0.0017708252187321
 50
270.0000155392575039
 51
308.8238860937336199
  0
ARC
  5
2E03
  8
0
 10
265.6724258206771196
 20
28.0205493779034214
 30
0.0
 40
0.0065894284592988
 50
269.4608650237266261
 51
303.2206177925261272
  0
LINE
  5
2E04
  8
0
 10
265.6760359332628809
 20
28.0150368780587584
 30
0.0
 11
265.6909204141049941
 21
28.025106366395601
 31
0.0
  0
ARC
  5
2E05
  8
0
 10
265.6908510489611785
 20
28.0279441497260215
 30
0.0
 40
0.0028386309646651
 50
239.5286547937272132
 51
271.4002262575990017
  0
LINE
  5
2E06
  8
0
 10
265.6708549977774965
 20
28.0135690244536306
 30
0.0
 11
265.6857399825120183
 21
28.0034978739432283
 31
0.0
  0
ARC
  5
2E07
  8
0
 10
265.6892535321513265
 20
28.0086908390063307
 30
0.0
 40
0.0062699216274807
 50
235.9177977511234872
 51
271.4442841987806787
  0
ARC
  5
2E08
  8
0
 10
265.690851055269377
 20
28.0048694767260216
 30
0.0
 40
0.0028386309646651
 50
239.5286547937272132
 51
271.4002262575990017
  0
LINE
  5
2E09
  8
0
 10
265.6795953470738141
 20
28.0174420101070787
 30
0.0
 11
265.6922528535047832
 21
28.0088758430569804
 31
0.0
  0
LINE
  5
2E0A
  8
0
 10
265.6922528491028856
 20
28.0251063667569689
 30
0.0
 11
265.6922528535047832
 21
28.0088758430569804
 31
0.0
  0
ARC
  5
2E0B
  8
0
 10
265.6835044918906874
 20
28.0088758406843183
 30
0.0
 40
0.0087483616141757
 50
312.4712716214020247
 51
0.0000155392536148
  0
LINE
  5
2E0C
  8
0
 10
265.6922528535047832
 20
28.0088758430569804
 30
0.0
 11
265.720665760354791
 21
28.0088758507628697
 31
0.0
  0
LINE
  5
2E0D
  8
0
 10
265.720665760354791
 20
28.0088758507628697
 30
0.0
 11
265.7206657561935117
 21
28.0242196050712096
 31
0.0
  0
LINE
  5
2E0E
  8
0
 10
265.6909204204130219
 20
28.0020316933956011
 30
0.0
 11
265.7223968722111067
 21
28.0020317020323688
 31
0.0
  0
ARC
  5
2E0F
  8
0
 10
265.7222825483635802
 20
28.0041269504830304
 30
0.0
 40
0.0020983650807516
 50
273.1231547420185279
 51
305.7007377092468232
  0
ARC
  5
2E10
  8
0
 10
265.7291815721276862
 20
28.0087734590358508
 30
0.0
 40
0.0085164273153424
 50
179.3111248481733924
 51
228.2176499527132023
  0
LINE
  5
2E11
  8
0
 10
265.7271791688920075
 20
28.003499555395539
 30
0.0
 11
265.7400848036007233
 21
28.012230336103169
 31
0.0
  0
LINE
  5
2E12
  8
0
 10
265.720665760354791
 20
28.0088758507290301
 30
0.0
 11
265.7329905193897162
 21
28.0172168355670586
 31
0.0
  0
ARC
  5
2E13
  8
0
 10
265.7235644840193913
 20
28.0090463182908493
 30
0.0
 40
0.0066236487445103
 50
269.5032032100846777
 51
303.1315359962731009
  0
ARC
  5
2E14
  8
0
 10
265.6712536424099085
 20
27.9922651767804815
 30
0.0
 40
0.0017708252187321
 50
270.0000155392575039
 51
308.8238860937336199
  0
ARC
  5
2E15
  8
0
 10
265.6724258269850907
 20
27.9974747049034285
 30
0.0
 40
0.0065894284592988
 50
269.4608650237266261
 51
303.2206177925261272
  0
LINE
  5
2E16
  8
0
 10
265.6760359395710225
 20
27.9919622050587584
 30
0.0
 11
265.6909204204130219
 21
28.0020316933956011
 31
0.0
  0
LINE
  5
2E17
  8
0
 10
265.6697218685848725
 20
27.9973385004463218
 30
0.0
 11
265.6821800326890752
 21
28.0059046743105604
 31
0.0
  0
ARC
  5
2E18
  8
0
 10
265.690851055269377
 20
28.0048694767260216
 30
0.0
 40
0.0028386309646651
 50
239.5286547937272132
 51
271.4002262575990017
  0
LINE
  5
2E19
  8
0
 10
265.6708550040855812
 20
27.9904943514536306
 30
0.0
 11
265.685739988820103
 21
27.980423200943239
 31
0.0
  0
ARC
  5
2E1A
  8
0
 10
265.6892535384594112
 20
27.9856161660063307
 30
0.0
 40
0.0062699216274807
 50
235.9177977511234872
 51
271.4442841987806787
  0
ARC
  5
2E1B
  8
0
 10
265.6908510615775185
 20
27.9817948037260216
 30
0.0
 40
0.0028386309646651
 50
239.5286547937272132
 51
271.4002262575990017
  0
LINE
  5
2E1C
  8
0
 10
265.6795953533818988
 20
27.9943673371070894
 30
0.0
 11
265.6922528598129247
 21
27.9858011700569698
 31
0.0
  0
LINE
  5
2E1D
  8
0
 10
265.6922528554110841
 20
28.0020316937569689
 30
0.0
 11
265.6922528598129816
 21
27.9858011700569698
 31
0.0
  0
ARC
  5
2E1E
  8
0
 10
265.6835044981987721
 20
27.9858011676843184
 30
0.0
 40
0.0087483616141757
 50
312.4712716214020247
 51
0.0000155392536148
  0
LINE
  5
2E1F
  8
0
 10
265.6922528598129816
 20
27.9858011700569698
 30
0.0
 11
265.7206657666629894
 21
27.9858011777628803
 31
0.0
  0
LINE
  5
2E20
  8
0
 10
265.7206657666629894
 20
27.9858011777628803
 30
0.0
 11
265.7206657622609782
 21
28.0020317014628688
 31
0.0
  0
LINE
  5
2E21
  8
0
 10
265.6909204267212203
 20
27.9789570203956011
 30
0.0
 11
265.7223968785190777
 21
27.9789570290323688
 31
0.0
  0
ARC
  5
2E22
  8
0
 10
265.7222825546717218
 20
27.9810522774830304
 30
0.0
 40
0.0020983650807516
 50
273.1231547420185279
 51
305.7007377092468232
  0
ARC
  5
2E23
  8
0
 10
265.7291815784358846
 20
27.9856987860358508
 30
0.0
 40
0.0085164273153424
 50
179.3111248481733924
 51
228.2176499527132023
  0
LINE
  5
2E24
  8
0
 10
265.7271791752000922
 20
27.980424882395539
 30
0.0
 11
265.7420636560420917
 21
27.9904943707323817
 31
0.0
  0
LINE
  5
2E25
  8
0
 10
265.7206657666629894
 20
27.9858011777290407
 30
0.0
 11
265.7333232683182018
 21
27.994367351647341
 31
0.0
  0
ARC
  5
2E26
  8
0
 10
265.7235644903274761
 20
27.9859716452908494
 30
0.0
 40
0.0066236487445103
 50
269.5032032100846777
 51
303.1315359962731009
  0
LINE
  5
2E27
  8
0
 10
265.7219982334565884
 20
28.0020317017742499
 30
0.0
 11
265.7368832181909966
 21
27.9919605512638512
 31
0.0
  0
LINE
  5
2E28
  8
0
 10
265.7307385827527924
 20
28.0059046874277016
 30
0.0
 11
265.7435954266777003
 21
27.9973385204688689
 31
0.0
  0
ARC
  5
2E29
  8
0
 10
265.7405200703880723
 20
27.9975616614650384
 30
0.0
 40
0.0066801767137991
 50
236.9523503384783112
 51
272.008002431846478
  0
LINE
  5
2E2A
  8
0
 10
265.6562543041677031
 20
28.0434878427441916
 30
0.0
 11
265.641308949068673
 21
28.0434878386904209
 31
0.0
  0
LINE
  5
2E2B
  8
0
 10
265.6413089489145136
 20
28.0434878386904209
 30
0.0
 11
265.6413089480178087
 21
28.0467746917347611
 31
0.0
  0
ARC
  5
2E2C
  8
0
 10
265.632711787633923
 20
28.0434212743631583
 30
0.0
 40
0.0085974288624026
 50
312.027534294987106
 51
0.443564401419879
  0
LINE
  5
2E2D
  8
0
 10
265.6384676614709974
 20
28.0370349049198317
 30
0.0
 11
265.6212205814969138
 21
28.0254975636922197
 31
0.0
  0
LINE
  5
2E2E
  8
0
 10
265.6712536365819801
 20
28.0135690245617504
 30
0.0
 11
265.6397771846840214
 21
28.0135690159911412
 31
0.0
  0
ARC
  5
2E2F
  8
0
 10
265.6400915126844779
 20
28.0178866408339218
 30
0.0
 40
0.0043290514405467
 50
245.0927307960222095
 51
265.8361478472155
  0
LINE
  5
2E30
  8
0
 10
265.6413089571830142
 20
28.0135690164082192
 30
0.0
 11
265.6413089615849117
 21
27.9973384927904192
 31
0.0
  0
ARC
  5
2E31
  8
0
 10
265.6325388192680066
 20
27.9973480806592612
 30
0.0
 40
0.0087701475578752
 50
312.5339253573330893
 51
359.9373613229641933
  0
ARC
  5
2E32
  8
0
 10
265.6398717609188225
 20
27.9931981832164887
 30
0.0
 40
0.0027054934795455
 50
238.7363579910995099
 51
267.9968321905711832
  0
LINE
  5
2E33
  8
0
 10
265.6397771910660026
 20
27.9904943430749817
 30
0.0
 11
265.6712536428901217
 21
27.9904943515617504
 31
0.0
  0
ARC
  5
2E34
  8
0
 10
265.6793900186551127
 20
27.9975295277200509
 30
0.0
 40
0.0096700370826458
 50
181.1319259268892097
 51
223.3983515155931059
  0
LINE
  5
2E35
  8
0
 10
265.6697218685848725
 20
27.9973385004463218
 30
0.0
 11
265.669721864182975
 21
28.0135690241963182
 31
0.0
  0
LINE
  5
2E36
  8
0
 10
265.6697218685848725
 20
27.9973385004964292
 30
0.0
 11
265.6413089615849117
 21
27.9973384927905293
 31
0.0
  0
LINE
  5
2E37
  8
0
 10
265.6697218704410943
 20
27.990494351148751
 30
0.0
 11
265.6697218748429918
 21
27.9742638274963191
 31
0.0
  0
LINE
  5
2E38
  8
0
 10
265.6697218748429918
 20
27.9742638274963191
 30
0.0
 11
265.6822810903527738
 21
27.9827634846375588
 31
0.0
  0
LINE
  5
2E39
  8
0
 10
265.6697218748429918
 20
27.9742638274963191
 30
0.0
 11
265.6413089678429742
 21
27.9742638197904192
 31
0.0
  0
LINE
  5
2E3A
  8
0
 10
265.6413089678429742
 20
27.9742638197904192
 30
0.0
 11
265.6413089634410767
 21
27.9904943434904183
 31
0.0
  0
ARC
  5
2E3B
  8
0
 10
265.6327657825491997
 20
27.9741734763047916
 30
0.0
 40
0.0085436629678018
 50
311.865412578246378
 51
0.6058755977743513
  0
ARC
  5
2E3C
  8
0
 10
265.6399143251375108
 20
27.9702659632259909
 30
0.0
 40
0.0028495944741131
 50
239.4914207313225063
 51
267.241753238163426
  0
LINE
  5
2E3D
  8
0
 10
265.6397771973740873
 20
27.96741967017498
 30
0.0
 11
265.6714529865992063
 21
27.9674196787658111
 31
0.0
  0
ARC
  5
2E3E
  8
0
 10
265.6714529861189931
 20
27.9691905046209683
 30
0.0
 40
0.0017708258551545
 50
270.0000155392672241
 51
308.8238736764920986
  0
ARC
  5
2E3F
  8
0
 10
265.6784486474899722
 20
27.9742543240125983
 30
0.0
 40
0.0087267778216938
 50
179.937604734966186
 51
227.5911700660500117
  0
LINE
  5
2E40
  8
0
 10
265.6908462942203073
 20
27.9787720156254913
 30
0.0
 11
265.6762385705575866
 21
27.9688857515557707
 31
0.0
  0
ARC
  5
2E41
  8
0
 10
265.6727257859932934
 20
27.9740761638126614
 30
0.0
 40
0.0062673786220229
 50
268.5131884410640737
 51
304.0894872913518725
  0
LINE
  5
2E42
  8
0
 10
265.6697218766992137
 20
27.96741967829632
 30
0.0
 11
265.6697218811011112
 21
27.9511891545963209
 31
0.0
  0
LINE
  5
2E43
  8
0
 10
265.6697218811011112
 20
27.9511891545963209
 30
0.0
 11
265.6413089741010936
 21
27.951189146890421
 31
0.0
  0
LINE
  5
2E44
  8
0
 10
265.6413089741010936
 20
27.951189146890421
 30
0.0
 11
265.641308969699196
 21
27.9674196705904201
 31
0.0
  0
ARC
  5
2E45
  8
0
 10
265.6325388322337062
 20
27.9511987345612205
 30
0.0
 40
0.0087701471081207
 50
312.533924068411693
 51
359.9373632876681768
  0
ARC
  5
2E46
  8
0
 10
265.6398657501734988
 20
27.9470286752249599
 30
0.0
 40
0.002685138415417
 50
238.6229453613900944
 51
268.1102378193235154
  0
LINE
  5
2E47
  8
0
 10
265.6397772034583227
 20
27.9443449971911484
 30
0.0
 11
265.6714542267573052
 21
27.94434502256615
 31
0.0
  0
ARC
  5
2E48
  8
0
 10
265.6713383716439125
 20
27.9464408244885689
 30
0.0
 40
0.0020990016925475
 50
273.1640680250084756
 51
305.6982493458486942
  0
ARC
  5
2E49
  8
0
 10
265.6784517034548116
 20
27.9511809939298388
 30
0.0
 40
0.0087298261680478
 50
179.9464397335632952
 51
227.5823350673713037
  0
LINE
  5
2E4A
  8
0
 10
265.6823272046877946
 20
27.9597200160428194
 30
0.0
 11
265.6697218811011112
 21
27.9511891545963209
 31
0.0
  0
ARC
  5
2E4B
  8
0
 10
265.6726254431467851
 20
27.9513444188229805
 30
0.0
 40
0.006608489835399
 50
269.4601129901524246
 51
303.1613566281556018
  0
LINE
  5
2E4C
  8
0
 10
265.6762402787593942
 20
27.9458122310641812
 30
0.0
 11
265.6909977871169986
 21
27.955882347566579
 31
0.0
  0
LINE
  5
2E4D
  8
0
 10
265.5799946378929235
 20
27.9366141110124993
 30
0.0
 11
265.5674354222592228
 21
27.9281144537874013
 31
0.0
  0
ARC
  5
2E4E
  8
0
 10
265.5703389838993189
 20
27.9282697192599585
 30
0.0
 40
0.0066084910435841
 50
269.4601166054424084
 51
303.1613539841904981
  0
LINE
  5
2E4F
  8
0
 10
265.5739538199175058
 20
27.9227375303229408
 30
0.0
 11
265.5888332009844248
 21
27.9328076469583984
 31
0.0
  0
LINE
  5
2E50
  8
0
 10
265.5687679629539275
 20
27.9212703050164812
 30
0.0
 11
265.5824869485334716
 21
27.9119857652372296
 31
0.0
  0
ARC
  5
2E51
  8
0
 10
265.584562318375788
 20
27.9171281800073103
 30
0.0
 40
0.0055454115852653
 50
248.022039094258588
 51
354.8611060489849933
  0
LINE
  5
2E52
  8
0
 10
265.5900854401349989
 20
27.9166314751824913
 30
0.0
 11
265.5775083813060178
 21
27.9251431981130587
 31
0.0
  0
LINE
  5
2E53
  8
0
 10
265.5900870254864117
 20
27.9328076471984517
 30
0.0
 11
265.5900854401734819
 21
27.9166314751980202
 31
0.0
  0
LINE
  5
2E54
  8
0
 10
265.5263650152941182
 20
27.9136059403163195
 30
0.0
 11
265.5338813608736928
 21
27.9085191348548491
 31
0.0
  0
LINE
  5
2E55
  8
0
 10
265.533882991714222
 20
27.9186938553177484
 30
0.0
 11
265.5338829926146218
 21
27.9085180305484712
 31
0.0
  0
ARC
  5
2E56
  8
0
 10
265.5297339485845214
 20
27.9085180301813516
 30
0.0
 40
0.0041490440300259
 50
296.5016929152328089
 51
0.0000050695841188
  0
ARC
  5
2E57
  8
0
 10
265.5273329696042879
 20
27.9133332927080815
 30
0.0
 40
0.009529699497983
 50
267.7920580450215198
 51
296.5016929152362763
  0
LINE
  5
2E58
  8
0
 10
265.5269658253537273
 20
27.9038106681947902
 30
0.0
 11
265.5176057012848787
 21
27.9097329546406989
 31
0.0
  0
LINE
  5
2E59
  8
0
 10
265.5338829925858022
 20
27.9088432730552896
 30
0.0
 11
265.5782501485682019
 21
27.9148520048285285
 31
0.0
  0
LINE
  5
2E5A
  8
0
 10
265.5900870294859146
 20
27.9169546351984508
 30
0.0
 11
265.6301338160540126
 21
27.9258893336231111
 31
0.0
  0
LINE
  5
2E5B
  8
0
 10
265.6201845585364936
 20
27.9326226505612389
 30
0.0
 11
265.633711758480672
 21
27.9234679046568992
 31
0.0
  0
ARC
  5
2E5C
  8
0
 10
265.635479058164492
 20
27.9260792951241399
 30
0.0
 40
0.0031532060422646
 50
235.911203261891302
 51
277.5163701459204049
  0
ARC
  5
2E5D
  8
0
 10
265.6351565234677992
 20
27.9285237921601812
 30
0.0
 40
0.0056188893937467
 50
277.5163701459171079
 51
359.5097346505045266
  0
LINE
  5
2E5E
  8
0
 10
265.6407752071613118
 20
27.9284757133456516
 30
0.0
 11
265.6285497224758956
 21
27.93674950293072
 31
0.0
  0
LINE
  5
2E5F
  8
0
 10
265.6407767964573168
 20
27.9443449974460911
 30
0.0
 11
265.6407752067767092
 21
27.9284756744145604
 31
0.0
  0
LINE
  5
2E60
  8
0
 10
265.6407752388576
 20
27.9287959280058082
 30
0.0
 11
265.6765138132153083
 21
27.9406502764994293
 31
0.0
  0
LINE
  5
2E61
  8
0
 10
265.6713277880074884
 20
27.9441600008318609
 30
0.0
 11
265.6798310463682924
 21
27.9384050081380408
 31
0.0
  0
ARC
  5
2E62
  8
0
 10
265.6809513170408081
 20
27.9400602580174606
 30
0.0
 40
0.0019987142224568
 50
235.9099162586151976
 51
301.4107067677575742
  0
ARC
  5
2E63
  8
0
 10
265.6775986759882926
 20
27.9455504585028294
 30
0.0
 40
0.0084316376167486
 50
301.4107067677580858
 51
349.9896094923323062
  0
LINE
  5
2E64
  8
0
 10
265.6859019524277983
 20
27.9440848141845386
 30
0.0
 11
265.679857275395193
 21
27.9481756447477991
 31
0.0
  0
LINE
  5
2E65
  8
0
 10
265.685901952427912
 20
27.9440848141845386
 30
0.0
 11
265.6859035961957147
 21
27.9521264245672789
 31
0.0
  0
LINE
  5
2E66
  8
0
 10
265.743595426584875
 20
27.9973385204288512
 30
0.0
 11
265.7435954232557265
 21
28.0094612938504213
 31
0.0
  0
ARC
  5
2E67
  8
0
 10
265.7351356454968823
 20
27.9972114533571386
 30
0.0
 40
0.0084607353165534
 50
311.6107609286343063
 51
0.8605257541479865
  0
ARC
  5
2E68
  8
0
 10
265.7422108886503906
 20
27.9933744879768014
 30
0.0
 40
0.0028838780803933
 50
239.6596105510147936
 51
267.0735669964872727
  0
LINE
  5
2E69
  8
0
 10
265.7420636560420917
 20
27.9904943707323817
 30
0.0
 11
265.7613649471896906
 21
27.9901111353774716
 31
0.0
  0
LINE
  5
2E6A
  8
0
 10
265.7420636518197057
 20
27.9904943708162186
 30
0.0
 11
265.7413274735267237
 21
27.9757987248165598
 31
0.0
  0
LINE
  5
2E6B
  8
0
 10
265.7413274735267237
 20
27.9757987248165598
 30
0.0
 11
265.7308383703013988
 21
27.9829003615732113
 31
0.0
  0
ARC
  5
2E6C
  8
0
 10
265.7321221383091938
 20
27.9762868884310585
 30
0.0
 40
0.0092182699125582
 50
318.6377460829377242
 51
356.9644190919304947
  0
ARC
  5
2E6D
  8
0
 10
265.7359225312167155
 20
27.9729408384611098
 30
0.0
 40
0.0041547694778673
 50
290.1722886692865018
 51
318.6377460829340862
  0
ARC
  5
2E6E
  8
0
 10
265.737120374686981
 20
27.9696803298561711
 30
0.0
 40
0.0006811913022014
 50
236.4199280694207914
 51
290.1722886693003147
  0
LINE
  5
2E6F
  8
0
 10
265.736743606540017
 20
27.9691128200733594
 30
0.0
 11
265.7219156949190051
 21
27.9789570288518696
 31
0.0
  0
LINE
  5
2E70
  8
0
 10
265.7228240977142946
 20
27.9783539427935892
 30
0.0
 11
265.7228204376676786
 21
27.9627272740939503
 31
0.0
  0
LINE
  5
2E71
  8
0
 10
265.7228240752850184
 20
27.9630474482982301
 30
0.0
 11
265.7343143193708102
 21
27.9707256169855398
 31
0.0
  0
ARC
  5
2E72
  8
0
 10
265.7147595797558211
 20
27.9634512755143696
 30
0.0
 40
0.0080933577688033
 50
290.7391629482036137
 51
354.862210299953972
  0
LINE
  5
2E73
  8
0
 10
265.7176255523282862
 20
27.9558823494883306
 30
0.0
 11
265.6909977871169986
 21
27.955882347566579
 31
0.0
  0
ARC
  5
2E74
  8
0
 10
265.6910237043232996
 20
27.9586280860304903
 30
0.0
 40
0.0027458607782905
 50
239.0348786683063054
 51
269.4591974230191909
  0
ARC
  5
2E75
  8
0
 10
265.6895826917631211
 20
27.9630907401483206
 30
0.0
 40
0.0068172350780061
 50
244.7071624032473949
 51
270.2372002114248062
  0
LINE
  5
2E76
  8
0
 10
265.6866700632328957
 20
27.9569270327287391
 30
0.0
 11
265.6703548650791049
 21
27.9674196784679907
 31
0.0
  0
LINE
  5
2E77
  8
0
 10
265.6924521990700896
 20
27.9789570208610314
 30
0.0
 11
265.6924522034719871
 21
27.9627264972610412
 31
0.0
  0
LINE
  5
2E78
  8
0
 10
265.6924522034719871
 20
27.9627264972610412
 30
0.0
 11
265.6797948341413189
 21
27.9712925715163294
 31
0.0
  0
LINE
  5
2E79
  8
0
 10
265.6924522034719871
 20
27.9627264972610412
 30
0.0
 11
265.7228204376676786
 21
27.9627272740939503
 31
0.0
  0
ARC
  5
2E7A
  8
0
 10
265.6843102291849732
 20
27.9624825604535197
 30
0.0
 40
0.0081456276544431
 50
310.3364925660414997
 51
1.716091141325357
  0
LINE
  5
2E7B
  8
0
 10
265.6859035965359226
 20
27.9444089440229604
 30
0.0
 11
265.7102905630284226
 21
27.9558816859989996
 31
0.0
  0
ARC
  5
2E7C
  8
0
 10
265.6674148132073014
 20
28.0674972439625208
 30
0.0
 40
0.1175272554503066
 50
308.9794277120241759
 51
318.8874960055238148
  0
LINE
  5
2E7D
  8
0
 10
265.6723638056046752
 20
28.0370349141128408
 30
0.0
 11
265.6384676614709974
 21
28.0370349049198317
 31
0.0
  0
ARC
  5
2E7E
  8
0
 10
265.6783994425480842
 20
28.043456685836059
 30
0.0
 40
0.008677642500535
 50
202.8672464148112056
 51
227.7235844065855872
  0
ARC
  5
2E7F
  8
0
 10
265.1569425806591198
 20
27.2660031832954495
 30
0.0
 40
0.9275532082200582
 50
54.9663372891141222
 51
56.2278293589099292
  0
LINE
  5
2E80
  8
0
 10
265.7435954738713804
 20
27.9973384410981083
 30
0.0
 11
265.7563080921635219
 21
27.9973700404299812
 31
0.0
  0
ARC
  5
2E81
  8
0
 10
265.5845821881508755
 20
27.5802003386560699
 30
0.0
 40
0.4738416839730395
 50
60.234275471225601
 51
87.6706009168123046
  0
LINE
  5
2E82
  8
0
 10
265.2623989684042272
 20
28.2219097664067391
 30
0.0
 11
265.6375505845041971
 21
28.2219097664067391
 31
0.0
  0
LINE
  5
2E83
  8
0
 10
264.5146011395041228
 20
30.5393356198696715
 30
0.0
 11
264.5146011395041228
 21
29.2397108905696683
 31
0.0
  0
LINE
  5
2E84
  8
0
 10
264.5146011395041228
 20
29.0572347432696709
 30
0.0
 11
264.5146011395041228
 21
26.1337547137696689
 31
0.0
  0
LINE
  5
2E85
  8
0
 10
264.9775088556041283
 20
28.2344161241696803
 30
0.0
 11
264.9776507111438946
 21
27.9799623434699285
 31
0.0
  0
LINE
  5
2E86
  8
0
 10
265.2623989684042272
 20
28.2219097664067391
 30
0.0
 11
265.2623989684199728
 21
28.1036865012360586
 31
0.0
  0
LINE
  5
2E87
  8
0
 10
264.5539653001040961
 20
29.0962762488696711
 30
0.0
 11
264.6846938784132135
 21
29.096275642969669
 31
0.0
  0
ARC
  5
2E88
  8
0
 10
265.453208619906377
 20
23.1474653463204696
 30
0.0
 40
7.4857170322707187
 50
90.0171027285797436
 51
96.9357159748522719
  0
ARC
  5
2E89
  8
0
 10
264.7817305432424746
 20
29.0604604368375412
 30
0.0
 40
0.0392335755704503
 50
95.8401458656160656
 51
179.8366681169273136
  0
ARC
  5
2E8A
  8
0
 10
264.8081736127124941
 20
30.53874543260401
 30
0.0
 40
0.0399211905804174
 50
96.5775546737169464
 51
194.374427385123397
  0
ARC
  5
2E8B
  8
0
 10
265.5061256907042093
 20
29.0963706584696702
 30
0.0
 40
0.8661417323
 50
173.1643271190999087
 51
180.0062783688998991
  0
ARC
  5
2E8C
  8
0
 10
264.5538606967515989
 20
29.0570162228306401
 30
0.0
 40
0.0392601653899526
 50
89.8473430344240995
 51
179.6810924402228125
  0
ARC
  5
2E8D
  8
0
 10
264.7070024258740091
 20
29.7987040479293483
 30
0.0
 40
0.7027825662208845
 50
268.1809446740069802
 51
275.776675647431091
  0
ARC
  5
2E8E
  8
0
 10
265.6689766286826853
 20
18.1825143590540392
 30
0.0
 40
10.9532949818166898
 50
93.7070746144110984
 51
94.6671530320868015
  0
ARC
  5
2E8F
  8
0
 10
265.4652173670090747
 20
23.8324885132157789
 30
0.0
 40
5.3044418408037277
 50
92.101076993576811
 51
95.4568515407526519
  0
ARC
  5
2E90
  8
0
 10
265.4883954159030282
 20
22.0541265213225088
 30
0.0
 40
7.0825827633133942
 50
90.3027272871217548
 51
91.7610116889763532
  0
ARC
  5
2E91
  8
0
 10
265.144532930399123
 20
27.9902268309929987
 30
0.0
 40
0.0624212857206693
 50
178.8087236737877106
 51
238.9634946070339083
  0
ARC
  5
2E92
  8
0
 10
265.3034996946022943
 20
28.2436317147787292
 30
0.0
 40
0.3615519173296741
 50
238.0827705209491967
 51
260.8093582285977732
  0
ARC
  5
2E93
  8
0
 10
265.4230030702855174
 20
28.7771015196267612
 30
0.0
 40
0.9078516985629024
 50
258.7411616067561226
 51
264.9386106753373156
  0
ARC
  5
2E94
  8
0
 10
265.4482873440875892
 20
29.0395106277134083
 30
0.0
 40
1.1714700300938079
 50
264.8390729048394974
 51
270.1314094945000193
  0
ARC
  5
2E95
  8
0
 10
265.1099239229728823
 20
27.9428624347937813
 30
0.0
 40
0.0560426363069942
 50
119.7376428584406938
 51
179.9857652155363041
  0
ARC
  5
2E96
  8
0
 10
265.1353284819356873
 20
27.9721014594894193
 30
0.0
 40
0.0865317969215772
 50
199.7391383318831117
 51
247.0384876159895953
  0
ARC
  5
2E97
  8
0
 10
265.3088129683134184
 20
28.3177946795494115
 30
0.0
 40
0.4731677908460462
 50
244.0244456006666098
 51
260.3387389901034226
  0
ARC
  5
2E98
  8
0
 10
265.4292871274020058
 20
28.9027410642111491
 30
0.0
 40
1.070234534815619
 50
259.2359364960445873
 51
266.6290500268194137
  0
ARC
  5
2E99
  8
0
 10
265.4488045657960242
 20
29.1586769067340406
 30
0.0
 40
1.3268825897149199
 50
266.4375612080751239
 51
270.0936839362458954
  0
ARC
  5
2E9A
  8
0
 10
265.2338488381191723
 20
27.9173566526348402
 30
0.0
 40
0.1190920135780531
 50
104.2752356830697948
 51
141.2196073710431108
  0
ARC
  5
2E9B
  8
0
 10
265.4170822857781786
 20
27.2998042198421587
 30
0.0
 40
0.7631770979018532
 50
96.226400223085875
 51
106.1749491925565962
  0
ARC
  5
2E9C
  8
0
 10
265.4484513987865171
 20
27.0654122496150684
 30
0.0
 40
0.9996052353627991
 50
92.117150486392859
 51
96.5567005898415829
  0
ARC
  5
2E9D
  8
0
 10
265.4509759317476778
 20
27.0138093216027109
 30
0.0
 40
1.051266382356395
 50
90.0000975739997955
 51
92.1507481025157915
  0
ARC
  5
2E9E
  8
0
 10
265.4429286518046069
 20
28.876701584742559
 30
0.0
 40
1.005973627387726
 50
258.683117372820675
 51
270.4582401594441876
  0
ARC
  5
2E9F
  8
0
 10
265.3073847110679822
 20
28.2197021867544606
 30
0.0
 40
0.3351735292632925
 50
236.0960525653933075
 51
259.3638673880727197
  0
ARC
  5
2EA0
  8
0
 10
265.1399947181473067
 20
27.9711128684491293
 30
0.0
 40
0.035481366573584
 50
137.1797848679825904
 51
236.5249937834510092
  0
ARC
  5
2EA1
  8
0
 10
265.2103108993907767
 20
27.9053987102579306
 30
0.0
 40
0.1317241396173685
 50
112.3668409241599022
 51
137.0028542796252964
  0
ARC
  5
2EA2
  8
0
 10
265.2064597789985214
 20
28.0169352796258195
 30
0.0
 40
0.0950031180468599
 50
193.2072334153762938
 51
248.0269560674965135
  0
ARC
  5
2EA3
  8
0
 10
265.3574876790697203
 20
28.3538711508295194
 30
0.0
 40
0.4641848691187506
 50
246.300381124418692
 51
262.2635593025739809
  0
ARC
  5
2EA4
  8
0
 10
265.4460303631478837
 20
28.8842197666301317
 30
0.0
 40
1.001758759966296
 50
261.3287705966391172
 51
270.282761472051277
  0
ARC
  5
2EA5
  8
0
 10
265.4448869770549209
 20
28.8247252745446296
 30
0.0
 40
0.9388045063919676
 50
260.0494471921593913
 51
270.3715057509352846
  0
ARC
  5
2EA6
  8
0
 10
265.3363634580903181
 20
28.2564305937558409
 30
0.0
 40
0.3604106689155561
 50
240.8890021664780932
 51
261.4311767641817141
  0
ARC
  5
2EA7
  8
0
 10
265.1858165933882105
 20
27.9805656157058493
 30
0.0
 40
0.0462294770162618
 50
165.7458538807499053
 51
237.5661630926529995
  0
ARC
  5
2EA8
  8
0
 10
265.1005811697102104
 20
27.9983761565873586
 30
0.0
 40
0.1243019153386362
 50
188.51902512687289
 51
253.3773287841399053
  0
ARC
  5
2EA9
  8
0
 10
265.3076513548597859
 20
28.4456827374709711
 30
0.0
 40
0.6161927036794431
 50
246.811653759153586
 51
259.9768135618749056
  0
ARC
  5
2EAA
  8
0
 10
265.444397163023325
 20
26.8035971372512805
 30
0.0
 40
1.4299419767481809
 50
89.7366060488084401
 51
97.3122473179001588
  0
ARC
  5
2EAB
  8
0
 10
265.2897716714820717
 20
28.1120688557586007
 30
0.0
 40
0.0286274123920782
 50
197.0261819935630001
 51
258.7756320290217786
  0
ARC
  5
2EAC
  8
0
 10
265.3532926050730794
 20
28.3379218566615911
 30
0.0
 40
0.2631649149262963
 50
254.7787214705606118
 51
272.5042691630970921
  0
ARC
  5
2EAD
  8
0
 10
264.9783029144759894
 20
28.2278878966003504
 30
0.0
 40
0.0065763428050029
 50
96.9350861882031012
 51
264.0024884968893275
  0
ARC
  5
2EAE
  8
0
 10
265.1132239889358857
 20
27.7456112483567701
 30
0.0
 40
0.5072955785670876
 50
89.5012910275552827
 51
105.5171464406676023
  0
ARC
  5
2EAF
  8
0
 10
265.3698159859835073
 20
20.44539069510882
 30
0.0
 40
7.811568412607115
 50
90.5662672325522635
 51
91.8499690285117367
  0
ARC
  5
2EB0
  8
0
 10
265.4662934597939739
 20
17.4340524130957313
 30
0.0
 40
10.8239187028668198
 50
90.0810919411910476
 51
90.9194029100185759
  0
ARC
  5
2EB1
  8
0
 10
274.3980752624025854
 20
28.969170542429481
 30
0.0
 40
9.6560107396724852
 50
179.4576422813655086
 51
182.012005437935386
  0
ARC
  5
2EB2
  8
0
 10
265.5251901472145732
 20
28.6206245257651197
 30
0.0
 40
0.7772310989163939
 50
179.2971511802965949
 51
202.5127720132186937
  0
ARC
  5
2EB3
  8
0
 10
265.0463050833029115
 20
28.4604416635269395
 30
0.0
 40
0.2757868751443087
 50
209.8842527693589091
 51
255.559685361843691
  0
ARC
  5
2EB4
  8
0
 10
264.5540001250628279
 20
30.53929030727544
 30
0.0
 40
0.0393990116155503
 50
96.901389195660613
 51
179.9341044134295942
  0
ARC
  5
2EB5
  8
0
 10
264.5572795914657718
 20
29.2421971831344685
 30
0.0
 40
0.0427508118351103
 50
183.3340769766336962
 51
269.3234563865606788
  0
ARC
  5
2EB6
  8
0
 10
264.9167633573798071
 20
30.5725021396785408
 30
0.0
 40
0.1535991418874685
 50
196.5167027532467898
 51
252.9498091758665907
  0
ARC
  5
2EB7
  8
0
 10
265.1240834672025812
 20
31.2090676433214398
 30
0.0
 40
0.8230558795565602
 50
252.1449743424697942
 51
267.7112017211692887
  0
ARC
  5
2EB8
  8
0
 10
265.4659119414695851
 20
36.8208549627020503
 30
0.0
 40
6.4450877322000037
 50
266.6671130296966226
 51
269.8672052735499847
  0
ARC
  5
2EB9
  8
0
 10
257.1005419007024102
 20
106.6151605616755944
 30
0.0
 40
76.4259477293406633
 50
275.7847299629617055
 51
276.0133564244533204
  0
ARC
  5
2EBA
  8
0
 10
265.4813971841430771
 20
27.0838872039014795
 30
0.0
 40
3.5456870779744891
 50
90.4916207484767057
 51
96.0621545997824171
  0
ARC
  5
2EBB
  8
0
 10
265.0998760158171876
 20
27.9260412258438997
 30
0.0
 40
0.1335908381159926
 50
115.7953319422296943
 51
156.1947670796101022
  0
ARC
  5
2EBC
  8
0
 10
265.2720252689088056
 20
27.5557778082393803
 30
0.0
 40
0.5419057986287448
 50
101.681192536684506
 51
115.1474369464274048
  0
ARC
  5
2EBD
  8
0
 10
265.3212239602685827
 20
27.4624893818025306
 30
0.0
 40
0.6438898397092589
 50
95.24178167205379
 51
104.288609452115594
  0
LINE
  5
2EBE
  8
0
 10
265.4509741414540827
 20
28.0597183106694814
 30
0.0
 11
265.4350682513414768
 21
28.0597183149833391
 31
0.0
  0
ARC
  5
2EBF
  8
0
 10
265.4350682518218036
 20
28.0614891402020703
 30
0.0
 40
0.0017708252187321
 50
231.1761139062664085
 51
269.9999844607424961
  0
ARC
  5
2EC0
  8
0
 10
265.4338960672465078
 20
28.0666986683250101
 30
0.0
 40
0.0065894284592988
 50
236.7793822074739012
 51
270.5391349762733739
  0
LINE
  5
2EC1
  8
0
 10
265.430285954660576
 20
28.0611861684803507
 30
0.0
 11
265.4250105994033788
 21
28.0647549948841295
 31
0.0
  0
ARC
  5
2EC2
  8
0
 10
265.4281685847998915
 20
28.06651069307458
 30
0.0
 40
0.0086309336668483
 50
312.1275471261114944
 51
349.7728148905192143
  0
LINE
  5
2EC3
  8
0
 10
265.4509741414540827
 20
28.0434877870694805
 30
0.0
 11
265.4367993569396731
 21
28.04348779091384
 31
0.0
  0
LINE
  5
2EC4
  8
0
 10
265.4367993569396731
 20
28.04348779091384
 30
0.0
 11
265.4368001500887999
 21
28.0597190049302014
 31
0.0
  0
ARC
  5
2EC5
  8
0
 10
265.4338960609883884
 20
28.0436239954250084
 30
0.0
 40
0.0065894284592988
 50
236.7793822074739012
 51
270.5391349762733739
  0
LINE
  5
2EC6
  8
0
 10
265.4302859484025134
 20
28.038111495580349
 30
0.0
 11
265.415401467560514
 21
28.0481809839171916
 31
0.0
  0
LINE
  5
2EC7
  8
0
 10
265.4367993569396731
 20
28.04348779091384
 30
0.0
 11
265.4241418552844038
 21
28.052053964832151
 31
0.0
  0
LINE
  5
2EC8
  8
0
 10
265.4351934562914153
 20
28.05953331014938
 30
0.0
 11
265.4205819054615745
 21
28.0496471644648189
 31
0.0
  0
ARC
  5
2EC9
  8
0
 10
265.4170683558222095
 20
28.0548401295279106
 30
0.0
 40
0.0062699216274807
 50
268.5557158012193213
 51
304.0822022488763992
  0
ARC
  5
2ECA
  8
0
 10
265.4154708327042158
 20
28.0510187672476086
 30
0.0
 40
0.0028386309646651
 50
268.599773742401112
 51
300.471345206272872
  0
LINE
  5
2ECB
  8
0
 10
265.4258523898823228
 20
28.0629997051447297
 30
0.0
 11
265.4140690344686959
 21
28.0550251335785603
 31
0.0
  0
LINE
  5
2ECC
  8
0
 10
265.4140690370188054
 20
28.0644276575335816
 30
0.0
 11
265.4140690344686959
 21
28.0550251335785603
 31
0.0
  0
ARC
  5
2ECD
  8
0
 10
265.4228173960829054
 20
28.0550251312059089
 30
0.0
 40
0.0087483616141757
 50
179.9999844607463899
 51
227.5287283785980037
  0
ARC
  5
2ECE
  8
0
 10
265.4281685785417721
 20
28.0434360201745783
 30
0.0
 40
0.0086309336668483
 50
312.1275471261114944
 51
0.343678072832553
  0
LINE
  5
2ECF
  8
0
 10
265.4339580645745968
 20
28.0370348587420004
 30
0.0
 11
265.4509741414540827
 21
28.0370348541270502
 31
0.0
  0
LINE
  5
2ED0
  8
0
 10
265.4509741414540827
 20
27.9973384411694788
 30
0.0
 11
265.4367993444735134
 21
27.9973384450138383
 31
0.0
  0
LINE
  5
2ED1
  8
0
 10
265.4367993444735134
 20
27.9973384450138383
 30
0.0
 11
265.4368001376225834
 21
28.0135696590301997
 31
0.0
  0
ARC
  5
2ED2
  8
0
 10
265.4338960485221719
 20
27.9974746495250102
 30
0.0
 40
0.0065894284592988
 50
236.7793822074739012
 51
270.5391349762733739
  0
LINE
  5
2ED3
  8
0
 10
265.4302859359362969
 20
27.9919621496803508
 30
0.0
 11
265.4154014550942975
 21
28.0020316380171899
 31
0.0
  0
LINE
  5
2ED4
  8
0
 10
265.4367993444735134
 20
27.9973384450138383
 30
0.0
 11
265.4241418428181873
 21
28.0059046189321492
 31
0.0
  0
LINE
  5
2ED5
  8
0
 10
265.435466877729823
 20
28.0135689690752301
 30
0.0
 11
265.4205818929954148
 21
28.0034978185648207
 31
0.0
  0
ARC
  5
2ED6
  8
0
 10
265.417068343355993
 20
28.0086907836279195
 30
0.0
 40
0.0062699216274807
 50
268.5557158012193213
 51
304.0822022488763992
  0
ARC
  5
2ED7
  8
0
 10
265.4154708202379993
 20
28.0048694213476104
 30
0.0
 40
0.0028386309646651
 50
268.599773742401112
 51
300.471345206272872
  0
LINE
  5
2ED8
  8
0
 10
265.4277699379539968
 20
28.0181480985731817
 30
0.0
 11
265.4140690220024794
 21
28.0088757876785586
 31
0.0
  0
LINE
  5
2ED9
  8
0
 10
265.4140690264043769
 20
28.0251063112785594
 30
0.0
 11
265.4140690220024794
 21
28.0088757876785586
 31
0.0
  0
ARC
  5
2EDA
  8
0
 10
265.4228173836166889
 20
28.0088757853059107
 30
0.0
 40
0.0087483616141757
 50
179.999984460746191
 51
227.5287283785980037
  0
ARC
  5
2EDB
  8
0
 10
265.4281685660756125
 20
27.9972866742745907
 30
0.0
 40
0.0086309336668483
 50
312.1275471261114944
 51
0.343678072832553
  0
LINE
  5
2EDC
  8
0
 10
265.4339580521083803
 20
27.9908855128419987
 30
0.0
 11
265.4509741414540827
 21
27.9908855082270485
 31
0.0
  0
LINE
  5
2EDD
  8
0
 10
265.4509741414540827
 20
27.9742637682694806
 30
0.0
 11
265.4367993382153941
 21
27.9742637721138401
 31
0.0
  0
LINE
  5
2EDE
  8
0
 10
265.4367993382153941
 20
27.9742637721138401
 30
0.0
 11
265.4368001313645209
 21
27.9904949861301908
 31
0.0
  0
ARC
  5
2EDF
  8
0
 10
265.4338960422641094
 20
27.9743999766250191
 30
0.0
 40
0.0065894284592988
 50
236.7793822074739012
 51
270.5391349762733739
  0
LINE
  5
2EE0
  8
0
 10
265.4302859296781776
 20
27.968887476780349
 30
0.0
 11
265.4154014488361781
 21
27.9789569651171917
 31
0.0
  0
LINE
  5
2EE1
  8
0
 10
265.4367993382153941
 20
27.9742637721138401
 30
0.0
 11
265.4241418365601248
 21
27.982829946032151
 31
0.0
  0
LINE
  5
2EE2
  8
0
 10
265.4360450820427104
 20
27.9908855122759803
 30
0.0
 11
265.4205818867371818
 21
27.9804231456648296
 31
0.0
  0
ARC
  5
2EE3
  8
0
 10
265.4170683370978736
 20
27.9856161107279213
 30
0.0
 40
0.0062699216274807
 50
268.5557158012193213
 51
304.0822022488763992
  0
ARC
  5
2EE4
  8
0
 10
265.4154708139798799
 20
27.9817947484476086
 30
0.0
 40
0.0028386309646651
 50
268.599773742401112
 51
300.471345206272872
  0
LINE
  5
2EE5
  8
0
 10
265.4267265220016156
 20
27.9943672817109999
 30
0.0
 11
265.4140690157444169
 21
27.985801114778571
 31
0.0
  0
LINE
  5
2EE6
  8
0
 10
265.4140690201463144
 20
28.0020316383785612
 30
0.0
 11
265.4140690157444169
 21
27.985801114778571
 31
0.0
  0
ARC
  5
2EE7
  8
0
 10
265.4228173773585127
 20
27.985801112405909
 30
0.0
 40
0.0087483616141757
 50
179.999984460746191
 51
227.5287283785980037
  0
ARC
  5
2EE8
  8
0
 10
265.4281685598174931
 20
27.9742120013745783
 30
0.0
 40
0.0086309336668483
 50
312.1275471261114944
 51
0.343678072832553
  0
LINE
  5
2EE9
  8
0
 10
265.4339580458503178
 20
27.9678108399420005
 30
0.0
 11
265.4509741414540827
 21
27.9678108353270503
 31
0.0
  0
LINE
  5
2EEA
  8
0
 10
265.4509741414540827
 20
27.9511890952694806
 30
0.0
 11
265.4367993319572179
 21
27.9511890991138401
 31
0.0
  0
LINE
  5
2EEB
  8
0
 10
265.4367993319572179
 20
27.9511890991138401
 30
0.0
 11
265.4368001251062879
 21
27.9674203131302015
 31
0.0
  0
ARC
  5
2EEC
  8
0
 10
265.43389603600599
 20
27.9513253036250191
 30
0.0
 40
0.0065894284592988
 50
236.7793822074739012
 51
270.5391349762733739
  0
LINE
  5
2EED
  8
0
 10
265.4302859234201151
 20
27.945812803780349
 30
0.0
 11
265.4154014425781156
 21
27.9558822921171917
 31
0.0
  0
LINE
  5
2EEE
  8
0
 10
265.4367993319572179
 20
27.9511890991138401
 30
0.0
 11
265.4241418303020055
 21
27.959755273032151
 31
0.0
  0
LINE
  5
2EEF
  8
0
 10
265.4360450759324976
 20
27.9678108393759715
 30
0.0
 11
265.4205818804791761
 21
27.9573484726648296
 31
0.0
  0
ARC
  5
2EF0
  8
0
 10
265.4170683308398111
 20
27.9625414377279213
 30
0.0
 40
0.0062699216274807
 50
268.5557158012193213
 51
304.0822022488763992
  0
ARC
  5
2EF1
  8
0
 10
265.4154708077218174
 20
27.9587200754476086
 30
0.0
 40
0.0028386309646651
 50
268.599773742401112
 51
300.471345206272872
  0
LINE
  5
2EF2
  8
0
 10
265.426726515761402
 20
27.9712926087231715
 30
0.0
 11
265.4140690094862975
 21
27.9627264417785604
 31
0.0
  0
LINE
  5
2EF3
  8
0
 10
265.4140690138881951
 20
27.9789569653785613
 30
0.0
 11
265.4140690094862975
 21
27.9627264417785604
 31
0.0
  0
ARC
  5
2EF4
  8
0
 10
265.4228173711003933
 20
27.962726439405909
 30
0.0
 40
0.0087483616141757
 50
179.999984460746191
 51
227.5287283785980037
  0
ARC
  5
2EF5
  8
0
 10
265.4281685535593738
 20
27.951137328374589
 30
0.0
 40
0.0086309336668483
 50
312.1275471261114944
 51
0.343678072832553
  0
LINE
  5
2EF6
  8
0
 10
265.4339580395921985
 20
27.9447361669420005
 30
0.0
 11
265.4509741414540827
 21
27.9447361623270396
 31
0.0
  0
LINE
  5
2EF7
  8
0
 10
265.4509741414540827
 20
27.9281144223694788
 30
0.0
 11
265.4367993256490763
 21
27.928114426213849
 31
0.0
  0
LINE
  5
2EF8
  8
0
 10
265.4367993256490763
 20
27.928114426213849
 30
0.0
 11
265.4368001378816189
 21
27.9447361661712002
 31
0.0
  0
ARC
  5
2EF9
  8
0
 10
265.4338960296977916
 20
27.9282506307250209
 30
0.0
 40
0.0065894284592988
 50
236.7793822074739012
 51
270.5391349762733739
  0
LINE
  5
2EFA
  8
0
 10
265.4302859171119735
 20
27.9227381308803615
 30
0.0
 11
265.4154014362699741
 21
27.9328076192172006
 31
0.0
  0
LINE
  5
2EFB
  8
0
 10
265.4367993256490763
 20
27.928114426213849
 30
0.0
 11
265.4241418239938071
 21
27.9366806001321493
 31
0.0
  0
LINE
  5
2EFC
  8
0
 10
265.4360450694765063
 20
27.9447361663759786
 30
0.0
 11
265.4205818741710914
 21
27.9342737997648314
 31
0.0
  0
ARC
  5
2EFD
  8
0
 10
265.4170683245317264
 20
27.9394667648279196
 30
0.0
 40
0.0062699216274807
 50
268.5557158012193213
 51
304.0822022488763992
  0
ARC
  5
2EFE
  8
0
 10
265.4154708014136759
 20
27.9356454025476211
 30
0.0
 40
0.0028386309646651
 50
268.599773742401112
 51
300.471345206272872
  0
LINE
  5
2EFF
  8
0
 10
265.426726509510388
 20
27.9482179358617593
 30
0.0
 11
265.4140690031780991
 21
27.9396517688785693
 31
0.0
  0
LINE
  5
2F00
  8
0
 10
265.4140690075799967
 20
27.9558822924785702
 30
0.0
 11
265.4140690031780991
 21
27.9396517688785693
 31
0.0
  0
ARC
  5
2F01
  8
0
 10
265.4228173647923086
 20
27.9396517665059108
 30
0.0
 40
0.0087483616141757
 50
179.999984460746191
 51
227.5287283785980037
  0
ARC
  5
2F02
  8
0
 10
265.4281685472512891
 20
27.9280626554745801
 30
0.0
 40
0.0086309336668483
 50
312.1275471261114944
 51
0.343678072832553
  0
LINE
  5
2F03
  8
0
 10
265.4339580332841138
 20
27.9216614940419987
 30
0.0
 11
265.4509741414540827
 21
27.9216614894270485
 31
0.0
  0
LINE
  5
2F04
  8
0
 10
265.4140690344186737
 20
28.055025133574329
 30
0.0
 11
265.3856561275687227
 21
28.0550251412802183
 31
0.0
  0
LINE
  5
2F05
  8
0
 10
265.3856561275687227
 20
28.0550251412802183
 30
0.0
 11
265.3856561297433245
 21
28.063043133635059
 31
0.0
  0
LINE
  5
2F06
  8
0
 10
265.4154014675106055
 20
28.0481809839129603
 30
0.0
 11
265.3839250157125207
 21
28.048180992549721
 31
0.0
  0
ARC
  5
2F07
  8
0
 10
265.3840396367124868
 20
28.0502768102545517
 30
0.0
 40
0.0020990007642493
 50
234.3017429799828903
 51
266.8359364072563267
  0
ARC
  5
2F08
  8
0
 10
265.3771403157958275
 20
28.0549227495532101
 30
0.0
 40
0.0085164273153424
 50
311.7823500472869114
 51
0.6888751518265688
  0
LINE
  5
2F09
  8
0
 10
265.4140690282105766
 20
28.031950460574329
 30
0.0
 11
265.3856561213606255
 21
28.031950468280229
 31
0.0
  0
LINE
  5
2F0A
  8
0
 10
265.3856561213606255
 20
28.031950468280229
 30
0.0
 11
265.3856561257625231
 21
28.0481809919802316
 31
0.0
  0
LINE
  5
2F0B
  8
0
 10
265.4154014613023946
 20
28.0251063109129603
 30
0.0
 11
265.3839250095044235
 21
28.025106319549721
 31
0.0
  0
ARC
  5
2F0C
  8
0
 10
265.3840396305043896
 20
28.0272021372545588
 30
0.0
 40
0.0020990007642493
 50
234.3017429799828903
 51
266.8359364072563267
  0
ARC
  5
2F0D
  8
0
 10
265.3771403095876735
 20
28.0318480765532101
 30
0.0
 40
0.0085164273153424
 50
311.7823500472869114
 51
0.6888751518265688
  0
LINE
  5
2F0E
  8
0
 10
265.414069021952514
 20
28.0088757876743308
 30
0.0
 11
265.3856561151025062
 21
28.0088757953802308
 31
0.0
  0
LINE
  5
2F0F
  8
0
 10
265.3856561151025062
 20
28.0088757953802308
 30
0.0
 11
265.3856561195044037
 21
28.0251063190802192
 31
0.0
  0
LINE
  5
2F10
  8
0
 10
265.4154014550442753
 20
28.0020316380129586
 30
0.0
 11
265.3839250032463042
 21
28.0020316466497192
 31
0.0
  0
ARC
  5
2F11
  8
0
 10
265.3840396242463271
 20
28.0041274643545606
 30
0.0
 40
0.0020990007642493
 50
234.3017429799828903
 51
266.8359364072563267
  0
ARC
  5
2F12
  8
0
 10
265.3771403033294973
 20
28.0087734036532083
 30
0.0
 40
0.0085164273153424
 50
311.7823500472869114
 51
0.6888751518265688
  0
LINE
  5
2F13
  8
0
 10
265.4140690156443725
 20
27.9858011146743308
 30
0.0
 11
265.3856561087944215
 21
27.9858011223802308
 31
0.0
  0
LINE
  5
2F14
  8
0
 10
265.3856561087944215
 20
27.9858011223802308
 30
0.0
 11
265.385656113196319
 21
28.0020316460802299
 31
0.0
  0
LINE
  5
2F15
  8
0
 10
265.4154014487361906
 20
27.9789569650129586
 30
0.0
 11
265.3839249969382195
 21
27.9789569736497299
 31
0.0
  0
ARC
  5
2F16
  8
0
 10
265.3840396179381855
 20
27.9810527913545606
 30
0.0
 40
0.0020990007642493
 50
234.3017429799828903
 51
266.8359364072563267
  0
ARC
  5
2F17
  8
0
 10
265.3771402970215263
 20
27.9856987306532083
 30
0.0
 40
0.0085164273153424
 50
311.7823500472869114
 51
0.6888751518265688
  0
LINE
  5
2F18
  8
0
 10
265.4140690093861963
 20
27.9627264417743291
 30
0.0
 11
265.3856561025363021
 21
27.962726449480229
 31
0.0
  0
LINE
  5
2F19
  8
0
 10
265.3856561025363021
 20
27.962726449480229
 30
0.0
 11
265.3856561069381996
 21
27.9789569731802317
 31
0.0
  0
LINE
  5
2F1A
  8
0
 10
265.415401442478128
 20
27.9558822921129604
 30
0.0
 11
265.3839249906801001
 21
27.9558823007497317
 31
0.0
  0
ARC
  5
2F1B
  8
0
 10
265.384039611680123
 20
27.9579781184545588
 30
0.0
 40
0.0020990007642493
 50
234.3017429799828903
 51
266.8359364072563267
  0
ARC
  5
2F1C
  8
0
 10
265.3771402907632933
 20
27.9626240577532101
 30
0.0
 40
0.0085164273153424
 50
311.7823500472869114
 51
0.6888751518265688
  0
LINE
  5
2F1D
  8
0
 10
265.4140690031280769
 20
27.9396517688743309
 30
0.0
 11
265.3856560962781828
 21
27.9396517765802308
 31
0.0
  0
LINE
  5
2F1E
  8
0
 10
265.3856560962781828
 20
27.9396517765802308
 30
0.0
 11
265.3856561006800803
 21
27.9558823002802299
 31
0.0
  0
LINE
  5
2F1F
  8
0
 10
265.415401436219895
 20
27.9328076192129586
 30
0.0
 11
265.3839249844219808
 21
27.9328076278497299
 31
0.0
  0
ARC
  5
2F20
  8
0
 10
265.3840396054220037
 20
27.9349034455545606
 30
0.0
 40
0.0020990007642493
 50
234.3017429799828903
 51
266.8359364072563267
  0
ARC
  5
2F21
  8
0
 10
265.3771402845051739
 20
27.9395493848532084
 30
0.0
 40
0.0085164273153424
 50
311.7823500472869114
 51
0.6888751518265688
  0
LINE
  5
2F22
  8
0
 10
265.3856560900201202
 20
27.9165771035844692
 30
0.0
 11
265.3856560944220178
 21
27.9328076272844612
 31
0.0
  0
LINE
  5
2F23
  8
0
 10
265.3856560962227036
 20
27.9394469885077683
 30
0.0
 11
265.3856560962781828
 21
27.9396517765802308
 31
0.0
  0
LINE
  5
2F24
  8
0
 10
265.4140690326124741
 20
28.0481809842785594
 30
0.0
 11
265.4140690282043806
 21
28.031950460574329
 31
0.0
  0
LINE
  5
2F25
  8
0
 10
265.4140690282043806
 20
28.031950460574329
 30
0.0
 11
265.4267265345123974
 21
28.040516627631149
 31
0.0
  0
LINE
  5
2F26
  8
0
 10
265.4339580706068205
 20
28.0370348642171514
 30
0.0
 11
265.4169103171605002
 21
28.0254975268079711
 31
0.0
  0
ARC
  5
2F27
  8
0
 10
265.4240513606075069
 20
28.0324937874358504
 30
0.0
 40
0.0099971077959993
 50
183.115469224015186
 51
224.4132435406027923
  0
ARC
  5
2F28
  8
0
 10
265.4154708264243823
 20
28.0279440942995883
 30
0.0
 40
0.0028386310203337
 50
268.5997742076692134
 51
300.4713450507682069
  0
LINE
  5
2F29
  8
0
 10
265.4509741414540827
 20
28.0135689648694814
 30
0.0
 11
265.435466877729823
 21
28.0135689690752301
 31
0.0
  0
ARC
  5
2F2A
  8
0
 10
265.435466878572015
 20
28.0166741404791786
 30
0.0
 40
0.0031051714039529
 50
240.928174580874412
 51
269.9999844607718273
  0
LINE
  5
2F2B
  8
0
 10
265.4339580582313829
 20
28.0139601856844287
 30
0.0
 11
265.4169103171622055
 21
28.0254975268091187
 31
0.0
  0
ARC
  5
2F2C
  8
0
 10
265.3767712901126856
 20
27.916637181129289
 30
0.0
 40
0.0088850030222379
 50
312.8586438621381944
 51
359.6125813368325908
  0
ARC
  5
2F2D
  8
0
 10
265.3841471779214203
 20
27.9121854065344195
 30
0.0
 40
0.0024543691380111
 50
237.1214132265880039
 51
267.7351279396252721
  0
LINE
  5
2F2E
  8
0
 10
265.3840501832639234
 20
27.9097329547200097
 30
0.0
 11
265.4158018488637936
 21
27.9097329686086013
 31
0.0
  0
LINE
  5
2F2F
  8
0
 10
265.4158018488637936
 20
27.9097329686086013
 30
0.0
 11
265.4169102858700171
 21
27.9101241621079801
 31
0.0
  0
ARC
  5
2F30
  8
0
 10
265.4169678230251748
 20
27.9167476604595883
 30
0.0
 40
0.0066237482544255
 50
269.502294245607402
 51
303.1199611263584757
  0
LINE
  5
2F31
  8
0
 10
265.4205869978616761
 20
27.9112000831108098
 30
0.0
 11
265.4360448467273272
 21
27.9216614934760408
 31
0.0
  0
LINE
  5
2F32
  8
0
 10
265.4377788557990243
 20
27.9216614930057503
 30
0.0
 11
265.4377788511994254
 21
27.9047020813481907
 31
0.0
  0
ARC
  5
2F33
  8
0
 10
265.4342181907740041
 20
27.9045507697207498
 30
0.0
 40
0.0035638739379743
 50
302.4933438448716174
 51
2.4333427508766321
  0
ARC
  5
2F34
  8
0
 10
265.4315950521985883
 20
27.9086693282766092
 30
0.0
 40
0.008446842355221
 50
282.1553339342769959
 51
302.4933438448599077
  0
ARC
  5
2F35
  8
0
 10
265.4317129921126934
 20
27.9081217683148815
 30
0.0
 40
0.0078867247469983
 50
254.4044925376225876
 51
282.1553339342769959
  0
LINE
  5
2F36
  8
0
 10
265.4295926911296988
 20
27.9005254039886808
 30
0.0
 11
265.4153895190772232
 21
27.9097329462204193
 31
0.0
  0
LINE
  5
2F37
  8
0
 10
265.4241418175919875
 20
27.9136059271617505
 30
0.0
 11
265.4377778509410746
 21
27.9043775157432705
 31
0.0
  0
LINE
  5
2F38
  8
0
 10
265.4267265032718228
 20
27.9251432628973184
 30
0.0
 11
265.4140689969199798
 21
27.9165770958785693
 31
0.0
  0
LINE
  5
2F39
  8
0
 10
265.4140689969199798
 20
27.9165770958785693
 30
0.0
 11
265.3856560900201202
 21
27.9165771035857802
 31
0.0
  0
LINE
  5
2F3A
  8
0
 10
265.4140690013218773
 20
27.9328076195785613
 30
0.0
 11
265.4140689969192977
 21
27.9165770958785693
 31
0.0
  0
ARC
  5
2F3B
  8
0
 10
265.4228173585582908
 20
27.9165770935055093
 30
0.0
 40
0.0087483616389985
 50
179.9999844580734987
 51
227.5287281970450977
  0
ARC
  5
2F3C
  8
0
 10
265.4510028980865854
 20
28.7276284591065298
 30
0.0
 40
0.8230326230537478
 50
269.0793625163857996
 51
269.997998094329887
  0
ARC
  5
2F3D
  8
0
 10
265.4498477497616022
 20
28.6995153385736508
 30
0.0
 40
0.7948957762986535
 50
265.0431525327388158
 51
268.0323042802078248
  0
LINE
  5
2F3E
  8
0
 10
265.3706183677189188
 20
28.0619826916007611
 30
0.0
 11
265.3694386760407156
 21
28.0611845146016101
 31
0.0
  0
ARC
  5
2F3F
  8
0
 10
265.3659251264012937
 20
28.0663774796646912
 30
0.0
 40
0.0062699216274807
 50
268.5557158012193213
 51
304.0822022488763992
  0
ARC
  5
2F40
  8
0
 10
265.3643276032831864
 20
28.0625561173843892
 30
0.0
 40
0.0028386309646651
 50
268.599773742401112
 51
300.471345206272872
  0
ARC
  5
2F41
  8
0
 10
265.3716741666618759
 20
28.0665624813426895
 30
0.0
 40
0.0087483616141757
 50
215.4390451332095893
 51
227.5287283785980037
  0
LINE
  5
2F42
  8
0
 10
265.3642582381395982
 20
28.0597183340539686
 30
0.0
 11
265.3456602179173842
 21
28.0597183391570404
 31
0.0
  0
LINE
  5
2F43
  8
0
 10
265.3841243169659947
 20
28.0481809922660617
 30
0.0
 11
265.3692393322314729
 21
28.03810984175567
 31
0.0
  0
ARC
  5
2F44
  8
0
 10
265.3657257825922215
 20
28.0433028068187618
 30
0.0
 40
0.0062699216274807
 50
268.5557158012193213
 51
304.0822022488763992
  0
ARC
  5
2F45
  8
0
 10
265.3641282594742279
 20
28.039481444538449
 30
0.0
 40
0.0028386309646651
 50
268.599773742401112
 51
300.471345206272872
  0
LINE
  5
2F46
  8
0
 10
265.3753839676696771
 20
28.0520539779195097
 30
0.0
 11
265.3627264612385943
 21
28.0434878108694008
 31
0.0
  0
LINE
  5
2F47
  8
0
 10
265.3627264656404918
 20
28.0597183345693999
 30
0.0
 11
265.3627264612385943
 21
28.0434878108694008
 31
0.0
  0
ARC
  5
2F48
  8
0
 10
265.3714748228529174
 20
28.0434878084967494
 30
0.0
 40
0.0087483616141757
 50
179.999984460746191
 51
227.5287283785980037
  0
LINE
  5
2F49
  8
0
 10
265.3627264612385943
 20
28.0434878108694008
 30
0.0
 11
265.3343135543887001
 21
28.0434878185753007
 31
0.0
  0
LINE
  5
2F4A
  8
0
 10
265.3343135543887001
 20
28.0434878185753007
 30
0.0
 11
265.3343135584547099
 21
28.0584798102417885
 31
0.0
  0
LINE
  5
2F4B
  8
0
 10
265.3640588943305261
 20
28.0366436612080285
 30
0.0
 11
265.3325824425324981
 21
28.0366436698447998
 31
0.0
  0
ARC
  5
2F4C
  8
0
 10
265.332697063532521
 20
28.0387394875496305
 30
0.0
 40
0.0020990007642493
 50
234.3017429799828903
 51
266.8359364072563267
  0
ARC
  5
2F4D
  8
0
 10
265.3257977426156913
 20
28.0433854268482783
 30
0.0
 40
0.0085164273153424
 50
311.7823500472869114
 51
0.6888751518265688
  0
LINE
  5
2F4E
  8
0
 10
265.3843236481588974
 20
28.0251063193119982
 30
0.0
 11
265.3694386634243756
 21
28.0150351688015995
 31
0.0
  0
ARC
  5
2F4F
  8
0
 10
265.3659251137851243
 20
28.0202281338646983
 30
0.0
 40
0.0062699216274807
 50
268.5557158012193213
 51
304.0822022488763992
  0
ARC
  5
2F50
  8
0
 10
265.3643275906670169
 20
28.0164067715843892
 30
0.0
 40
0.0028386309646651
 50
268.599773742401112
 51
300.471345206272872
  0
LINE
  5
2F51
  8
0
 10
265.3755832988625798
 20
28.0289793049654499
 30
0.0
 11
265.3629257924316107
 21
28.0204131379153409
 31
0.0
  0
LINE
  5
2F52
  8
0
 10
265.3629257968335082
 20
28.0366436616153401
 30
0.0
 11
265.3629257924316107
 21
28.0204131379153409
 31
0.0
  0
ARC
  5
2F53
  8
0
 10
265.3716741540457065
 20
28.0204131355426895
 30
0.0
 40
0.0087483616141757
 50
179.999984460746191
 51
227.5287283785980037
  0
LINE
  5
2F54
  8
0
 10
265.3629257924316107
 20
28.0204131379153409
 30
0.0
 11
265.3345128855816029
 21
28.0204131456212409
 31
0.0
  0
LINE
  5
2F55
  8
0
 10
265.3345128855816029
 20
28.0204131456212409
 30
0.0
 11
265.3345128899835004
 21
28.03664366932124
 31
0.0
  0
LINE
  5
2F56
  8
0
 10
265.3642582255233719
 20
28.0135689882539687
 30
0.0
 11
265.3327817737252872
 21
28.0135689968907293
 31
0.0
  0
ARC
  5
2F57
  8
0
 10
265.3328963947254238
 20
28.0156648145955707
 30
0.0
 40
0.0020990007642493
 50
234.3017429799828903
 51
266.8359364072563267
  0
ARC
  5
2F58
  8
0
 10
265.3259970738087077
 20
28.0203107538942184
 30
0.0
 40
0.0085164273153424
 50
311.7823500472869114
 51
0.6888751518265688
  0
LINE
  5
2F59
  8
0
 10
265.3843236420008225
 20
28.0020316463119983
 30
0.0
 11
265.3694386572663007
 21
27.9919604958016102
 31
0.0
  0
ARC
  5
2F5A
  8
0
 10
265.3659251076268788
 20
27.9971534608646984
 30
0.0
 40
0.0062699216274807
 50
268.5557158012193213
 51
304.0822022488763992
  0
ARC
  5
2F5B
  8
0
 10
265.3643275845089988
 20
27.9933320985843892
 30
0.0
 40
0.0028386309646651
 50
268.599773742401112
 51
300.471345206272872
  0
LINE
  5
2F5C
  8
0
 10
265.3755832927045049
 20
28.0059046319654605
 30
0.0
 11
265.3629257862734221
 21
27.9973384649153409
 31
0.0
  0
LINE
  5
2F5D
  8
0
 10
265.3629257906753196
 20
28.0135689886153401
 30
0.0
 11
265.3629257862734221
 21
27.9973384649153409
 31
0.0
  0
ARC
  5
2F5E
  8
0
 10
265.3716741478875747
 20
27.9973384625426895
 30
0.0
 40
0.0087483616141757
 50
179.999984460746191
 51
227.5287283785980037
  0
LINE
  5
2F5F
  8
0
 10
265.3629257862734221
 20
27.9973384649153409
 30
0.0
 11
265.3345128794234142
 21
27.9973384726212409
 31
0.0
  0
LINE
  5
2F60
  8
0
 10
265.3345128794234142
 20
27.9973384726212409
 30
0.0
 11
265.3345128838254254
 21
28.01356899632124
 31
0.0
  0
LINE
  5
2F61
  8
0
 10
265.3642582193651833
 20
27.9904943152539687
 30
0.0
 11
265.3327817675672122
 21
27.99049432389074
 31
0.0
  0
ARC
  5
2F62
  8
0
 10
265.332896388567292
 20
27.9925901415955707
 30
0.0
 40
0.0020990007642493
 50
234.3017429799828903
 51
266.8359364072563267
  0
ARC
  5
2F63
  8
0
 10
265.3259970676505191
 20
27.9972360808942184
 30
0.0
 40
0.0085164273153424
 50
311.7823500472869114
 51
0.6888751518265688
  0
LINE
  5
2F64
  8
0
 10
265.3843236357427031
 20
27.9789569734120001
 30
0.0
 11
265.3694386510081813
 21
27.9688858229016084
 31
0.0
  0
ARC
  5
2F65
  8
0
 10
265.3659251013688163
 20
27.9740787879647002
 30
0.0
 40
0.0062699216274807
 50
268.5557158012193213
 51
304.0822022488763992
  0
ARC
  5
2F66
  8
0
 10
265.3643275782508226
 20
27.970257425684391
 30
0.0
 40
0.0028386309646651
 50
268.599773742401112
 51
300.471345206272872
  0
LINE
  5
2F67
  8
0
 10
265.3755832864463855
 20
27.9828299590654588
 30
0.0
 11
265.3629257800154164
 21
27.9742637920153392
 31
0.0
  0
LINE
  5
2F68
  8
0
 10
265.3629257844172002
 20
27.9904943157153383
 30
0.0
 11
265.3629257800153027
 21
27.9742637920153392
 31
0.0
  0
ARC
  5
2F69
  8
0
 10
265.3716741416295122
 20
27.9742637896426913
 30
0.0
 40
0.0087483616141757
 50
179.999984460746191
 51
227.5287283785980037
  0
LINE
  5
2F6A
  8
0
 10
265.3629257800153027
 20
27.9742637920153392
 30
0.0
 11
265.3345128731654086
 21
27.9742637997212498
 31
0.0
  0
LINE
  5
2F6B
  8
0
 10
265.3345128731654086
 20
27.9742637997212498
 30
0.0
 11
265.3345128775673061
 21
27.9904943234212418
 31
0.0
  0
LINE
  5
2F6C
  8
0
 10
265.3642582131071208
 20
27.9674196423539705
 30
0.0
 11
265.3327817613090929
 21
27.9674196509907382
 31
0.0
  0
ARC
  5
2F6D
  8
0
 10
265.3328963823091726
 20
27.9695154686955689
 30
0.0
 40
0.0020990007642493
 50
234.3017429799828903
 51
266.8359364072563267
  0
ARC
  5
2F6E
  8
0
 10
265.3259970613923997
 20
27.9741614079942202
 30
0.0
 40
0.0085164273153424
 50
311.7823500472869114
 51
0.6888751518265688
  0
LINE
  5
2F6F
  8
0
 10
265.3843236294845269
 20
27.9558823004120107
 30
0.0
 11
265.3694386447501188
 21
27.9458111499016013
 31
0.0
  0
ARC
  5
2F70
  8
0
 10
265.3659250951108106
 20
27.9510041149647002
 30
0.0
 40
0.0062699216274807
 50
268.5557158012193213
 51
304.0822022488763992
  0
ARC
  5
2F71
  8
0
 10
265.3643275719927033
 20
27.947182752684391
 30
0.0
 40
0.0028386309646651
 50
268.599773742401112
 51
300.471345206272872
  0
LINE
  5
2F72
  8
0
 10
265.375583280188323
 20
27.9597552860654517
 30
0.0
 11
265.3629257737572971
 21
27.9511891190153392
 31
0.0
  0
LINE
  5
2F73
  8
0
 10
265.3629257781591946
 20
27.9674196427153383
 30
0.0
 11
265.3629257737572971
 21
27.9511891190153392
 31
0.0
  0
ARC
  5
2F74
  8
0
 10
265.3716741353713928
 20
27.9511891166426913
 30
0.0
 40
0.0087483616141757
 50
179.999984460746191
 51
227.5287283785980037
  0
LINE
  5
2F75
  8
0
 10
265.3629257737572971
 20
27.9511891190153392
 30
0.0
 11
265.3345128669072892
 21
27.9511891267212391
 31
0.0
  0
LINE
  5
2F76
  8
0
 10
265.3345128669072892
 20
27.9511891267212391
 30
0.0
 11
265.334512871309073
 21
27.9674196504212382
 31
0.0
  0
LINE
  5
2F77
  8
0
 10
265.3642582068491151
 20
27.9443449693539705
 30
0.0
 11
265.3327817550509735
 21
27.9443449779907382
 31
0.0
  0
ARC
  5
2F78
  8
0
 10
265.3328963760511101
 20
27.9464407956955689
 30
0.0
 40
0.0020990007642493
 50
234.3017429799828903
 51
266.8359364072563267
  0
ARC
  5
2F79
  8
0
 10
265.3259970551342803
 20
27.9510867349942203
 30
0.0
 40
0.0085164273153424
 50
311.7823500472869114
 51
0.6888751518265688
  0
LINE
  5
2F7A
  8
0
 10
265.3843236232265212
 20
27.932807627512009
 30
0.0
 11
265.3694386384919994
 21
27.9227364770016102
 31
0.0
  0
ARC
  5
2F7B
  8
0
 10
265.3659250888526913
 20
27.9279294420646984
 30
0.0
 40
0.0062699216274807
 50
268.5557158012193213
 51
304.0822022488763992
  0
ARC
  5
2F7C
  8
0
 10
265.3643275657345839
 20
27.9241080797843892
 30
0.0
 40
0.0028386309646651
 50
268.599773742401112
 51
300.471345206272872
  0
LINE
  5
2F7D
  8
0
 10
265.3755832739302036
 20
27.9366806131654606
 30
0.0
 11
265.3629257674991209
 21
27.9281144461153517
 31
0.0
  0
LINE
  5
2F7E
  8
0
 10
265.3629257719010184
 20
27.9443449698153401
 30
0.0
 11
265.3629257674991209
 21
27.9281144461153517
 31
0.0
  0
ARC
  5
2F7F
  8
0
 10
265.3716741291132735
 20
27.9281144437426896
 30
0.0
 40
0.0087483616141757
 50
179.999984460746191
 51
227.5287283785980037
  0
LINE
  5
2F80
  8
0
 10
265.3629257674991209
 20
27.9281144461153517
 30
0.0
 11
265.334512860649113
 21
27.9281144538212409
 31
0.0
  0
LINE
  5
2F81
  8
0
 10
265.334512860649113
 20
27.9281144538212409
 30
0.0
 11
265.3345128650510105
 21
27.94434497752124
 31
0.0
  0
LINE
  5
2F82
  8
0
 10
265.3642582005908821
 20
27.9212702964539687
 30
0.0
 11
265.332781748792911
 21
27.92127030509074
 31
0.0
  0
ARC
  5
2F83
  8
0
 10
265.3328963697929908
 20
27.9233661227955707
 30
0.0
 40
0.0020990007642493
 50
234.3017429799828903
 51
266.8359364072563267
  0
ARC
  5
2F84
  8
0
 10
265.3259970488762178
 20
27.9280120620942185
 30
0.0
 40
0.0085164273153424
 50
311.7823500472869114
 51
0.6888751518265688
  0
LINE
  5
2F85
  8
0
 10
265.3791427190316199
 20
28.0496488459509692
 30
0.0
 11
265.3642582381896204
 21
28.0597183342878083
 31
0.0
  0
LINE
  5
2F86
  8
0
 10
265.3856561275687227
 20
28.0550251412844602
 30
0.0
 11
265.3748955881732172
 21
28.0623075145700902
 31
0.0
  0
ARC
  5
2F87
  8
0
 10
265.3827574039041224
 20
28.0551956088462795
 30
0.0
 40
0.0066236487445103
 50
236.8684640037268991
 51
270.4967967899153223
  0
LINE
  5
2F88
  8
0
 10
265.3791427126733993
 20
28.0265741729171296
 30
0.0
 11
265.3642582318313998
 21
28.0366436612539687
 31
0.0
  0
LINE
  5
2F89
  8
0
 10
265.3856561212106158
 20
28.0319504682506206
 30
0.0
 11
265.3729986195552897
 21
28.0405166421689209
 31
0.0
  0
ARC
  5
2F8A
  8
0
 10
265.3827573975460155
 20
28.0321209358124399
 30
0.0
 40
0.0066236487445103
 50
236.8684640037268991
 51
270.4967967899153223
  0
LINE
  5
2F8B
  8
0
 10
265.3791427064904269
 20
28.003499500050971
 30
0.0
 11
265.3642582256484275
 21
28.0135689883878101
 31
0.0
  0
LINE
  5
2F8C
  8
0
 10
265.3856561150274729
 20
28.0088757953844585
 30
0.0
 11
265.3729986133722036
 21
28.0174419693027694
 31
0.0
  0
ARC
  5
2F8D
  8
0
 10
265.3827573913628726
 20
28.0090462629462813
 30
0.0
 40
0.0066236487445103
 50
236.8684640037268991
 51
270.4967967899153223
  0
LINE
  5
2F8E
  8
0
 10
265.3791427002321939
 20
27.980424827050971
 30
0.0
 11
265.3642582193901944
 21
27.9904943153878101
 31
0.0
  0
LINE
  5
2F8F
  8
0
 10
265.3856561087694104
 20
27.9858011223844585
 30
0.0
 11
265.3729986071140843
 21
27.9943672963027588
 31
0.0
  0
ARC
  5
2F90
  8
0
 10
265.3827573851048101
 20
27.9859715899462813
 30
0.0
 40
0.0066236487445103
 50
236.8684640037268991
 51
270.4967967899153223
  0
LINE
  5
2F91
  8
0
 10
265.3791426939740745
 20
27.9573501541509692
 30
0.0
 11
265.3642582131320751
 21
27.9674196424878083
 31
0.0
  0
LINE
  5
2F92
  8
0
 10
265.385656102511291
 20
27.9627264494844603
 30
0.0
 11
265.3729986008560218
 21
27.9712926234027712
 31
0.0
  0
ARC
  5
2F93
  8
0
 10
265.3827573788466907
 20
27.9628969170462796
 30
0.0
 40
0.0066236487445103
 50
236.8684640037268991
 51
270.4967967899153223
  0
LINE
  5
2F94
  8
0
 10
265.3791426877410231
 20
27.9342754811509693
 30
0.0
 11
265.3642582068990237
 21
27.9443449694878083
 31
0.0
  0
LINE
  5
2F95
  8
0
 10
265.3856560962781828
 20
27.9396517764844603
 30
0.0
 11
265.3729985946229135
 21
27.9482179504027606
 31
0.0
  0
ARC
  5
2F96
  8
0
 10
265.3827573726135824
 20
27.9398222440462796
 30
0.0
 40
0.0066236487445103
 50
236.8684640037268991
 51
270.4967967899153223
  0
LINE
  5
2F97
  8
0
 10
265.3791426814095757
 20
27.9112008081665017
 30
0.0
 11
265.36425820056769
 21
27.9212702965033408
 31
0.0
  0
LINE
  5
2F98
  8
0
 10
265.3856560899466785
 20
27.9165771034999892
 30
0.0
 11
265.372998588291523
 21
27.9251432774182895
 31
0.0
  0
ARC
  5
2F99
  8
0
 10
265.3827573662821919
 20
27.9167475710618085
 30
0.0
 40
0.0066236487445103
 50
236.8684640037268991
 51
270.4967967899153223
  0
LINE
  5
2F9A
  8
0
 10
265.3310049139772104
 20
28.0581115248483393
 30
0.0
 11
265.318494777862611
 21
28.0496471921020003
 31
0.0
  0
ARC
  5
2F9B
  8
0
 10
265.3149812282233029
 20
28.0548401571650885
 30
0.0
 40
0.0062699216274807
 50
268.5557158012193213
 51
304.0822022488763992
  0
ARC
  5
2F9C
  8
0
 10
265.3133837051051955
 20
28.0510187948847793
 30
0.0
 40
0.0028386309646651
 50
268.599773742401112
 51
300.471345206272872
  0
LINE
  5
2F9D
  8
0
 10
265.3132530257033181
 20
28.0558854109282692
 30
0.0
 11
265.3119819068696756
 21
28.0550251612157417
 31
0.0
  0
LINE
  5
2F9E
  8
0
 10
265.3119819070553831
 20
28.0557097649694711
 30
0.0
 11
265.3119819068696756
 21
28.0550251612157417
 31
0.0
  0
ARC
  5
2F9F
  8
0
 10
265.3207302684838851
 20
28.0550251588430797
 30
0.0
 40
0.0087483616141757
 50
179.999984460746191
 51
227.5287283785980037
  0
LINE
  5
2FA0
  8
0
 10
265.3119819068696756
 20
28.0550251612157417
 30
0.0
 11
265.3071704551970242
 21
28.0550251625206606
 31
0.0
  0
LINE
  5
2FA1
  8
0
 10
265.3133143399614937
 20
28.0481810115543588
 30
0.0
 11
265.2818378881635226
 21
28.0481810201911301
 31
0.0
  0
ARC
  5
2FA2
  8
0
 10
265.2819522120109923
 20
28.0502762686417988
 30
0.0
 40
0.0020983650807516
 50
234.2992622907532052
 51
266.8768452579814721
  0
ARC
  5
2FA3
  8
0
 10
265.2750531882467726
 20
28.0549227771946086
 30
0.0
 40
0.0085164273153424
 50
311.7823500472867977
 51
332.9174938705770046
  0
LINE
  5
2FA4
  8
0
 10
265.2770555914826218
 20
28.0496488735543004
 30
0.0
 11
265.2766195319152871
 21
28.0499438718664784
 31
0.0
  0
ARC
  5
2FA5
  8
0
 10
265.2806702763551243
 20
28.0551956364496107
 30
0.0
 40
0.0066236487445103
 50
236.8684640037268991
 51
270.4967967899153223
  0
ARC
  5
2FA6
  8
0
 10
265.3318089335393779
 20
28.0436240230621898
 30
0.0
 40
0.0065894284592988
 50
236.7793822074739012
 51
267.1479079916593946
  0
LINE
  5
2FA7
  8
0
 10
265.3281988209535029
 20
28.0381115232175304
 30
0.0
 11
265.3133143401115035
 21
28.0481810115543588
 31
0.0
  0
LINE
  5
2FA8
  8
0
 10
265.3347122294907194
 20
28.0434878185510215
 30
0.0
 11
265.3220547278353934
 21
28.0520539924693217
 31
0.0
  0
ARC
  5
2FA9
  8
0
 10
265.3133837052552053
 20
28.0510187948847793
 30
0.0
 40
0.0028386309646651
 50
268.599773742401112
 51
300.471345206272872
  0
LINE
  5
2FAA
  8
0
 10
265.3333797564390011
 20
28.0366436696123884
 30
0.0
 11
265.3184947717044793
 21
28.0265725191020003
 31
0.0
  0
ARC
  5
2FAB
  8
0
 10
265.3149812220651143
 20
28.0317654841650885
 30
0.0
 40
0.0062699216274807
 50
268.5557158012193213
 51
304.0822022488762855
  0
ARC
  5
2FAC
  8
0
 10
265.3133836989471206
 20
28.02794412188479
 30
0.0
 40
0.0028386309646651
 50
268.599773742401112
 51
300.471345206272872
  0
LINE
  5
2FAD
  8
0
 10
265.3246415088349863
 20
28.0405180776192609
 30
0.0
 11
265.3119819007116007
 21
28.0319504882157311
 31
0.0
  0
LINE
  5
2FAE
  8
0
 10
265.3119819051134982
 20
28.0481810119157302
 30
0.0
 11
265.3119819007116007
 21
28.0319504882157311
 31
0.0
  0
ARC
  5
2FAF
  8
0
 10
265.3207302623258101
 20
28.0319504858430903
 30
0.0
 40
0.0087483616141757
 50
179.999984460746191
 51
227.5287283785980037
  0
LINE
  5
2FB0
  8
0
 10
265.3119819007116007
 20
28.0319504882157311
 30
0.0
 11
265.2835689938615928
 21
28.0319504959216417
 31
0.0
  0
LINE
  5
2FB1
  8
0
 10
265.2835689938615928
 20
28.0319504959216417
 30
0.0
 11
265.2835689982634904
 21
28.0481810196216301
 31
0.0
  0
LINE
  5
2FB2
  8
0
 10
265.3133143338034188
 20
28.0251063385543588
 30
0.0
 11
265.2818378820053908
 21
28.0251063471911301
 31
0.0
  0
ARC
  5
2FB3
  8
0
 10
265.2819522058528037
 20
28.0272015956417917
 30
0.0
 40
0.0020983650807516
 50
234.2992622907532052
 51
266.8768452579814721
  0
ARC
  5
2FB4
  8
0
 10
265.2750531820886977
 20
28.0318481041946193
 30
0.0
 40
0.0085164273153424
 50
311.7823500472867977
 51
0.6888751518265688
  0
LINE
  5
2FB5
  8
0
 10
265.2835689938615928
 20
28.0319504958877985
 30
0.0
 11
265.2709114922063236
 21
28.0405166698060988
 31
0.0
  0
LINE
  5
2FB6
  8
0
 10
265.2822365270679938
 20
28.0481810199330113
 30
0.0
 11
265.267351542333472
 21
28.038109869422609
 31
0.0
  0
LINE
  5
2FB7
  8
0
 10
265.2677568190811144
 20
28.0482300262903301
 30
0.0
 11
265.260639333839606
 21
28.0434878385876587
 31
0.0
  0
ARC
  5
2FB8
  8
0
 10
265.2637146899239724
 20
28.0437109800725395
 30
0.0
 40
0.0066801772058202
 50
267.9919993139077974
 51
303.0476490902806859
  0
ARC
  5
2FB9
  8
0
 10
265.3318089272813154
 20
28.0205493501621916
 30
0.0
 40
0.0065894284592988
 50
236.7793822074739012
 51
268.8166164777364884
  0
LINE
  5
2FBA
  8
0
 10
265.3281988146953836
 20
28.0150368503175216
 30
0.0
 11
265.3133143338533841
 21
28.0251063386543606
 31
0.0
  0
LINE
  5
2FBB
  8
0
 10
265.33451288561821
 20
28.0205480506836118
 30
0.0
 11
265.322054721577274
 21
28.02897931956932
 31
0.0
  0
ARC
  5
2FBC
  8
0
 10
265.313383698997086
 20
28.0279441219847811
 30
0.0
 40
0.0028386309646651
 50
268.599773742401112
 51
300.471345206272872
  0
LINE
  5
2FBD
  8
0
 10
265.3333797501808249
 20
28.0135689967123902
 30
0.0
 11
265.3184947654464167
 21
28.0034978462019986
 31
0.0
  0
ARC
  5
2FBE
  8
0
 10
265.3149812158069949
 20
28.0086908112650903
 30
0.0
 40
0.0062699216274807
 50
268.5557158012193213
 51
304.0822022488762855
  0
ARC
  5
2FBF
  8
0
 10
265.3133836926890012
 20
28.0048694489847882
 30
0.0
 40
0.0028386309646651
 50
268.599773742401112
 51
300.471345206272872
  0
LINE
  5
2FC0
  8
0
 10
265.3246415025769238
 20
28.0174434047192591
 30
0.0
 11
265.3119818944534813
 21
28.00887581531574
 31
0.0
  0
LINE
  5
2FC1
  8
0
 10
265.3119818988553789
 20
28.0251063390157285
 30
0.0
 11
265.3119818944534813
 21
28.00887581531574
 31
0.0
  0
ARC
  5
2FC2
  8
0
 10
265.3207302560676908
 20
28.0088758129430815
 30
0.0
 40
0.0087483616141757
 50
179.999984460746191
 51
227.5287283785980037
  0
LINE
  5
2FC3
  8
0
 10
265.3119818944534813
 20
28.00887581531574
 30
0.0
 11
265.2835689876034735
 21
28.0088758230216293
 31
0.0
  0
LINE
  5
2FC4
  8
0
 10
265.2835689876034735
 20
28.0088758230216293
 30
0.0
 11
265.2835689920054278
 21
28.0251063467216284
 31
0.0
  0
LINE
  5
2FC5
  8
0
 10
265.3133143275452994
 20
28.0020316656543713
 30
0.0
 11
265.2818378757473283
 21
28.0020316742911284
 31
0.0
  0
ARC
  5
2FC6
  8
0
 10
265.2819521995946843
 20
28.0041269227418006
 30
0.0
 40
0.0020983650807516
 50
234.2992622907532052
 51
266.8768452579814721
  0
ARC
  5
2FC7
  8
0
 10
265.2750531758305783
 20
28.008773431294621
 30
0.0
 40
0.0085164273153424
 50
311.7823500472867977
 51
0.6888751518265688
  0
LINE
  5
2FC8
  8
0
 10
265.2770555790663138
 20
28.0034995276543093
 30
0.0
 11
265.2621710982244281
 21
28.0135690159911412
 31
0.0
  0
LINE
  5
2FC9
  8
0
 10
265.2835689876034735
 20
28.0088758229878003
 30
0.0
 11
265.2709114859482042
 21
28.0174419969061006
 31
0.0
  0
ARC
  5
2FCA
  8
0
 10
265.2806702639388732
 20
28.0090462905496089
 30
0.0
 40
0.0066236487445103
 50
236.8684640037268991
 51
270.4967967899153223
  0
LINE
  5
2FCB
  8
0
 10
265.2822365208098745
 20
28.0251063470330095
 30
0.0
 11
265.2673515360754095
 21
28.0150351965226108
 31
0.0
  0
ARC
  5
2FCC
  8
0
 10
265.2637347026550856
 20
28.0205928077182413
 30
0.0
 40
0.006632801759574
 50
269.5270629386830024
 51
303.1076120808235146
  0
ARC
  5
2FCD
  8
0
 10
265.331808921023196
 20
27.9974746771621916
 30
0.0
 40
0.0065894284592988
 50
236.7793822074739012
 51
268.816617327789686
  0
LINE
  5
2FCE
  8
0
 10
265.3281988084373211
 20
27.9919621773175287
 30
0.0
 11
265.3133143275953216
 21
28.0020316656543713
 31
0.0
  0
LINE
  5
2FCF
  8
0
 10
265.3347122169744239
 20
27.9973384726510197
 30
0.0
 11
265.3220547153192115
 21
28.00590464656932
 31
0.0
  0
ARC
  5
2FD0
  8
0
 10
265.3133836927390234
 20
28.0048694489847882
 30
0.0
 40
0.0028386309646651
 50
268.599773742401112
 51
300.471345206272872
  0
LINE
  5
2FD1
  8
0
 10
265.3333797439227055
 20
27.9904943237124009
 30
0.0
 11
265.3184947591881837
 21
27.9804231732019986
 31
0.0
  0
ARC
  5
2FD2
  8
0
 10
265.3149812095488755
 20
27.9856161382650903
 30
0.0
 40
0.0062699216274807
 50
268.5557158012193213
 51
304.0822022488763992
  0
ARC
  5
2FD3
  8
0
 10
265.3133836864308819
 20
27.9817947759847883
 30
0.0
 40
0.0028386309646651
 50
268.599773742401112
 51
300.471345206272872
  0
LINE
  5
2FD4
  8
0
 10
265.3246414963188045
 20
27.9943687317192591
 30
0.0
 11
265.3119818881954188
 21
27.98580114231574
 31
0.0
  0
LINE
  5
2FD5
  8
0
 10
265.3119818925973163
 20
28.0020316660157391
 30
0.0
 11
265.3119818881954188
 21
27.98580114231574
 31
0.0
  0
ARC
  5
2FD6
  8
0
 10
265.3207302498095146
 20
27.9858011399430815
 30
0.0
 40
0.0087483616141757
 50
179.999984460746191
 51
227.5287283785980037
  0
LINE
  5
2FD7
  8
0
 10
265.3119818881954188
 20
27.98580114231574
 30
0.0
 11
265.2835689813452973
 21
27.9858011500216399
 31
0.0
  0
LINE
  5
2FD8
  8
0
 10
265.2835689813452973
 20
27.9858011500216399
 30
0.0
 11
265.2835689857471948
 21
28.0020316737216284
 31
0.0
  0
LINE
  5
2FD9
  8
0
 10
265.3133143212871801
 20
27.9789569926543713
 30
0.0
 11
265.281837869489209
 21
27.9789570012911284
 31
0.0
  0
ARC
  5
2FDA
  8
0
 10
265.2819521933366786
 20
27.9810522497418006
 30
0.0
 40
0.0020983650807516
 50
234.2992622907532052
 51
266.8768452579814721
  0
ARC
  5
2FDB
  8
0
 10
265.2750531695724021
 20
27.9856987582946211
 30
0.0
 40
0.0085164273153424
 50
311.7823500472867977
 51
0.6888751518265688
  0
LINE
  5
2FDC
  8
0
 10
265.2770555728081945
 20
27.9804248546543093
 30
0.0
 11
265.2621710919663087
 21
27.9904943429911413
 31
0.0
  0
LINE
  5
2FDD
  8
0
 10
265.2835689813452973
 20
27.9858011499878003
 30
0.0
 11
265.2709114796900849
 21
27.9943673239061006
 31
0.0
  0
ARC
  5
2FDE
  8
0
 10
265.2806702576808107
 20
27.9859716175496089
 30
0.0
 40
0.0066236487445103
 50
236.8684640037268991
 51
270.4967967899153223
  0
LINE
  5
2FDF
  8
0
 10
265.2822365145516983
 20
28.0020316740330202
 30
0.0
 11
265.2673515298172902
 21
27.9919605235226108
 31
0.0
  0
LINE
  5
2FE0
  8
0
 10
265.2734961652554944
 20
28.0059046596864611
 30
0.0
 11
265.2606393213234242
 21
27.9973384927904192
 31
0.0
  0
ARC
  5
2FE1
  8
0
 10
265.2637146774047778
 20
27.997561634178961
 30
0.0
 40
0.0066801772128027
 50
267.991999175036824
 51
303.0476490815414081
  0
ARC
  5
2FE2
  8
0
 10
265.3318089147151113
 20
27.9744000042621899
 30
0.0
 40
0.0065894284592988
 50
236.7793822074739012
 51
268.8166177528066214
  0
LINE
  5
2FE3
  8
0
 10
265.3281988021291795
 20
27.9688875044175305
 30
0.0
 11
265.3133143212871801
 21
27.9789569927543589
 31
0.0
  0
LINE
  5
2FE4
  8
0
 10
265.334712210666396
 20
27.9742637997510215
 30
0.0
 11
265.3220547090111268
 21
27.9828299736693182
 31
0.0
  0
ARC
  5
2FE5
  8
0
 10
265.3133836864308819
 20
27.9817947760847794
 30
0.0
 40
0.0028386309646651
 50
268.599773742401112
 51
300.471345206272872
  0
LINE
  5
2FE6
  8
0
 10
265.3333797376145071
 20
27.9674196508123991
 30
0.0
 11
265.3184947528802127
 21
27.9573485003020004
 31
0.0
  0
ARC
  5
2FE7
  8
0
 10
265.3149812032407908
 20
27.9625414653650886
 30
0.0
 40
0.0062699216274807
 50
268.5557158012193213
 51
304.0822022488763992
  0
ARC
  5
2FE8
  8
0
 10
265.3133836801226835
 20
27.9587201030847901
 30
0.0
 40
0.0028386309646651
 50
268.599773742401112
 51
300.471345206272872
  0
LINE
  5
2FE9
  8
0
 10
265.324641490010606
 20
27.9712940588192716
 30
0.0
 11
265.3119818818872773
 21
27.9627264694157383
 31
0.0
  0
LINE
  5
2FEA
  8
0
 10
265.3119818862891748
 20
27.9789569931157409
 30
0.0
 11
265.3119818818872773
 21
27.9627264694157383
 31
0.0
  0
ARC
  5
2FEB
  8
0
 10
265.320730243501373
 20
27.9627264670430797
 30
0.0
 40
0.0087483616141757
 50
179.999984460746191
 51
227.5287283785980037
  0
LINE
  5
2FEC
  8
0
 10
265.3119818818872773
 20
27.9627264694157383
 30
0.0
 11
265.2835689750373263
 21
27.9627264771216311
 31
0.0
  0
LINE
  5
2FED
  8
0
 10
265.2835689750373263
 20
27.9627264771216311
 30
0.0
 11
265.2835689794392238
 21
27.9789570008216302
 31
0.0
  0
LINE
  5
2FEE
  8
0
 10
265.3133143149790953
 20
27.9558823197543695
 30
0.0
 11
265.2818378631811242
 21
27.9558823283911408
 31
0.0
  0
ARC
  5
2FEF
  8
0
 10
265.2819521870284802
 20
27.9579775768417989
 30
0.0
 40
0.0020983650807516
 50
234.2992622907532052
 51
266.8768452579814721
  0
ARC
  5
2FF0
  8
0
 10
265.2750531632643742
 20
27.9626240853946193
 30
0.0
 40
0.0085164273153424
 50
311.7823500472867977
 51
0.6888751518265688
  0
LINE
  5
2FF1
  8
0
 10
265.2770555665001098
 20
27.9573501817543111
 30
0.0
 11
265.2621710856581103
 21
27.9674196700911395
 31
0.0
  0
LINE
  5
2FF2
  8
0
 10
265.2835689750373263
 20
27.9627264770877986
 30
0.0
 11
265.2709114733820002
 21
27.9712926510060989
 31
0.0
  0
ARC
  5
2FF3
  8
0
 10
265.2806702513727259
 20
27.9628969446496214
 30
0.0
 40
0.0066236487445103
 50
236.8684640037268991
 51
270.4967967899153223
  0
LINE
  5
2FF4
  8
0
 10
265.2822365082437273
 20
27.9789570011330184
 30
0.0
 11
265.2673515235092054
 21
27.9688858506226197
 31
0.0
  0
LINE
  5
2FF5
  8
0
 10
265.2734961589474096
 20
27.98282998678647
 30
0.0
 11
265.2606393150654185
 21
27.9742638197904192
 31
0.0
  0
ARC
  5
2FF6
  8
0
 10
265.2637140391655066
 20
27.9744892371788687
 30
0.0
 40
0.0066824295644167
 50
267.9980969270184232
 51
303.0415491687186886
  0
ARC
  5
2FF7
  8
0
 10
265.3318089085070142
 20
27.9513253313621917
 30
0.0
 40
0.0065894284592988
 50
236.7793822074739012
 51
268.8166182787334719
  0
LINE
  5
2FF8
  8
0
 10
265.3281987959210824
 20
27.9458128315175287
 30
0.0
 11
265.3133143150790829
 21
27.9558823198543713
 31
0.0
  0
LINE
  5
2FF9
  8
0
 10
265.3347122044581852
 20
27.9511891268510198
 30
0.0
 11
265.3220547028029728
 21
27.95975530076932
 31
0.0
  0
ARC
  5
2FFA
  8
0
 10
265.3133836802227279
 20
27.9587201031847883
 30
0.0
 40
0.0028386309646651
 50
268.599773742401112
 51
300.471345206272872
  0
LINE
  5
2FFB
  8
0
 10
265.3333797314065237
 20
27.9443449779124009
 30
0.0
 11
265.3184947466721155
 21
27.9342738274019986
 31
0.0
  0
ARC
  5
2FFC
  8
0
 10
265.3149811970326937
 20
27.9394667924650904
 30
0.0
 40
0.0062699216274807
 50
268.5557158012193213
 51
304.0822022488762855
  0
ARC
  5
2FFD
  8
0
 10
265.3133836739145863
 20
27.9356454301847883
 30
0.0
 40
0.0028386309646651
 50
268.599773742401112
 51
300.471345206272872
  0
LINE
  5
2FFE
  8
0
 10
265.324639382110206
 20
27.948217963565849
 30
0.0
 11
265.3119818756791801
 21
27.93965179651574
 31
0.0
  0
LINE
  5
2FFF
  8
0
 10
265.3119818800810776
 20
27.9558823202157392
 30
0.0
 11
265.3119818756791801
 21
27.93965179651574
 31
0.0
  0
ARC
  5
3000
  8
0
 10
265.3207302372932759
 20
27.9396517941430886
 30
0.0
 40
0.0087483616141757
 50
179.999984460746191
 51
227.5287283785980037
  0
LINE
  5
3001
  8
0
 10
265.3119818756791801
 20
27.93965179651574
 30
0.0
 11
265.2835689688291723
 21
27.93965180422164
 31
0.0
  0
LINE
  5
3002
  8
0
 10
265.2835689688291723
 20
27.93965180422164
 30
0.0
 11
265.2835689732311266
 21
27.9558823279216391
 31
0.0
  0
LINE
  5
3003
  8
0
 10
265.3133143087709982
 20
27.9328076468543607
 30
0.0
 11
265.2818378569730271
 21
27.9328076554911284
 31
0.0
  0
ARC
  5
3004
  8
0
 10
265.2819521808203831
 20
27.9349029039418006
 30
0.0
 40
0.0020983650807516
 50
234.2992622907532052
 51
266.8768452579814721
  0
ARC
  5
3005
  8
0
 10
265.2750531570562202
 20
27.9395494124946211
 30
0.0
 40
0.0085164273153424
 50
311.7823500472867977
 51
0.6888751518265688
  0
LINE
  5
3006
  8
0
 10
265.2770555602920126
 20
27.9342755088543093
 30
0.0
 11
265.2621710794500132
 21
27.9443449971911484
 31
0.0
  0
LINE
  5
3007
  8
0
 10
265.2835689688291723
 20
27.9396518041878004
 30
0.0
 11
265.270911467173903
 21
27.9482179781061006
 31
0.0
  0
ARC
  5
3008
  8
0
 10
265.280670245164572
 20
27.939822271749609
 30
0.0
 40
0.0066236487445103
 50
236.8684640037268991
 51
270.4967967899153223
  0
LINE
  5
3009
  8
0
 10
265.2822365020355164
 20
27.9558823282330202
 30
0.0
 11
265.2673515173011083
 21
27.9458111777226215
 31
0.0
  0
LINE
  5
300A
  8
0
 10
265.2734961527391988
 20
27.9597553138864683
 30
0.0
 11
265.2606393088071854
 21
27.951189146890421
 31
0.0
  0
ARC
  5
300B
  8
0
 10
265.2637146646632118
 20
27.9514122888687204
 30
0.0
 40
0.0066801777462436
 50
267.9920008020924911
 51
303.0476484111928812
  0
ARC
  5
300C
  8
0
 10
265.2295224684893924
 20
28.0436240508034196
 30
0.0
 40
0.0065894284592988
 50
236.7793822074739012
 51
270.5391349762733739
  0
LINE
  5
300D
  8
0
 10
265.2259123559035174
 20
28.0381115509587602
 30
0.0
 11
265.225336701025924
 21
28.0385009867837205
 31
0.0
  0
ARC
  5
300E
  8
0
 10
265.2110972338970782
 20
28.0279441496260198
 30
0.0
 40
0.0028386309646651
 50
268.599773742401112
 51
300.471345206272872
  0
LINE
  5
300F
  8
0
 10
265.2154966431822913
 20
28.035876574615191
 30
0.0
 11
265.2096954356616152
 21
28.0319505159569715
 31
0.0
  0
LINE
  5
3010
  8
0
 10
265.2096954362888255
 20
28.0342631890301988
 30
0.0
 11
265.2096954356616152
 21
28.0319505159569715
 31
0.0
  0
ARC
  5
3011
  8
0
 10
265.2184437972758246
 20
28.0319505135843201
 30
0.0
 40
0.0087483616141757
 50
179.999984460746191
 51
227.5287283785980037
  0
LINE
  5
3012
  8
0
 10
265.2096954356616152
 20
28.0319505159569715
 30
0.0
 11
265.201427337952623
 21
28.0319505181993698
 31
0.0
  0
LINE
  5
3013
  8
0
 10
265.2110278687533764
 20
28.0251063662955993
 30
0.0
 11
265.1831250246369223
 21
28.0251063739518109
 31
0.0
  0
ARC
  5
3014
  8
0
 10
265.2306946468066258
 20
28.0153398497804815
 30
0.0
 40
0.0017708252187321
 50
231.1761139062664085
 51
269.9999844607424961
  0
ARC
  5
3015
  8
0
 10
265.229522462231273
 20
28.0205493779034214
 30
0.0
 40
0.0065894284592988
 50
236.7793822074739012
 51
270.5391349762733739
  0
LINE
  5
3016
  8
0
 10
265.2259123496453981
 20
28.0150368780587584
 30
0.0
 11
265.2110278688033986
 21
28.025106366395601
 31
0.0
  0
ARC
  5
3017
  8
0
 10
265.2110972339471004
 20
28.0279441497260215
 30
0.0
 40
0.0028386309646651
 50
268.599773742401112
 51
300.471345206272872
  0
LINE
  5
3018
  8
0
 10
265.2310932851308962
 20
28.0135690244536306
 30
0.0
 11
265.2162083003963744
 21
28.0034978739432283
 31
0.0
  0
ARC
  5
3019
  8
0
 10
265.2126947507570094
 20
28.0086908390063307
 30
0.0
 40
0.0062699216274807
 50
268.5557158012193213
 51
304.0822022488762855
  0
ARC
  5
301A
  8
0
 10
265.2110972276390157
 20
28.0048694767260216
 30
0.0
 40
0.0028386309646651
 50
268.599773742401112
 51
300.471345206272872
  0
LINE
  5
301B
  8
0
 10
265.2223529358345786
 20
28.0174420101070787
 30
0.0
 11
265.2096954294034958
 21
28.0088758430569804
 31
0.0
  0
LINE
  5
301C
  8
0
 10
265.2096954338053933
 20
28.0251063667569689
 30
0.0
 11
265.2096954294034958
 21
28.0088758430569804
 31
0.0
  0
ARC
  5
301D
  8
0
 10
265.2184437910177053
 20
28.0088758406843183
 30
0.0
 40
0.0087483616141757
 50
179.999984460746191
 51
227.5287283785980037
  0
LINE
  5
301E
  8
0
 10
265.2096954294034958
 20
28.0088758430569804
 30
0.0
 11
265.181282522553488
 21
28.0088758507628697
 31
0.0
  0
LINE
  5
301F
  8
0
 10
265.181282522553488
 20
28.0088758507628697
 30
0.0
 11
265.181282526714881
 21
28.0242196050712096
 31
0.0
  0
LINE
  5
3020
  8
0
 10
265.2110278624953139
 20
28.0020316933956011
 30
0.0
 11
265.179551410697286
 21
28.0020317020323688
 31
0.0
  0
ARC
  5
3021
  8
0
 10
265.1796657345446988
 20
28.0041269504830304
 30
0.0
 40
0.0020983650807516
 50
234.2992622907532052
 51
266.8768452579814721
  0
ARC
  5
3022
  8
0
 10
265.1727667107805928
 20
28.0087734590358508
 30
0.0
 40
0.0085164273153424
 50
311.7823500472867977
 51
0.6888751518265688
  0
LINE
  5
3023
  8
0
 10
265.1747691140163283
 20
28.003499555395539
 30
0.0
 11
265.1618634793077263
 21
28.012230336103169
 31
0.0
  0
LINE
  5
3024
  8
0
 10
265.181282522553488
 20
28.0088758507290301
 30
0.0
 11
265.1689577635186197
 21
28.0172168355670586
 31
0.0
  0
ARC
  5
3025
  8
0
 10
265.1783837988888877
 20
28.0090463182908493
 30
0.0
 40
0.0066236487445103
 50
236.8684640037268991
 51
270.4967967899153223
  0
ARC
  5
3026
  8
0
 10
265.2306946404984842
 20
27.9922651767804815
 30
0.0
 40
0.0017708252187321
 50
231.1761139062664085
 51
269.9999844607424961
  0
ARC
  5
3027
  8
0
 10
265.2295224559231883
 20
27.9974747049034285
 30
0.0
 40
0.0065894284592988
 50
236.7793822074739012
 51
270.5391349762733739
  0
LINE
  5
3028
  8
0
 10
265.2259123433373134
 20
27.9919622050587584
 30
0.0
 11
265.2110278624953139
 21
28.0020316933956011
 31
0.0
  0
LINE
  5
3029
  8
0
 10
265.2322264143235202
 20
27.9973385004463218
 30
0.0
 11
265.2197682502192038
 21
28.0059046743105604
 31
0.0
  0
ARC
  5
302A
  8
0
 10
265.2110972276390157
 20
28.0048694767260216
 30
0.0
 40
0.0028386309646651
 50
268.599773742401112
 51
300.471345206272872
  0
LINE
  5
302B
  8
0
 10
265.2310932788226978
 20
27.9904943514536306
 30
0.0
 11
265.216208294088176
 21
27.980423200943239
 31
0.0
  0
ARC
  5
302C
  8
0
 10
265.2126947444489247
 20
27.9856161660063307
 30
0.0
 40
0.0062699216274807
 50
268.5557158012193213
 51
304.0822022488763992
  0
ARC
  5
302D
  8
0
 10
265.2110972213308742
 20
27.9817948037260216
 30
0.0
 40
0.0028386309646651
 50
268.599773742401112
 51
300.471345206272872
  0
LINE
  5
302E
  8
0
 10
265.2223529295263802
 20
27.9943673371070894
 30
0.0
 11
265.2096954230954111
 21
27.9858011700569698
 31
0.0
  0
LINE
  5
302F
  8
0
 10
265.2096954274973086
 20
28.0020316937569689
 30
0.0
 11
265.2096954230954111
 21
27.9858011700569698
 31
0.0
  0
ARC
  5
3030
  8
0
 10
265.2184437847096206
 20
27.9858011676843184
 30
0.0
 40
0.0087483616141757
 50
179.999984460746191
 51
227.5287283785980037
  0
LINE
  5
3031
  8
0
 10
265.2096954230954111
 20
27.9858011700569698
 30
0.0
 11
265.1812825162454033
 21
27.9858011777628803
 31
0.0
  0
LINE
  5
3032
  8
0
 10
265.1812825162454033
 20
27.9858011777628803
 30
0.0
 11
265.1812825206473008
 21
28.0020317014628688
 31
0.0
  0
LINE
  5
3033
  8
0
 10
265.2110278561871723
 20
27.9789570203956011
 30
0.0
 11
265.1795514043890876
 21
27.9789570290323688
 31
0.0
  0
ARC
  5
3034
  8
0
 10
265.1796657282367278
 20
27.9810522774830304
 30
0.0
 40
0.0020983650807516
 50
234.2992622907532052
 51
266.8768452579814721
  0
ARC
  5
3035
  8
0
 10
265.1727667044723944
 20
27.9856987860358508
 30
0.0
 40
0.0085164273153424
 50
311.7823500472867977
 51
0.6888751518265688
  0
LINE
  5
3036
  8
0
 10
265.1747691077081868
 20
27.980424882395539
 30
0.0
 11
265.159884626866301
 21
27.9904943707323817
 31
0.0
  0
LINE
  5
3037
  8
0
 10
265.1812825162454033
 20
27.9858011777290407
 30
0.0
 11
265.1686250145900772
 21
27.994367351647341
 31
0.0
  0
ARC
  5
3038
  8
0
 10
265.1783837925808029
 20
27.9859716452908494
 30
0.0
 40
0.0066236487445103
 50
236.8684640037268991
 51
270.4967967899153223
  0
LINE
  5
3039
  8
0
 10
265.1799500494516906
 20
28.0020317017742499
 30
0.0
 11
265.1650650647172824
 21
27.9919605512638512
 31
0.0
  0
LINE
  5
303A
  8
0
 10
265.1712097001554866
 20
28.0059046874277016
 30
0.0
 11
265.1583528562306924
 21
27.9973385204688689
 31
0.0
  0
ARC
  5
303B
  8
0
 10
265.1614282125203204
 20
27.9975616614650384
 30
0.0
 40
0.0066801767137991
 50
267.991997568153522
 51
303.0476496615216888
  0
LINE
  5
303C
  8
0
 10
265.2456939787405759
 20
28.0434878427441916
 30
0.0
 11
265.260639333839606
 21
28.0434878386904209
 31
0.0
  0
LINE
  5
303D
  8
0
 10
265.2606393339938791
 20
28.0434878386904209
 30
0.0
 11
265.2606393348905272
 21
28.0467746917347611
 31
0.0
  0
ARC
  5
303E
  8
0
 10
265.2692364952745265
 20
28.0434212743631583
 30
0.0
 40
0.0085974288624026
 50
179.5564355985802933
 51
227.9724657050128087
  0
LINE
  5
303F
  8
0
 10
265.2634806214372816
 20
28.0370349049198317
 30
0.0
 11
265.2807277014114788
 21
28.0254975636922197
 31
0.0
  0
LINE
  5
3040
  8
0
 10
265.2306946463264126
 20
28.0135690245617504
 30
0.0
 11
265.2621710982244281
 21
28.0135690159911412
 31
0.0
  0
ARC
  5
3041
  8
0
 10
265.261856770223801
 20
28.0178866408339218
 30
0.0
 40
0.0043290514405467
 50
274.1638521527843864
 51
294.907269203977819
  0
LINE
  5
3042
  8
0
 10
265.2606393257253217
 20
28.0135690164082192
 30
0.0
 11
265.2606393213234242
 21
27.9973384927904192
 31
0.0
  0
ARC
  5
3043
  8
0
 10
265.2694094636402724
 20
27.9973480806592612
 30
0.0
 40
0.0087701475578752
 50
180.0626386770356078
 51
227.4660746426669107
  0
ARC
  5
3044
  8
0
 10
265.2620765219896271
 20
27.9931981832164887
 30
0.0
 40
0.0027054934795455
 50
272.0031678094287031
 51
301.2636420089004901
  0
LINE
  5
3045
  8
0
 10
265.2621710918423901
 20
27.9904943430749817
 30
0.0
 11
265.2306946400182142
 21
27.9904943515617504
 31
0.0
  0
ARC
  5
3046
  8
0
 10
265.22255826425328
 20
27.9975295277200509
 30
0.0
 40
0.0096700370826458
 50
316.6016484844068941
 51
358.8680740731106766
  0
LINE
  5
3047
  8
0
 10
265.2322264143235202
 20
27.9973385004463218
 30
0.0
 11
265.2322264187254177
 21
28.0135690241963182
 31
0.0
  0
LINE
  5
3048
  8
0
 10
265.2322264143235202
 20
27.9973385004964292
 30
0.0
 11
265.2606393213234242
 21
27.9973384927905293
 31
0.0
  0
LINE
  5
3049
  8
0
 10
265.2322264124672984
 20
27.990494351148751
 30
0.0
 11
265.2322264080654008
 21
27.9742638274963191
 31
0.0
  0
LINE
  5
304A
  8
0
 10
265.2322264080654008
 20
27.9742638274963191
 30
0.0
 11
265.2196671925556188
 21
27.9827634846375588
 31
0.0
  0
LINE
  5
304B
  8
0
 10
265.2322264080654008
 20
27.9742638274963191
 30
0.0
 11
265.2606393150654185
 21
27.9742638197904192
 31
0.0
  0
LINE
  5
304C
  8
0
 10
265.2606393150654185
 20
27.9742638197904192
 30
0.0
 11
265.260639319467316
 21
27.9904943434904183
 31
0.0
  0
ARC
  5
304D
  8
0
 10
265.269182500359193
 20
27.9741734763047916
 30
0.0
 40
0.0085436629678018
 50
179.3941244022256001
 51
228.1345874217535084
  0
ARC
  5
304E
  8
0
 10
265.2620339577708819
 20
27.9702659632259909
 30
0.0
 40
0.0028495944741131
 50
272.758246761836574
 51
300.5085792686775221
  0
LINE
  5
304F
  8
0
 10
265.2621710855341917
 20
27.96741967017498
 30
0.0
 11
265.2304952963090727
 21
27.9674196787658111
 31
0.0
  0
ARC
  5
3050
  8
0
 10
265.2304952967893996
 20
27.9691905046209683
 30
0.0
 40
0.0017708258551545
 50
231.1761263235077877
 51
269.9999844607327191
  0
ARC
  5
3051
  8
0
 10
265.2234996354183068
 20
27.9742543240125983
 30
0.0
 40
0.0087267778216938
 50
312.4088299339500168
 51
0.0623952650337542
  0
LINE
  5
3052
  8
0
 10
265.2111019886879717
 20
27.9787720156254913
 30
0.0
 11
265.2257097123506924
 21
27.9688857515557707
 31
0.0
  0
ARC
  5
3053
  8
0
 10
265.2292224969149856
 20
27.9740761638126614
 30
0.0
 40
0.0062673786220229
 50
235.9105127086480991
 51
271.4868115589325726
  0
LINE
  5
3054
  8
0
 10
265.2322264062091222
 20
27.96741967829632
 30
0.0
 11
265.2322264018072246
 21
27.9511891545963209
 31
0.0
  0
LINE
  5
3055
  8
0
 10
265.2322264018072246
 20
27.9511891545963209
 30
0.0
 11
265.2606393088071854
 21
27.951189146890421
 31
0.0
  0
LINE
  5
3056
  8
0
 10
265.2606393088071854
 20
27.951189146890421
 30
0.0
 11
265.260639313209083
 21
27.9674196705904201
 31
0.0
  0
ARC
  5
3057
  8
0
 10
265.2694094506745728
 20
27.9511987345612205
 30
0.0
 40
0.0087701471081207
 50
180.0626367123317948
 51
227.466075931588108
  0
ARC
  5
3058
  8
0
 10
265.2620825327347802
 20
27.9470286752249599
 30
0.0
 40
0.002685138415417
 50
271.8897621806764846
 51
301.3770546386098204
  0
LINE
  5
3059
  8
0
 10
265.2621710794500132
 20
27.9443449971911484
 30
0.0
 11
265.2304940561509738
 21
27.94434502256615
 31
0.0
  0
ARC
  5
305A
  8
0
 10
265.2306099112644233
 20
27.9464408244885689
 30
0.0
 40
0.0020990016925475
 50
234.3017506541511068
 51
266.8359319749915244
  0
ARC
  5
305B
  8
0
 10
265.2234965794534105
 20
27.9511809939298388
 30
0.0
 40
0.0087298261680478
 50
312.4176649326287247
 51
0.0535602664367342
  0
LINE
  5
305C
  8
0
 10
265.2196210782204844
 20
27.9597200160428194
 30
0.0
 11
265.2322264018072246
 21
27.9511891545963209
 31
0.0
  0
ARC
  5
305D
  8
0
 10
265.2293228397616076
 20
27.9513444188229805
 30
0.0
 40
0.006608489835399
 50
236.8386433718443982
 51
270.5398870098475754
  0
LINE
  5
305E
  8
0
 10
265.2257080041488848
 20
27.9458122310641812
 30
0.0
 11
265.2109504957912804
 21
27.955882347566579
 31
0.0
  0
LINE
  5
305F
  8
0
 10
265.3219536450154123
 20
27.9366141110124993
 30
0.0
 11
265.334512860649113
 21
27.9281144537874013
 31
0.0
  0
ARC
  5
3060
  8
0
 10
265.3316092990090169
 20
27.9282697192599585
 30
0.0
 40
0.0066084910435841
 50
236.8386460158095019
 51
270.5398833945575916
  0
LINE
  5
3061
  8
0
 10
265.3279944629907732
 20
27.9227375303229408
 30
0.0
 11
265.313115081923911
 21
27.9328076469583984
 31
0.0
  0
LINE
  5
3062
  8
0
 10
265.3331803199544083
 20
27.9212703050164812
 30
0.0
 11
265.3194613343748074
 21
27.9119857652372296
 31
0.0
  0
ARC
  5
3063
  8
0
 10
265.317385964532491
 20
27.9171281800073103
 30
0.0
 40
0.0055454115852653
 50
185.1388939510150067
 51
291.9779609057413836
  0
LINE
  5
3064
  8
0
 10
265.3118628427732801
 20
27.9166314751824913
 30
0.0
 11
265.3244399016023749
 21
27.9251431981130587
 31
0.0
  0
LINE
  5
3065
  8
0
 10
265.311861257421981
 20
27.9328076471984517
 30
0.0
 11
265.3118628427347971
 21
27.9166314751980202
 31
0.0
  0
LINE
  5
3066
  8
0
 10
265.3755832676142177
 20
27.9136059403163195
 30
0.0
 11
265.3680669220345862
 21
27.9085191348548491
 31
0.0
  0
LINE
  5
3067
  8
0
 10
265.3680652911942275
 20
27.9186938553177484
 30
0.0
 11
265.3680652902938277
 21
27.9085180305484712
 31
0.0
  0
ARC
  5
3068
  8
0
 10
265.3722143343238145
 20
27.9085180301813516
 30
0.0
 40
0.0041490440300259
 50
179.9999949304157951
 51
243.4983070847671911
  0
ARC
  5
3069
  8
0
 10
265.3746153133039911
 20
27.9133332927080815
 30
0.0
 40
0.009529699497983
 50
243.4983070847636952
 51
272.2079419549784802
  0
LINE
  5
306A
  8
0
 10
265.3749824575546086
 20
27.9038106681947902
 30
0.0
 11
265.3843425816234003
 21
27.9097329546406989
 31
0.0
  0
LINE
  5
306B
  8
0
 10
265.3680652903224768
 20
27.9088432730552896
 30
0.0
 11
265.3236981343400771
 21
27.9148520048285285
 31
0.0
  0
LINE
  5
306C
  8
0
 10
265.3118612534224212
 20
27.9169546351984508
 30
0.0
 11
265.2718144668543232
 21
27.9258893336231111
 31
0.0
  0
LINE
  5
306D
  8
0
 10
265.2817637243717854
 20
27.9326226505612389
 30
0.0
 11
265.2682365244277207
 21
27.9234679046568992
 31
0.0
  0
ARC
  5
306E
  8
0
 10
265.2664692247439007
 20
27.9260792951241399
 30
0.0
 40
0.0031532060422646
 50
262.4836298540795951
 51
304.0887967381087265
  0
ARC
  5
306F
  8
0
 10
265.2667917594404798
 20
27.9285237921601812
 30
0.0
 40
0.0056188893937467
 50
180.4902653494955018
 51
262.4836298540828921
  0
LINE
  5
3070
  8
0
 10
265.2611730757470809
 20
27.9284757133456516
 30
0.0
 11
265.2733985604323834
 21
27.93674950293072
 31
0.0
  0
LINE
  5
3071
  8
0
 10
265.2611714864510191
 20
27.9443449974460911
 30
0.0
 11
265.2611730761316267
 21
27.9284756744145604
 31
0.0
  0
LINE
  5
3072
  8
0
 10
265.2611730440507927
 20
27.9287959280058082
 30
0.0
 11
265.2254344696930275
 21
27.9406502764994293
 31
0.0
  0
LINE
  5
3073
  8
0
 10
265.2306204949009043
 20
27.9441600008318609
 30
0.0
 11
265.2221172365401003
 21
27.9384050081380408
 31
0.0
  0
ARC
  5
3074
  8
0
 10
265.2209969658675277
 20
27.9400602580174606
 30
0.0
 40
0.0019987142224568
 50
238.5892932322423974
 51
304.0900837413847739
  0
ARC
  5
3075
  8
0
 10
265.2243496069199864
 20
27.9455504585028294
 30
0.0
 40
0.0084316376167486
 50
190.0103905076678075
 51
238.5892932322418005
  0
LINE
  5
3076
  8
0
 10
265.2160463304804239
 20
27.9440848141845386
 30
0.0
 11
265.2220910075131997
 21
27.9481756447477991
 31
0.0
  0
LINE
  5
3077
  8
0
 10
265.2160463304804239
 20
27.9440848141845386
 30
0.0
 11
265.2160446867126211
 21
27.9521264245672789
 31
0.0
  0
LINE
  5
3078
  8
0
 10
265.158352856323404
 20
27.9973385204288512
 30
0.0
 11
265.1583528596527231
 21
28.0094612938504213
 31
0.0
  0
ARC
  5
3079
  8
0
 10
265.1668126374113967
 20
27.9972114533571386
 30
0.0
 40
0.0084607353165534
 50
179.139474245852
 51
228.3892390713656937
  0
ARC
  5
307A
  8
0
 10
265.1597373942578884
 20
27.9933744879768014
 30
0.0
 40
0.0028838780803933
 50
272.9264330035127273
 51
300.3403894489852064
  0
LINE
  5
307B
  8
0
 10
265.159884626866301
 20
27.9904943707323817
 30
0.0
 11
265.1405833357185884
 21
27.9901111353774716
 31
0.0
  0
LINE
  5
307C
  8
0
 10
265.1598846310885733
 20
27.9904943708162186
 30
0.0
 11
265.1606208093816122
 21
27.9757987248165598
 31
0.0
  0
LINE
  5
307D
  8
0
 10
265.1606208093816122
 20
27.9757987248165598
 30
0.0
 11
265.1711099126068802
 21
27.9829003615732113
 31
0.0
  0
ARC
  5
307E
  8
0
 10
265.1698261445990852
 20
27.9762868884310585
 30
0.0
 40
0.0092182699125582
 50
183.0355809080695053
 51
221.3622539170621906
  0
ARC
  5
307F
  8
0
 10
265.1660257516916772
 20
27.9729408384611098
 30
0.0
 40
0.0041547694778673
 50
221.3622539170659138
 51
249.8277113307134982
  0
ARC
  5
3080
  8
0
 10
265.164827908221298
 20
27.9696803298561711
 30
0.0
 40
0.0006811913022014
 50
249.8277113306997137
 51
303.5800719305790949
  0
LINE
  5
3081
  8
0
 10
265.1652046763683188
 20
27.9691128200733594
 30
0.0
 11
265.1800325879892739
 21
27.9789570288518696
 31
0.0
  0
LINE
  5
3082
  8
0
 10
265.1791241851939844
 20
27.9783539427935892
 30
0.0
 11
265.1791278452407141
 21
27.9627272740939503
 31
0.0
  0
LINE
  5
3083
  8
0
 10
265.1791242076233175
 20
27.9630474482982301
 30
0.0
 11
265.1676339635375257
 21
27.9707256169855398
 31
0.0
  0
ARC
  5
3084
  8
0
 10
265.1871887031525716
 20
27.9634512755143696
 30
0.0
 40
0.0080933577688033
 50
185.1377897000458859
 51
249.2608370517963863
  0
LINE
  5
3085
  8
0
 10
265.1843227305799928
 20
27.9558823494883306
 30
0.0
 11
265.2109504957912804
 21
27.955882347566579
 31
0.0
  0
ARC
  5
3086
  8
0
 10
265.2109245785850931
 20
27.9586280860304903
 30
0.0
 40
0.0027458607782905
 50
270.5408025769806954
 51
300.9651213316935809
  0
ARC
  5
3087
  8
0
 10
265.2123655911453284
 20
27.9630907401483206
 30
0.0
 40
0.0068172350780061
 50
269.7627997885751938
 51
295.2928375967525767
  0
LINE
  5
3088
  8
0
 10
265.2152782196753833
 20
27.9569270327287391
 30
0.0
 11
265.2315934178291741
 21
27.9674196784679907
 31
0.0
  0
LINE
  5
3089
  8
0
 10
265.2094960838381894
 20
27.9789570208610314
 30
0.0
 11
265.2094960794362919
 21
27.9627264972610412
 31
0.0
  0
LINE
  5
308A
  8
0
 10
265.2094960794362919
 20
27.9627264972610412
 30
0.0
 11
265.2221534487670169
 21
27.9712925715163294
 31
0.0
  0
LINE
  5
308B
  8
0
 10
265.2094960794362919
 20
27.9627264972610412
 30
0.0
 11
265.1791278452407141
 21
27.9627272740939503
 31
0.0
  0
ARC
  5
308C
  8
0
 10
265.2176380537233058
 20
27.9624825604535197
 30
0.0
 40
0.0081456276544431
 50
178.2839088586746072
 51
229.6635074339585003
  0
LINE
  5
308D
  8
0
 10
265.2160446863724133
 20
27.9444089440229604
 30
0.0
 11
265.1916577198799132
 21
27.9558816859989996
 31
0.0
  0
ARC
  5
308E
  8
0
 10
265.2345334697009775
 20
28.0674972439625208
 30
0.0
 40
0.1175272554503066
 50
221.1125039944762136
 51
231.0205722879757957
  0
LINE
  5
308F
  8
0
 10
265.2295844773036038
 20
28.0370349141128408
 30
0.0
 11
265.2634806214372816
 21
28.0370349049198317
 31
0.0
  0
ARC
  5
3090
  8
0
 10
265.2235488403603085
 20
28.043456685836059
 30
0.0
 40
0.008677642500535
 50
312.2764155934142991
 51
337.1327535851888229
  0
ARC
  5
3091
  8
0
 10
265.7450057022492729
 20
27.2660031832954495
 30
0.0
 40
0.9275532082200582
 50
123.7721706410899998
 51
125.0336627108859062
  0
LINE
  5
3092
  8
0
 10
265.1583528090368986
 20
27.9973384410981083
 30
0.0
 11
265.1456401907448139
 21
27.9973700404299812
 31
0.0
  0
ARC
  5
3093
  8
0
 10
265.3173660947574035
 20
27.5802003386560699
 30
0.0
 40
0.4738416839730395
 50
92.3293990831877096
 51
119.765724528774399
  0
ARC
  5
3094
  8
0
 10
265.4509741414540827
 20
33.082103331802152
 30
0.0
 40
5.0078367003649991
 50
269.0139140162019089
 51
270.9860859837980911
  0
ENDSEC
  0
EOF
