  0
SECTION
  2
HEADER
  9
$ACADVER
  1
AC1009
  9
$INSBASE
 10
641.9566412362869414
 20
73.0551053695678974
 30
0.0
  9
$EXTMIN
 10
627.5865624960869127
 20
70.3149478892678985
 30
0.0
  9
$EXTMAX
 10
641.9706686279961332
 20
74.3346329286679008
 30
0.0
  9
$LIMMIN
 10
0.0
 20
0.0
  9
$LIMMAX
 10
11.6929133858000007
 20
8.2677165353999982
  9
$ORTHOMODE
 70
     0
  9
$REGENMODE
 70
     1
  9
$FILLMODE
 70
     1
  9
$QTEXTMODE
 70
     0
  9
$MIRRTEXT
 70
     0
  9
$DRAGMODE
 70
     2
  9
$LTSCALE
 40
0.6431102362
  9
$OSMODE
 70
     7
  9
$ATTMODE
 70
     1
  9
$TEXTSIZE
 40
0.2
  9
$TRACEWID
 40
0.05
  9
$TEXTSTYLE
  7
STANDARD
  9
$CLAYER
  8
0
  9
$CELTYPE
  6
BYLAYER
  9
$CECOLOR
 62
   256
  9
$DIMSCALE
 40
1.0
  9
$DIMASZ
 40
0.1875
  9
$DIMEXO
 40
0.0625
  9
$DIMDLI
 40
0.4443307087
  9
$DIMRND
 40
0.0
  9
$DIMDLE
 40
0.0
  9
$DIMEXE
 40
0.125
  9
$DIMTP
 40
0.01
  9
$DIMTM
 40
0.01
  9
$DIMTXT
 40
1.0
  9
$DIMCEN
 40
0.1052362205
  9
$DIMTSZ
 40
0.0
  9
$DIMTOL
 70
     1
  9
$DIMLIM
 70
     0
  9
$DIMTIH
 70
     0
  9
$DIMTOH
 70
     1
  9
$DIMSE1
 70
     0
  9
$DIMSE2
 70
     0
  9
$DIMTAD
 70
     0
  9
$DIMZIN
 70
     0
  9
$DIMBLK
  1

  9
$DIMASO
 70
     1
  9
$DIMSHO
 70
     1
  9
$DIMPOST
  1
\X
  9
$DIMAPOST
  1

  9
$DIMALT
 70
     1
  9
$DIMALTD
 70
     2
  9
$DIMALTF
 40
25.3999999999999986
  9
$DIMLFAC
 40
1.0
  9
$DIMTOFL
 70
     0
  9
$DIMTVP
 40
0.0
  9
$DIMTIX
 70
     0
  9
$DIMSOXD
 70
     0
  9
$DIMSAH
 70
     0
  9
$DIMBLK1
  1

  9
$DIMBLK2
  1

  9
$DIMSTYLE
  2
STANDARD
  9
$DIMCLRD
 70
     0
  9
$DIMCLRE
 70
     0
  9
$DIMCLRT
 70
     0
  9
$DIMTFAC
 40
1.0
  9
$DIMGAP
 40
0.09
  9
$LUNITS
 70
     2
  9
$LUPREC
 70
     4
  9
$SKETCHINC
 40
0.1
  9
$FILLETRAD
 40
0.0
  9
$AUNITS
 70
     0
  9
$AUPREC
 70
     0
  9
$MENU
  1
.
  9
$ELEVATION
 40
0.0
  9
$PELEVATION
 40
0.0
  9
$THICKNESS
 40
0.0
  9
$LIMCHECK
 70
     0
  9
$BLIPMODE
 70
     0
  9
$CHAMFERA
 40
0.0
  9
$CHAMFERB
 40
0.0
  9
$SKPOLY
 70
     0
  9
$TDCREATE
 40
2458172.5207638889551163
  9
$TDUPDATE
 40
2459590.6238541668280959
  9
$TDINDWG
 40
0.3592715509
  9
$TDUSRTIMER
 40
0.3592715509
  9
$USRTIMER
 70
     1
  9
$ANGBASE
 50
0.0
  9
$ANGDIR
 70
     0
  9
$PDMODE
 70
     0
  9
$PDSIZE
 40
0.3125
  9
$PLINEWID
 40
0.0
  9
$COORDS
 70
     1
  9
$SPLFRAME
 70
     0
  9
$SPLINETYPE
 70
     6
  9
$SPLINESEGS
 70
     8
  9
$ATTDIA
 70
     1
  9
$ATTREQ
 70
     1
  9
$HANDLING
 70
     1
  9
$HANDSEED
  5
9331
  9
$SURFTAB1
 70
     6
  9
$SURFTAB2
 70
     6
  9
$SURFTYPE
 70
     6
  9
$SURFU
 70
     6
  9
$SURFV
 70
     6
  9
$UCSNAME
  2

  9
$UCSORG
 10
0.0
 20
0.0
 30
0.0
  9
$UCSXDIR
 10
1.0
 20
0.0
 30
0.0
  9
$UCSYDIR
 10
0.0
 20
1.0
 30
0.0
  9
$PUCSNAME
  2

  9
$PUCSORG
 10
0.0
 20
0.0
 30
0.0
  9
$PUCSXDIR
 10
1.0
 20
0.0
 30
0.0
  9
$PUCSYDIR
 10
0.0
 20
1.0
 30
0.0
  9
$USERI1
 70
     0
  9
$USERI2
 70
     0
  9
$USERI3
 70
     0
  9
$USERI4
 70
     0
  9
$USERI5
 70
     0
  9
$USERR1
 40
0.0
  9
$USERR2
 40
0.0
  9
$USERR3
 40
0.0
  9
$USERR4
 40
0.0
  9
$USERR5
 40
0.0
  9
$WORLDVIEW
 70
     1
  9
$SHADEDGE
 70
     3
  9
$SHADEDIF
 70
    70
  9
$TILEMODE
 70
     1
  9
$MAXACTVP
 70
    64
  9
$PLIMCHECK
 70
     0
  9
$PEXTMIN
 10
1.0000000000000000E+20
 20
1.0000000000000000E+20
 30
1.0000000000000000E+20
  9
$PEXTMAX
 10
-1.0000000000000000E+20
 20
-1.0000000000000000E+20
 30
-1.0000000000000000E+20
  9
$PLIMMIN
 10
0.0
 20
0.0
  9
$PLIMMAX
 10
12.0
 20
9.0
  9
$UNITMODE
 70
     0
  9
$VISRETAIN
 70
     1
  9
$PLINEGEN
 70
     0
  9
$PSLTSCALE
 70
     1
  0
ENDSEC
  0
SECTION
  2
TABLES
  0
TABLE
  2
VPORT
 70
     1
  0
VPORT
  2
*ACTIVE
 70
     0
 10
0.0
 20
0.0
 11
1.0
 21
1.0
 12
168.0283816320934136
 22
-16.8062443157774588
 13
0.0
 23
0.0
 14
1.0
 24
1.0
 15
0.0
 25
0.0
 16
0.0
 26
0.0
 36
24.1179433675886514
 17
466.74220170783002
 27
89.133147119929788
 37
0.0
 40
6.3519719528165002
 41
2.2831541218637992
 42
50.0
 43
0.0
 44
0.0
 50
0.0
 51
0.0
 71
     0
 72
   100
 73
     1
 74
     1
 75
     0
 76
     0
 77
     0
 78
     0
  0
ENDTAB
  0
TABLE
  2
LTYPE
 70
     2
  0
LTYPE
  2
CONTINUOUS
 70
     0
  3
Solid line
 72
    65
 73
     0
 40
0.0
  0
LTYPE
  2
PHANTOM2
 70
     0
  3
___ _ _ ___ _ _ ___ _ _ ___ _ _
 72
    65
 73
     6
 40
1.25
 49
0.625
 49
-0.125
 49
0.125
 49
-0.125
 49
0.125
 49
-0.125
  0
ENDTAB
  0
TABLE
  2
LAYER
 70
     2
  0
LAYER
  2
0
 70
     0
 62
   255
  6
CONTINUOUS
  0
LAYER
  2
DEFPOINTS
 70
     0
 62
     7
  6
CONTINUOUS
  0
ENDTAB
  0
TABLE
  2
STYLE
 70
     1
  0
STYLE
  2
STANDARD
 70
     0
 40
0.0
 41
0.8
 50
0.0
 71
     0
 42
0.2
  3
txt
  4

  0
ENDTAB
  0
TABLE
  2
VIEW
 70
     0
  0
ENDTAB
  0
TABLE
  2
UCS
 70
     0
  0
ENDTAB
  0
TABLE
  2
APPID
 70
    10
  0
APPID
  2
ACAD
 70
     0
  0
APPID
  2
ACAD_MLEADERVER
 70
     0
  0
APPID
  2
ACAD_EXEMPT_FROM_CAD_STANDARDS
 70
     0
  0
APPID
  2
ACAD_DSTYLE_DIMJAG
 70
     0
  0
APPID
  2
ACAD_DSTYLE_DIMTALN
 70
     0
  0
APPID
  2
ACAD_NAV_VCDISPLAY
 70
     0
  0
APPID
  2
ACAECLAYERSTANDARD
 70
     0
  0
APPID
  2
ACCMTRANSPARENCY
 70
     0
  0
APPID
  2
DCO15
 70
     0
  0
APPID
  2
ACDBATTR
 70
     0
  0
ENDTAB
  0
TABLE
  2
DIMSTYLE
 70
     1
  0
DIMSTYLE
  2
STANDARD
 70
     0
  3

  4

  5

  6

  7

 40
1.0
 41
0.1875
 42
0.0625
 43
0.38
 44
0.125
 45
0.0
 46
0.0
 47
0.01
 48
0.01
140
0.15625
141
0.09
142
0.0
143
25.3999999999999986
144
1.0
145
0.0
146
1.0
147
0.09
 71
     1
 72
     0
 73
     1
 74
     1
 75
     0
 76
     0
 77
     0
 78
     4
170
     0
171
     2
172
     0
173
     0
174
     0
175
     0
176
     0
177
     0
178
     0
  0
ENDTAB
  0
ENDSEC
  0
SECTION
  2
BLOCKS
  0
BLOCK
  8
0
  2
$MODEL_SPACE
 70
     0
 10
0.0
 20
0.0
 30
0.0
  3
$MODEL_SPACE
  1

  0
ENDBLK
  5
21
  8
0
  0
BLOCK
 67
     1
  8
0
  2
$PAPER_SPACE
 70
     0
 10
0.0
 20
0.0
 30
0.0
  3
$PAPER_SPACE
  1

  0
ENDBLK
  5
1D
 67
     1
  8
0
  0
ENDSEC
  0
SECTION
  2
ENTITIES
  0
ATTDEF
  5
829
  8
DEFPOINTS
 10
641.9600019613295672
 20
73.0556192821384229
 30
0.0
 40
0.001
  1
K-15396BR-B
  3

  2
MODELNUMBER
 70
     0
1001
ACDBATTR
1070
     0
1070
     1
  0
ATTDEF
  5
82A
  8
DEFPOINTS
 10
641.9600019613295672
 20
73.0539526154717436
 30
0.0
 40
0.001
  1

  3

  2
TRADENAME
 70
     0
1001
ACDBATTR
1070
     0
1070
     1
  0
ATTDEF
  5
82B
  8
DEFPOINTS
 10
641.9600019613295672
 20
73.0522859488050926
 30
0.0
 40
0.001
  1
SHOWER ARM
  3

  2
PRODUCT
 70
     0
1001
ACDBATTR
1070
     0
1070
     1
  0
LINE
  5
9164
  8
0
 10
627.5865624960869127
 20
71.094475448367902
 30
0.0
 11
627.5865624960869127
 21
70.6653415900678965
 31
0.0
  0
LINE
  5
9165
  8
0
 10
627.8001451732868645
 20
70.5905384404678955
 30
0.0
 11
627.8001451732868645
 21
70.5877285983859366
 31
0.0
  0
LINE
  5
9166
  8
0
 10
627.8001451732868645
 20
70.5528130057204237
 30
0.0
 11
627.8001451732868645
 21
70.516301206208496
 31
0.0
  0
LINE
  5
9167
  8
0
 10
627.8001451732868645
 20
70.4813909028785304
 30
0.0
 11
627.8001451732868645
 21
70.4448764559623299
 31
0.0
  0
LINE
  5
9168
  8
0
 10
627.8001451732868645
 20
70.4099321514425327
 30
0.0
 11
627.8001451732868645
 21
70.3740030073679037
 31
0.0
  0
LINE
  5
9169
  8
0
 10
627.8473892677869799
 20
70.6653415900678965
 30
0.0
 11
627.8473892677869799
 21
70.5905384404678955
 31
0.0
  0
LINE
  5
916A
  8
0
 10
628.5757357244867762
 20
70.6653415900678965
 30
0.0
 11
628.5757357244867762
 21
70.5905384404678955
 31
0.0
  0
LINE
  5
916B
  8
0
 10
628.6229798189868916
 20
70.5905384404678955
 30
0.0
 11
628.6229798189868916
 21
70.5520583995791242
 31
0.0
  0
LINE
  5
916C
  8
0
 10
628.6229798189868916
 20
70.5171090830821612
 30
0.0
 11
628.6229798189868916
 21
70.4806475212842116
 31
0.0
  0
LINE
  5
916D
  8
0
 10
628.6229798189868916
 20
70.4456633862449593
 30
0.0
 11
628.6229798189868916
 21
70.3740030073679037
 31
0.0
  0
LINE
  5
916E
  8
0
 10
628.8365624960869127
 20
71.094475448367902
 30
0.0
 11
628.8365624960869127
 21
70.6653415900678965
 31
0.0
  0
LINE
  5
916F
  8
0
 10
627.8001451732868645
 20
70.3740030073679037
 30
0.0
 11
627.8592002913868555
 21
70.3149478892678985
 31
0.0
  0
LINE
  5
9170
  8
0
 10
627.8001451732868645
 20
70.4448764559623299
 30
0.0
 11
627.8303650543731464
 21
70.4274066107946624
 31
0.0
  0
LINE
  5
9171
  8
0
 10
627.8001451732868645
 20
70.516301206208496
 30
0.0
 11
627.8303379730490406
 21
70.4988460884427752
 31
0.0
  0
LINE
  5
9172
  8
0
 10
627.8001451732868645
 20
70.5877285983859366
 30
0.0
 11
627.8303437248515593
 21
70.5702691965707487
 31
0.0
  0
LINE
  5
9173
  8
0
 10
628.6229798189868916
 20
70.4456633862449593
 30
0.0
 11
628.5927269257578018
 21
70.4631551317507956
 31
0.0
  0
LINE
  5
9174
  8
0
 10
628.6229798189868916
 20
70.5171090830821612
 30
0.0
 11
628.5927533386208097
 21
70.5345820587555181
 31
0.0
  0
LINE
  5
9175
  8
0
 10
628.6229798189868916
 20
70.3740030073679037
 30
0.0
 11
628.5639247008869006
 21
70.3149478892678985
 31
0.0
  0
LINE
  5
9176
  8
0
 10
627.8303437248515593
 20
70.5702691965707487
 30
0.0
 11
627.8001451732868645
 21
70.5528130057204237
 31
0.0
  0
LINE
  5
9177
  8
0
 10
627.8592002913868555
 20
70.3149478892678985
 30
0.0
 11
628.5639247008869006
 21
70.3149478892678985
 31
0.0
  0
LINE
  5
9178
  8
0
 10
627.8001451732868645
 20
70.3740030073679037
 30
0.0
 11
628.6229798189868916
 21
70.3740030073679037
 31
0.0
  0
LINE
  5
9179
  8
0
 10
627.8303650543731464
 20
70.4274066107946624
 30
0.0
 11
627.8001451732868645
 21
70.4099321514425327
 31
0.0
  0
LINE
  5
917A
  8
0
 10
627.8303379730490406
 20
70.4988460884427752
 30
0.0
 11
627.8001451732868645
 21
70.4813909028785304
 31
0.0
  0
LINE
  5
917B
  8
0
 10
628.5927533386208097
 20
70.5345820587555181
 30
0.0
 11
628.6229798189868916
 21
70.5520583995791242
 31
0.0
  0
LINE
  5
917C
  8
0
 10
628.5927269257578018
 20
70.4631551317507956
 30
0.0
 11
628.6229798189868916
 21
70.4806475212842116
 31
0.0
  0
LINE
  5
917D
  8
0
 10
627.8001451732868645
 20
70.5905384404678955
 30
0.0
 11
628.6229798189868916
 21
70.5905384404678955
 31
0.0
  0
LINE
  5
917E
  8
0
 10
627.5865624960869127
 20
70.6653415900678965
 30
0.0
 11
628.8365624960869127
 21
70.6653415900678965
 31
0.0
  0
LINE
  5
917F
  8
0
 10
641.7794758819868548
 20
71.7755778105678957
 30
0.0
 11
641.9369561968869675
 21
71.7755778105678957
 31
0.0
  0
LINE
  5
9180
  8
0
 10
641.7597908425867672
 20
72.4301053695678974
 30
0.0
 11
630.1721924173867819
 21
72.4301053695678974
 31
0.0
  0
LINE
  5
9181
  8
0
 10
641.7597908425867672
 20
73.6801053695678974
 30
0.0
 11
630.1721924173867819
 21
73.6801053695678974
 31
0.0
  0
LINE
  5
9182
  8
0
 10
641.7794758819868548
 20
74.3346329286679008
 30
0.0
 11
641.9369561968869675
 21
74.3346329286679008
 31
0.0
  0
LINE
  5
9183
  8
0
 10
641.7597908425867672
 20
74.3149478892678985
 30
0.0
 11
641.7597908425867672
 21
71.7952628499678838
 31
0.0
  0
LINE
  5
9184
  8
0
 10
641.9566412362869414
 20
71.7952628499678838
 30
0.0
 11
641.9566412362869414
 21
74.3149478892678985
 31
0.0
  0
ARC
  5
9185
  8
0
 10
630.1721924173867819
 20
71.094475448367902
 30
0.0
 40
2.5856299212999989
 50
90.0
 51
180.0
  0
ARC
  5
9186
  8
0
 10
630.1721924173867819
 20
71.094475448367902
 30
0.0
 40
1.3356299213
 50
90.0
 51
180.0
  0
ARC
  5
9187
  8
0
 10
641.9369561968869675
 20
74.3149478892678985
 30
0.0
 40
0.0196850394
 50
0.0
 51
90.0
  0
ARC
  5
9188
  8
0
 10
641.9369561968869675
 20
71.7952628499678838
 30
0.0
 40
0.0196850394
 50
270.0
 51
0.0
  0
ARC
  5
9189
  8
0
 10
641.7794758819868548
 20
71.7952628499678838
 30
0.0
 40
0.0196850394
 50
180.0
 51
270.0
  0
ARC
  5
918A
  8
0
 10
641.7794758819868548
 20
74.3149478892678985
 30
0.0
 40
0.0196850394
 50
90.0
 51
180.0
  0
LINE
  5
918B
  8
0
 10
627.8303379730490406
 20
70.4988460884427752
 30
0.0
 11
628.5927533386208097
 21
70.5345820587555181
 31
0.0
  0
LINE
  5
918C
  8
0
 10
627.8303650543731464
 20
70.4274066107946624
 30
0.0
 11
628.5927269257578018
 21
70.4631551317507956
 31
0.0
  0
LINE
  5
918D
  8
0
 10
627.8001451732868645
 20
70.4099321514425327
 30
0.0
 11
628.6229798189868916
 21
70.4456633862449593
 31
0.0
  0
LINE
  5
918E
  8
0
 10
627.8001451732868645
 20
70.4813909028785304
 30
0.0
 11
628.6229798189868916
 21
70.5171090830821612
 31
0.0
  0
LINE
  5
918F
  8
0
 10
627.8001451732868645
 20
70.4448764559623299
 30
0.0
 11
628.6229798189868916
 21
70.4806475212842116
 31
0.0
  0
LINE
  5
9190
  8
0
 10
627.8001451732868645
 20
70.516301206208496
 30
0.0
 11
628.6229798189868916
 21
70.5520583995791242
 31
0.0
  0
LINE
  5
9191
  8
0
 10
627.8001451732868645
 20
70.5528130057204237
 30
0.0
 11
628.6229798189868916
 21
70.5885701990910377
 31
0.0
  0
LINE
  5
9192
  8
0
 10
627.8303437248515593
 20
70.5702691965707487
 30
0.0
 11
628.2967739602407846
 21
70.5905384404678955
 31
0.0
  0
ENDSEC
  0
EOF
