  0
SECTION
  2
HEADER
  9
$ACADVER
  1
AC1009
  9
$INSBASE
 10
624.8323536243619856
 20
73.1041622589646494
 30
0.0
  9
$EXTMIN
 10
623.5528260652620247
 20
70.3640047786646505
 30
0.0
  9
$EXTMAX
 10
626.1118811834619464
 20
74.3836898180646529
 30
0.0
  9
$LIMMIN
 10
0.0
 20
0.0
  9
$LIMMAX
 10
11.6929133858000007
 20
8.2677165353999982
  9
$ORTHOMODE
 70
     0
  9
$REGENMODE
 70
     1
  9
$FILLMODE
 70
     1
  9
$QTEXTMODE
 70
     0
  9
$MIRRTEXT
 70
     0
  9
$DRAGMODE
 70
     2
  9
$LTSCALE
 40
0.6431102362
  9
$OSMODE
 70
     7
  9
$ATTMODE
 70
     1
  9
$TEXTSIZE
 40
0.2
  9
$TRACEWID
 40
0.05
  9
$TEXTSTYLE
  7
STANDARD
  9
$CLAYER
  8
0
  9
$CELTYPE
  6
BYLAYER
  9
$CECOLOR
 62
   256
  9
$DIMSCALE
 40
1.0
  9
$DIMASZ
 40
0.1875
  9
$DIMEXO
 40
0.0625
  9
$DIMDLI
 40
0.4443307087
  9
$DIMRND
 40
0.0
  9
$DIMDLE
 40
0.0
  9
$DIMEXE
 40
0.125
  9
$DIMTP
 40
0.01
  9
$DIMTM
 40
0.01
  9
$DIMTXT
 40
1.0
  9
$DIMCEN
 40
0.1052362205
  9
$DIMTSZ
 40
0.0
  9
$DIMTOL
 70
     1
  9
$DIMLIM
 70
     0
  9
$DIMTIH
 70
     0
  9
$DIMTOH
 70
     1
  9
$DIMSE1
 70
     0
  9
$DIMSE2
 70
     0
  9
$DIMTAD
 70
     0
  9
$DIMZIN
 70
     0
  9
$DIMBLK
  1

  9
$DIMASO
 70
     1
  9
$DIMSHO
 70
     1
  9
$DIMPOST
  1
\X
  9
$DIMAPOST
  1

  9
$DIMALT
 70
     1
  9
$DIMALTD
 70
     2
  9
$DIMALTF
 40
25.3999999999999986
  9
$DIMLFAC
 40
1.0
  9
$DIMTOFL
 70
     0
  9
$DIMTVP
 40
0.0
  9
$DIMTIX
 70
     0
  9
$DIMSOXD
 70
     0
  9
$DIMSAH
 70
     0
  9
$DIMBLK1
  1

  9
$DIMBLK2
  1

  9
$DIMSTYLE
  2
STANDARD
  9
$DIMCLRD
 70
     0
  9
$DIMCLRE
 70
     0
  9
$DIMCLRT
 70
     0
  9
$DIMTFAC
 40
1.0
  9
$DIMGAP
 40
0.09
  9
$LUNITS
 70
     2
  9
$LUPREC
 70
     4
  9
$SKETCHINC
 40
0.1
  9
$FILLETRAD
 40
0.0
  9
$AUNITS
 70
     0
  9
$AUPREC
 70
     0
  9
$MENU
  1
.
  9
$ELEVATION
 40
0.0
  9
$PELEVATION
 40
0.0
  9
$THICKNESS
 40
0.0
  9
$LIMCHECK
 70
     0
  9
$BLIPMODE
 70
     0
  9
$CHAMFERA
 40
0.0
  9
$CHAMFERB
 40
0.0
  9
$SKPOLY
 70
     0
  9
$TDCREATE
 40
2458172.5207638889551163
  9
$TDUPDATE
 40
2459590.6237037042155862
  9
$TDINDWG
 40
0.3585539583
  9
$TDUSRTIMER
 40
0.3585539583
  9
$USRTIMER
 70
     1
  9
$ANGBASE
 50
0.0
  9
$ANGDIR
 70
     0
  9
$PDMODE
 70
     0
  9
$PDSIZE
 40
0.3125
  9
$PLINEWID
 40
0.0
  9
$COORDS
 70
     1
  9
$SPLFRAME
 70
     0
  9
$SPLINETYPE
 70
     6
  9
$SPLINESEGS
 70
     8
  9
$ATTDIA
 70
     1
  9
$ATTREQ
 70
     1
  9
$HANDLING
 70
     1
  9
$HANDSEED
  5
9288
  9
$SURFTAB1
 70
     6
  9
$SURFTAB2
 70
     6
  9
$SURFTYPE
 70
     6
  9
$SURFU
 70
     6
  9
$SURFV
 70
     6
  9
$UCSNAME
  2

  9
$UCSORG
 10
0.0
 20
0.0
 30
0.0
  9
$UCSXDIR
 10
1.0
 20
0.0
 30
0.0
  9
$UCSYDIR
 10
0.0
 20
1.0
 30
0.0
  9
$PUCSNAME
  2

  9
$PUCSORG
 10
0.0
 20
0.0
 30
0.0
  9
$PUCSXDIR
 10
1.0
 20
0.0
 30
0.0
  9
$PUCSYDIR
 10
0.0
 20
1.0
 30
0.0
  9
$USERI1
 70
     0
  9
$USERI2
 70
     0
  9
$USERI3
 70
     0
  9
$USERI4
 70
     0
  9
$USERI5
 70
     0
  9
$USERR1
 40
0.0
  9
$USERR2
 40
0.0
  9
$USERR3
 40
0.0
  9
$USERR4
 40
0.0
  9
$USERR5
 40
0.0
  9
$WORLDVIEW
 70
     1
  9
$SHADEDGE
 70
     3
  9
$SHADEDIF
 70
    70
  9
$TILEMODE
 70
     1
  9
$MAXACTVP
 70
    64
  9
$PLIMCHECK
 70
     0
  9
$PEXTMIN
 10
1.0000000000000000E+20
 20
1.0000000000000000E+20
 30
1.0000000000000000E+20
  9
$PEXTMAX
 10
-1.0000000000000000E+20
 20
-1.0000000000000000E+20
 30
-1.0000000000000000E+20
  9
$PLIMMIN
 10
0.0
 20
0.0
  9
$PLIMMAX
 10
12.0
 20
9.0
  9
$UNITMODE
 70
     0
  9
$VISRETAIN
 70
     1
  9
$PLINEGEN
 70
     0
  9
$PSLTSCALE
 70
     1
  0
ENDSEC
  0
SECTION
  2
TABLES
  0
TABLE
  2
VPORT
 70
     1
  0
VPORT
  2
*ACTIVE
 70
     0
 10
0.0
 20
0.0
 11
1.0
 21
1.0
 12
158.078661001580997
 22
-16.759386485590209
 13
0.0
 23
0.0
 14
1.0
 24
1.0
 15
0.0
 25
0.0
 16
0.0
 26
0.0
 36
24.1179433675886514
 17
466.74220170783002
 27
89.133147119929788
 37
0.0
 40
4.052945028494908
 41
2.2831541218637992
 42
50.0
 43
0.0
 44
0.0
 50
0.0
 51
0.0
 71
     0
 72
   100
 73
     1
 74
     1
 75
     0
 76
     0
 77
     0
 78
     0
  0
ENDTAB
  0
TABLE
  2
LTYPE
 70
     2
  0
LTYPE
  2
CONTINUOUS
 70
     0
  3
Solid line
 72
    65
 73
     0
 40
0.0
  0
LTYPE
  2
PHANTOM2
 70
     0
  3
___ _ _ ___ _ _ ___ _ _ ___ _ _
 72
    65
 73
     6
 40
1.25
 49
0.625
 49
-0.125
 49
0.125
 49
-0.125
 49
0.125
 49
-0.125
  0
ENDTAB
  0
TABLE
  2
LAYER
 70
     2
  0
LAYER
  2
0
 70
     0
 62
   255
  6
CONTINUOUS
  0
LAYER
  2
DEFPOINTS
 70
     0
 62
     7
  6
CONTINUOUS
  0
ENDTAB
  0
TABLE
  2
STYLE
 70
     1
  0
STYLE
  2
STANDARD
 70
     0
 40
0.0
 41
0.8
 50
0.0
 71
     0
 42
0.2
  3
txt
  4

  0
ENDTAB
  0
TABLE
  2
VIEW
 70
     0
  0
ENDTAB
  0
TABLE
  2
UCS
 70
     0
  0
ENDTAB
  0
TABLE
  2
APPID
 70
    10
  0
APPID
  2
ACAD
 70
     0
  0
APPID
  2
ACAD_MLEADERVER
 70
     0
  0
APPID
  2
ACAD_EXEMPT_FROM_CAD_STANDARDS
 70
     0
  0
APPID
  2
ACAD_DSTYLE_DIMJAG
 70
     0
  0
APPID
  2
ACAD_DSTYLE_DIMTALN
 70
     0
  0
APPID
  2
ACAD_NAV_VCDISPLAY
 70
     0
  0
APPID
  2
ACAECLAYERSTANDARD
 70
     0
  0
APPID
  2
ACCMTRANSPARENCY
 70
     0
  0
APPID
  2
DCO15
 70
     0
  0
APPID
  2
ACDBATTR
 70
     0
  0
ENDTAB
  0
TABLE
  2
DIMSTYLE
 70
     1
  0
DIMSTYLE
  2
STANDARD
 70
     0
  3

  4

  5

  6

  7

 40
1.0
 41
0.1875
 42
0.0625
 43
0.38
 44
0.125
 45
0.0
 46
0.0
 47
0.01
 48
0.01
140
0.15625
141
0.09
142
0.0
143
25.3999999999999986
144
1.0
145
0.0
146
1.0
147
0.09
 71
     1
 72
     0
 73
     1
 74
     1
 75
     0
 76
     0
 77
     0
 78
     4
170
     0
171
     2
172
     0
173
     0
174
     0
175
     0
176
     0
177
     0
178
     0
  0
ENDTAB
  0
ENDSEC
  0
SECTION
  2
BLOCKS
  0
BLOCK
  8
0
  2
$MODEL_SPACE
 70
     0
 10
0.0
 20
0.0
 30
0.0
  3
$MODEL_SPACE
  1

  0
ENDBLK
  5
21
  8
0
  0
BLOCK
 67
     1
  8
0
  2
$PAPER_SPACE
 70
     0
 10
0.0
 20
0.0
 30
0.0
  3
$PAPER_SPACE
  1

  0
ENDBLK
  5
1D
 67
     1
  8
0
  0
ENDSEC
  0
SECTION
  2
ENTITIES
  0
ATTDEF
  5
829
  8
DEFPOINTS
 10
624.8284470985643111
 20
73.1091602627784454
 30
0.0
 40
0.001
  1
K-15396BR-B
  3

  2
MODELNUMBER
 70
     0
1001
ACDBATTR
1070
     0
1070
     1
  0
ATTDEF
  5
82A
  8
DEFPOINTS
 10
624.8284470985643111
 20
73.1074935961117802
 30
0.0
 40
0.001
  1

  3

  2
TRADENAME
 70
     0
1001
ACDBATTR
1070
     0
1070
     1
  0
ATTDEF
  5
82B
  8
DEFPOINTS
 10
624.8284470985643111
 20
73.1058269294451151
 30
0.0
 40
0.001
  1
SHOWER ARM
  3

  2
PRODUCT
 70
     0
1001
ACDBATTR
1070
     0
1070
     1
  0
LINE
  5
903B
  8
0
 10
624.4799914196620421
 20
70.3640047786646505
 30
0.0
 11
625.1847158290620428
 21
70.3640047786646505
 31
0.0
  0
LINE
  5
903C
  8
0
 10
624.420936301461893
 20
70.4230598967646557
 30
0.0
 11
625.2437709471620337
 21
70.4230598967646557
 31
0.0
  0
LINE
  5
903D
  8
0
 10
624.420936301461893
 20
70.6395953298646475
 30
0.0
 11
625.2177707987619897
 21
70.6395953298646475
 31
0.0
  0
LINE
  5
903E
  8
0
 10
624.420936301461893
 20
70.476124370979619
 30
0.0
 11
624.4511928720194192
 21
70.4586294433588449
 31
0.0
  0
LINE
  5
903F
  8
0
 10
624.420936301461893
 20
70.5475506904364238
 30
0.0
 11
624.451230888206851
 21
70.5300333336448801
 31
0.0
  0
LINE
  5
9040
  8
0
 10
624.2073536243618719
 20
70.7143984794646343
 30
0.0
 11
625.4573536243618719
 21
70.7143984794646343
 31
0.0
  0
LINE
  5
9041
  8
0
 10
624.420936301461893
 20
70.6189749961412048
 30
0.0
 11
624.4512453471885465
 21
70.601449051091862
 31
0.0
  0
LINE
  5
9042
  8
0
 10
624.4799914196620421
 20
70.3640047786646505
 30
0.0
 11
624.420936301461893
 21
70.4230598967646557
 31
0.0
  0
LINE
  5
9043
  8
0
 10
625.2437709471620337
 20
70.4768245160080085
 30
0.0
 11
625.213515745671657
 21
70.4943175891582001
 31
0.0
  0
LINE
  5
9044
  8
0
 10
625.2437709471620337
 20
70.5482139936109718
 30
0.0
 11
625.2135027314019453
 21
70.5657176729052651
 31
0.0
  0
LINE
  5
9045
  8
0
 10
625.2437709471620337
 20
70.6196364212071472
 30
0.0
 11
625.2135140062042638
 21
70.6371344907991841
 31
0.0
  0
LINE
  5
9046
  8
0
 10
624.2073536243618719
 20
70.7143984794646343
 30
0.0
 11
624.2073536243618719
 21
73.1041622589646494
 31
0.0
  0
LINE
  5
9047
  8
0
 10
624.420936301461893
 20
70.6395953298646475
 30
0.0
 11
624.420936301461893
 21
70.6189749961412048
 31
0.0
  0
LINE
  5
9048
  8
0
 10
624.420936301461893
 20
70.5839209192303798
 30
0.0
 11
624.420936301461893
 21
70.5475506904364238
 31
0.0
  0
LINE
  5
9049
  8
0
 10
624.420936301461893
 20
70.5125157108006135
 30
0.0
 11
624.420936301461893
 21
70.476124370979619
 31
0.0
  0
LINE
  5
904A
  8
0
 10
624.420936301461893
 20
70.441137309950463
 30
0.0
 11
624.420936301461893
 21
70.4230598967646557
 31
0.0
  0
LINE
  5
904B
  8
0
 10
624.4681803959620083
 20
70.7143984794646343
 30
0.0
 11
624.4681803959620083
 21
70.6395953298646475
 31
0.0
  0
LINE
  5
904C
  8
0
 10
625.1965268526620321
 20
70.7143984794646343
 30
0.0
 11
625.1965268526620321
 21
70.6395953298646475
 31
0.0
  0
LINE
  5
904D
  8
0
 10
625.2437709471620337
 20
70.6196364212071472
 30
0.0
 11
625.2437709471620337
 21
70.5832145009762968
 31
0.0
  0
LINE
  5
904E
  8
0
 10
625.2437709471620337
 20
70.5482139936109718
 30
0.0
 11
625.2437709471620337
 21
70.511807484597071
 31
0.0
  0
LINE
  5
904F
  8
0
 10
625.2437709471620337
 20
70.4768245160080085
 30
0.0
 11
625.2437709471620337
 21
70.4230598967646557
 31
0.0
  0
LINE
  5
9050
  8
0
 10
625.4573536243618719
 20
70.7143984794646343
 30
0.0
 11
625.4573536243618719
 21
73.1041622589646494
 31
0.0
  0
LINE
  5
9051
  8
0
 10
624.4512453471885465
 20
70.601449051091862
 30
0.0
 11
624.420936301461893
 21
70.5839209192303798
 31
0.0
  0
LINE
  5
9052
  8
0
 10
624.451230888206851
 20
70.5300333336448801
 30
0.0
 11
624.420936301461893
 21
70.5125157108006135
 31
0.0
  0
LINE
  5
9053
  8
0
 10
624.4511928720194192
 20
70.4586294433588449
 30
0.0
 11
624.420936301461893
 21
70.441137309950463
 31
0.0
  0
LINE
  5
9054
  8
0
 10
625.1847158290620428
 20
70.3640047786646505
 30
0.0
 11
625.2437709471620337
 21
70.4230598967646557
 31
0.0
  0
LINE
  5
9055
  8
0
 10
625.2135140062042638
 20
70.6371344907991841
 30
0.0
 11
625.2177707987619897
 21
70.6395953298646475
 31
0.0
  0
LINE
  5
9056
  8
0
 10
625.2135027314019453
 20
70.5657176729052651
 30
0.0
 11
625.2437709471620337
 21
70.5832145009762968
 31
0.0
  0
LINE
  5
9057
  8
0
 10
625.213515745671657
 20
70.4943175891582001
 30
0.0
 11
625.2437709471620337
 21
70.511807484597071
 31
0.0
  0
ARC
  5
9058
  8
0
 10
624.8323536243619856
 20
73.1041622589646494
 30
0.0
 40
1.279527559099999
 50
299.2395130270862182
 51
240.7604869729138954
  0
ARC
  5
9059
  8
0
 10
624.8323536243619856
 20
73.1041622589646494
 30
0.0
 40
0.6496062992000001
 50
344.1796471210025743
 51
195.820352878997312
  0
ARC
  5
905B
  8
0
 10
624.8323536243619856
 20
73.1041622589646494
 30
0.0
 40
0.625
 50
0.0
 51
180.0
  0
LINE
  5
905C
  8
0
 10
624.4512453471885465
 20
70.601449051091862
 30
0.0
 11
625.2135140062042638
 21
70.6371344907991841
 31
0.0
  0
LINE
  5
905D
  8
0
 10
624.451230888206851
 20
70.5300333336448801
 30
0.0
 11
625.2135027314019453
 21
70.5657176729052651
 31
0.0
  0
LINE
  5
905E
  8
0
 10
624.4511928720194192
 20
70.4586294433588449
 30
0.0
 11
625.213515745671657
 21
70.4943175891582001
 31
0.0
  0
LINE
  5
905F
  8
0
 10
624.420936301461893
 20
70.441137309950463
 30
0.0
 11
625.2437709471620337
 21
70.4768245160080085
 31
0.0
  0
LINE
  5
9060
  8
0
 10
624.420936301461893
 20
70.476124370979619
 30
0.0
 11
625.2437709471620337
 21
70.511807484597071
 31
0.0
  0
LINE
  5
9061
  8
0
 10
625.2437709471620337
 20
70.5482139936109718
 30
0.0
 11
624.420936301461893
 21
70.5125157108006135
 31
0.0
  0
LINE
  5
9062
  8
0
 10
624.420936301461893
 20
70.5475506904364238
 30
0.0
 11
625.2437709471620337
 21
70.5832145009762968
 31
0.0
  0
LINE
  5
9063
  8
0
 10
625.2437709471620337
 20
70.6196364212071472
 30
0.0
 11
624.420936301461893
 21
70.5839209192303798
 31
0.0
  0
LINE
  5
9064
  8
0
 10
624.8959996228339833
 20
70.6395953298646475
 30
0.0
 11
624.420936301461893
 21
70.6189749961412048
 31
0.0
  0
ENDSEC
  0
EOF
