  0
SECTION
  2
HEADER
  9
$ACADVER
  1
AC1009
  9
$INSBASE
 10
3759.1876103283811972
 20
149.8814946901966039
 30
0.0
  9
$EXTMIN
 10
3758.2512035190998176
 20
149.8814946901966039
 30
0.0
  9
$EXTMAX
 10
3760.1240194497249831
 20
159.5050322667354123
 30
0.0
  9
$LIMMIN
 10
0.0
 20
0.0
  9
$LIMMAX
 10
11.6929133858000007
 20
8.2677165353999982
  9
$ORTHOMODE
 70
     0
  9
$REGENMODE
 70
     1
  9
$FILLMODE
 70
     1
  9
$QTEXTMODE
 70
     0
  9
$MIRRTEXT
 70
     0
  9
$DRAGMODE
 70
     2
  9
$LTSCALE
 40
0.6431102362
  9
$OSMODE
 70
  4095
  9
$ATTMODE
 70
     1
  9
$TEXTSIZE
 40
0.2
  9
$TRACEWID
 40
0.05
  9
$TEXTSTYLE
  7
STANDARD
  9
$CLAYER
  8
0
  9
$CELTYPE
  6
BYLAYER
  9
$CECOLOR
 62
   256
  9
$DIMSCALE
 40
1.0
  9
$DIMASZ
 40
0.1875
  9
$DIMEXO
 40
0.0625
  9
$DIMDLI
 40
0.4443307087
  9
$DIMRND
 40
0.0
  9
$DIMDLE
 40
0.0
  9
$DIMEXE
 40
0.125
  9
$DIMTP
 40
0.01
  9
$DIMTM
 40
0.01
  9
$DIMTXT
 40
2.0
  9
$DIMCEN
 40
0.1052362205
  9
$DIMTSZ
 40
0.0
  9
$DIMTOL
 70
     1
  9
$DIMLIM
 70
     0
  9
$DIMTIH
 70
     1
  9
$DIMTOH
 70
     1
  9
$DIMSE1
 70
     0
  9
$DIMSE2
 70
     0
  9
$DIMTAD
 70
     0
  9
$DIMZIN
 70
     0
  9
$DIMBLK
  1

  9
$DIMASO
 70
     1
  9
$DIMSHO
 70
     1
  9
$DIMPOST
  1
\X
  9
$DIMAPOST
  1

  9
$DIMALT
 70
     1
  9
$DIMALTD
 70
     2
  9
$DIMALTF
 40
25.3999999999999986
  9
$DIMLFAC
 40
1.0
  9
$DIMTOFL
 70
     0
  9
$DIMTVP
 40
0.0
  9
$DIMTIX
 70
     0
  9
$DIMSOXD
 70
     0
  9
$DIMSAH
 70
     0
  9
$DIMBLK1
  1

  9
$DIMBLK2
  1

  9
$DIMSTYLE
  2
STANDARD
  9
$DIMCLRD
 70
     0
  9
$DIMCLRE
 70
     0
  9
$DIMCLRT
 70
     0
  9
$DIMTFAC
 40
1.0
  9
$DIMGAP
 40
0.09
  9
$LUNITS
 70
     2
  9
$LUPREC
 70
     4
  9
$SKETCHINC
 40
0.1
  9
$FILLETRAD
 40
0.0
  9
$AUNITS
 70
     0
  9
$AUPREC
 70
     0
  9
$MENU
  1
.
  9
$ELEVATION
 40
0.0
  9
$PELEVATION
 40
0.0
  9
$THICKNESS
 40
0.0
  9
$LIMCHECK
 70
     0
  9
$BLIPMODE
 70
     0
  9
$CHAMFERA
 40
0.0
  9
$CHAMFERB
 40
0.0
  9
$SKPOLY
 70
     0
  9
$TDCREATE
 40
2458060.468368056230247
  9
$TDUPDATE
 40
2459220.8955324068665504
  9
$TDINDWG
 40
0.732009375
  9
$TDUSRTIMER
 40
0.732009375
  9
$USRTIMER
 70
     1
  9
$ANGBASE
 50
0.0
  9
$ANGDIR
 70
     0
  9
$PDMODE
 70
     0
  9
$PDSIZE
 40
0.3125
  9
$PLINEWID
 40
0.0
  9
$COORDS
 70
     1
  9
$SPLFRAME
 70
     0
  9
$SPLINETYPE
 70
     6
  9
$SPLINESEGS
 70
     8
  9
$ATTDIA
 70
     1
  9
$ATTREQ
 70
     1
  9
$HANDLING
 70
     1
  9
$HANDSEED
  5
11121
  9
$SURFTAB1
 70
     6
  9
$SURFTAB2
 70
     6
  9
$SURFTYPE
 70
     6
  9
$SURFU
 70
     6
  9
$SURFV
 70
     6
  9
$UCSNAME
  2

  9
$UCSORG
 10
0.0
 20
0.0
 30
0.0
  9
$UCSXDIR
 10
1.0
 20
0.0
 30
0.0
  9
$UCSYDIR
 10
0.0
 20
1.0
 30
0.0
  9
$PUCSNAME
  2

  9
$PUCSORG
 10
0.0
 20
0.0
 30
0.0
  9
$PUCSXDIR
 10
1.0
 20
0.0
 30
0.0
  9
$PUCSYDIR
 10
0.0
 20
1.0
 30
0.0
  9
$USERI1
 70
     0
  9
$USERI2
 70
     0
  9
$USERI3
 70
     0
  9
$USERI4
 70
     0
  9
$USERI5
 70
     0
  9
$USERR1
 40
0.0
  9
$USERR2
 40
0.0
  9
$USERR3
 40
0.0
  9
$USERR4
 40
0.0
  9
$USERR5
 40
0.0
  9
$WORLDVIEW
 70
     1
  9
$SHADEDGE
 70
     3
  9
$SHADEDIF
 70
    70
  9
$TILEMODE
 70
     1
  9
$MAXACTVP
 70
    64
  9
$PLIMCHECK
 70
     0
  9
$PEXTMIN
 10
1.0000000000000000E+20
 20
1.0000000000000000E+20
 30
1.0000000000000000E+20
  9
$PEXTMAX
 10
-1.0000000000000000E+20
 20
-1.0000000000000000E+20
 30
-1.0000000000000000E+20
  9
$PLIMMIN
 10
0.0
 20
0.0
  9
$PLIMMAX
 10
12.0
 20
9.0
  9
$UNITMODE
 70
     0
  9
$VISRETAIN
 70
     1
  9
$PLINEGEN
 70
     0
  9
$PSLTSCALE
 70
     1
  0
ENDSEC
  0
SECTION
  2
TABLES
  0
TABLE
  2
VPORT
 70
     1
  0
VPORT
  2
*ACTIVE
 70
     0
 10
0.0
 20
0.0
 11
1.0
 21
1.0
 12
87.9138077734744456
 22
-0.0302102000416795
 13
0.0
 23
0.0
 14
1.0
 24
1.0
 15
0.0
 25
0.0
 16
0.0
 26
0.0
 36
137.7247118064013875
 17
3671.2738037109379547
 27
154.7234736785077018
 37
0.0
 40
9.7474457856788224
 41
2.9182795698924728
 42
50.0
 43
0.0
 44
0.0
 50
0.0
 51
0.0
 71
     0
 72
   100
 73
     1
 74
     1
 75
     0
 76
     0
 77
     0
 78
     0
  0
ENDTAB
  0
TABLE
  2
LTYPE
 70
     2
  0
LTYPE
  2
CONTINUOUS
 70
     0
  3
Solid line
 72
    65
 73
     0
 40
0.0
  0
LTYPE
  2
PHANTOM2
 70
     0
  3
___ _ _ ___ _ _ ___ _ _ ___ _ _
 72
    65
 73
     6
 40
1.25
 49
0.625
 49
-0.125
 49
0.125
 49
-0.125
 49
0.125
 49
-0.125
  0
ENDTAB
  0
TABLE
  2
LAYER
 70
     2
  0
LAYER
  2
0
 70
     0
 62
   255
  6
CONTINUOUS
  0
LAYER
  2
DEFPOINTS
 70
     0
 62
     7
  6
CONTINUOUS
  0
ENDTAB
  0
TABLE
  2
STYLE
 70
     1
  0
STYLE
  2
STANDARD
 70
     0
 40
0.0
 41
0.8
 50
0.0
 71
     0
 42
0.2
  3
txt
  4

  0
ENDTAB
  0
TABLE
  2
VIEW
 70
     0
  0
ENDTAB
  0
TABLE
  2
UCS
 70
     0
  0
ENDTAB
  0
TABLE
  2
APPID
 70
    10
  0
APPID
  2
ACAD
 70
     0
  0
APPID
  2
ACAD_MLEADERVER
 70
     0
  0
APPID
  2
ACAD_EXEMPT_FROM_CAD_STANDARDS
 70
     0
  0
APPID
  2
ACAD_NAV_VCDISPLAY
 70
     0
  0
APPID
  2
ACAECLAYERSTANDARD
 70
     0
  0
APPID
  2
ACCMTRANSPARENCY
 70
     0
  0
APPID
  2
ACAD_DSTYLE_DIMJAG
 70
     0
  0
APPID
  2
ACAD_DSTYLE_DIMTALN
 70
     0
  0
APPID
  2
ACDBATTR
 70
     0
  0
APPID
  2
ACAD_PSEXT
 70
     0
  0
ENDTAB
  0
TABLE
  2
DIMSTYLE
 70
     1
  0
DIMSTYLE
  2
STANDARD
 70
     0
  3

  4

  5

  6

  7

 40
1.0
 41
0.1875
 42
0.0625
 43
0.38
 44
0.125
 45
0.0
 46
0.0
 47
0.01
 48
0.01
140
0.15625
141
0.09
142
0.0
143
25.3999999999999986
144
1.0
145
0.0
146
1.0
147
0.09
 71
     1
 72
     0
 73
     1
 74
     1
 75
     0
 76
     0
 77
     0
 78
     4
170
     0
171
     2
172
     0
173
     0
174
     0
175
     0
176
     0
177
     0
178
     0
  0
ENDTAB
  0
ENDSEC
  0
SECTION
  2
BLOCKS
  0
BLOCK
  8
0
  2
$MODEL_SPACE
 70
     0
 10
0.0
 20
0.0
 30
0.0
  3
$MODEL_SPACE
  1

  0
ENDBLK
  5
21
  8
0
  0
BLOCK
 67
     1
  8
0
  2
$PAPER_SPACE
 70
     0
 10
0.0
 20
0.0
 30
0.0
  3
$PAPER_SPACE
  1

  0
ENDBLK
  5
1D
 67
     1
  8
0
  0
ENDSEC
  0
SECTION
  2
ENTITIES
  0
ATTDEF
  5
AA11
  8
DEFPOINTS
 10
3759.184800163051932
 20
149.8863225778744948
 30
0.0
 40
0.001
  1
K-15238BR-4ND
  3

  2
MODELNUMBER
 70
     0
1001
ACDBATTR
1070
     0
1070
     1
  0
ATTDEF
  5
AA12
  8
DEFPOINTS
 10
3759.184800163051932
 20
149.8846559112078012
 30
0.0
 40
0.001
  1
JULY
  3

  2
TRADENAME
 70
     0
1001
ACDBATTR
1070
     0
1070
     1
  0
ATTDEF
  5
AA13
  8
DEFPOINTS
 10
3759.184800163051932
 20
149.8829892445411929
 30
0.0
 40
0.001
  1
BATHROOM SINK FAUCET 
  3

  2
PRODUCT
 70
     0
1001
ACDBATTR
1070
     0
1070
     1
  0
LINE
  5
10CD6
  8
0
 10
3758.2512035603008371
 20
149.8814946901966039
 30
0.0
 11
3760.124017096460193
 21
149.8814946901966039
 31
0.0
  0
LINE
  5
10CD7
  8
0
 10
3758.2512035603008371
 20
157.9328004875225133
 30
0.0
 11
3758.2512035603008371
 21
149.8814946901966039
 31
0.0
  0
CIRCLE
  5
10CD8
  8
0
 10
3759.1876103500007957
 20
158.6933468072965923
 30
0.0
 40
0.1318897637
  0
ARC
  5
10CD9
  8
0
 10
3759.2427284550021795
 20
157.9723783513965998
 30
0.0
 40
0.8661417323
 50
173.4419944615717952
 51
180.0051188795565906
  0
ARC
  5
10CDA
  8
0
 10
3759.1844730702678135
 20
152.0563594838970118
 30
0.0
 40
7.4483043922010026
 50
93.8451118415654832
 51
96.9294043803278242
  0
ARC
  5
10CDB
  8
0
 10
3759.1955716794691398
 20
151.8912281809253955
 30
0.0
 40
7.6138082481901659
 50
90.0599111357793163
 51
93.8451118683320828
  0
LINE
  5
10CDC
  8
0
 10
3758.3099867153218838
 20
159.4531501348411098
 30
0.0
 11
3760.0652339414391463
 21
159.4531501348411098
 31
0.0
  0
ARC
  5
10CDD
  8
0
 10
3758.6573518169871022
 20
159.407957806245804
 30
0.0
 40
0.0451923315658231
 50
89.9792257635521935
 51
164.1762020700091114
  0
ARC
  5
10CDE
  8
0
 10
3758.6480789277661643
 20
159.4105859298130952
 30
0.0
 40
0.0355542037401994
 50
164.1762020700091114
 51
201.2571605218155923
  0
ARC
  5
10CDF
  8
0
 10
3758.754217288232212
 20
159.4518761521443082
 30
0.0
 40
0.1494411389980405
 50
201.2571605218155923
 51
240.1246533145458102
  0
ARC
  5
10CE0
  8
0
 10
3758.9608215193479737
 20
159.8926319761606862
 30
0.0
 40
0.6358227140040223
 50
243.7674951630793032
 51
267.1078378520037973
  0
ARC
  5
10CE1
  8
0
 10
3759.0973521302598783
 20
161.053524033465095
 30
0.0
 40
1.8038027586015
 50
264.6364014964640887
 51
269.1839476706426808
  0
ARC
  5
10CE2
  8
0
 10
3759.3122438488139778
 20
169.1283180024389878
 30
0.0
 40
9.8813429452207
 50
268.6048760284223249
 51
269.2773083475890985
  0
LINE
  5
10CE3
  8
0
 10
3758.2842386330698901
 20
158.0712995631965896
 30
0.0
 11
3760.0909820236938685
 21
158.0712995631965896
 31
0.0
  0
ARC
  5
10CE4
  8
0
 10
3758.2863612014789396
 20
158.1063724666641122
 30
0.0
 40
0.0351370723638281
 50
209.1338318159050971
 51
266.5367547700769819
  0
ARC
  5
10CE5
  8
0
 10
3762.7791516735001096
 20
102.798500199254903
 30
0.0
 40
55.3418253521019494
 50
94.1477221179742969
 51
94.46590816714955
  0
ARC
  5
10CE6
  8
0
 10
3759.3429745042381001
 20
150.0178325960712868
 30
0.0
 40
7.9976421026690048
 50
92.174747755966834
 51
94.0625532724211837
  0
ARC
  5
10CE7
  8
0
 10
3759.2549973285649685
 20
148.3775344181331093
 30
0.0
 40
9.634590545036394
 50
90.4007458508162074
 51
91.2817345225776648
  0
LINE
  5
10CE8
  8
0
 10
3758.5243376242938211
 20
157.9765229140026861
 30
0.0
 11
3759.8507797390061569
 21
157.9765229138905056
 31
0.0
  0
ARC
  5
10CE9
  8
0
 10
3758.6013034467218858
 20
157.9372759952512126
 30
0.0
 40
0.0395325534714173
 50
96.8917186458676554
 51
179.7759873357985043
  0
ARC
  5
10CEA
  8
0
 10
3771.5812910395761719
 20
157.8865271191108093
 30
0.0
 40
13.0196193543779906
 50
179.7759873357985043
 51
181.7263068124622976
  0
ARC
  5
10CEB
  8
0
 10
3759.6936566666981889
 20
157.528247390527298
 30
0.0
 40
1.1265871360099571
 50
181.7263068124622976
 51
195.1549144272175056
  0
ARC
  5
10CEC
  8
0
 10
3758.8548261529867887
 20
157.3161963856724128
 30
0.0
 40
0.26190092088421
 50
198.3547241054160963
 51
238.4153165540415102
  0
ARC
  5
10CED
  8
0
 10
3758.7282199972569288
 20
157.103848982631888
 30
0.0
 40
0.0208293416422156
 50
120.2444491874596935
 51
192.3001772619556107
  0
ARC
  5
10CEE
  8
0
 10
3758.8661205638818501
 20
156.8079755212434918
 30
0.0
 40
0.3471787558198273
 50
93.5841051413736551
 51
115.3041131621423006
  0
ARC
  5
10CEF
  8
0
 10
3759.1862929827698281
 20
153.5742446523580043
 30
0.0
 40
3.5965163833153868
 50
89.9790134849199461
 51
95.454628863684448
  0
ARC
  5
10CF0
  8
0
 10
3759.0525435305921746
 20
157.2918218626963949
 30
0.0
 40
0.5677638226831265
 50
238.456907134750395
 51
252.2302292975925866
  0
ARC
  5
10CF1
  8
0
 10
3759.1241137322508621
 20
157.5763552059162862
 30
0.0
 40
0.8607677123776362
 50
253.4738634003309983
 51
264.0028854572117893
  0
ARC
  5
10CF2
  8
0
 10
3759.1836951222530843
 20
158.0417839261621111
 30
0.0
 40
1.329916649862716
 50
263.5449994797323825
 51
268.6551054736631272
  0
ARC
  5
10CF3
  8
0
 10
3759.2036840661749011
 20
159.4515543105624999
 30
0.0
 40
2.7397991740477741
 50
268.929160088146773
 51
269.6638576182875795
  0
ARC
  5
10CF4
  8
0
 10
3758.7541488524038868
 20
156.9976187129570064
 30
0.0
 40
0.036533387321888
 50
87.8432434460826101
 51
175.4925127996424123
  0
ARC
  5
10CF5
  8
0
 10
3758.808371071098918
 20
157.0080951569339902
 30
0.0
 40
0.0909611104934954
 50
184.79613060257131
 51
213.0160207438659086
  0
ARC
  5
10CF6
  8
0
 10
3758.9611067702840046
 20
157.0948704016525141
 30
0.0
 40
0.2665196142118749
 50
210.7669887086723861
 51
219.5236697363966982
  0
LINE
  5
10CF7
  8
0
 10
3758.7555237358010345
 20
157.0341262201966117
 30
0.0
 11
3758.7555237358010345
 21
156.8079468789966029
 31
0.0
  0
LINE
  5
10CF8
  8
0
 10
3758.7177284602012151
 20
157.0004898487966045
 30
0.0
 11
3758.7177284602012151
 21
157.121843123996598
 31
0.0
  0
ARC
  5
10CF9
  8
0
 10
3759.1978637646689094
 20
155.2119351456958043
 30
0.0
 40
1.789188656206373
 50
90.3283509754141249
 51
94.7863407548372692
  0
ARC
  5
10CFA
  8
0
 10
3759.1494605618318019
 20
155.8772479919666978
 30
0.0
 40
1.1221807366215399
 50
95.1580155883175252
 51
105.7264251588595982
  0
ARC
  5
10CFB
  8
0
 10
3758.9452168652960609
 20
156.614540456094602
 30
0.0
 40
0.3571430487948019
 50
106.2463469955552995
 51
122.0825447319435
  0
ARC
  5
10CFC
  8
0
 10
3759.1903522298857752
 20
155.4914952878903023
 30
0.0
 40
1.4700983529345379
 50
90.1068632414028912
 51
94.8372856308485552
  0
ARC
  5
10CFD
  8
0
 10
3759.1566770644599274
 20
155.920173616627892
 30
0.0
 40
1.040110424767775
 50
94.980159476337505
 51
104.8143020614704994
  0
ARC
  5
10CFE
  8
0
 10
3758.9739626905429759
 20
156.6110214667706089
 30
0.0
 40
0.3255089312887814
 50
104.8143020614704994
 51
124.2854031501071006
  0
ARC
  5
10CFF
  8
0
 10
3758.8268775369419927
 20
156.8267582813722072
 30
0.0
 40
0.0644027927460174
 50
124.2854031501071006
 51
159.5823495188091954
  0
ARC
  5
10D00
  8
0
 10
3758.8022029058270164
 20
156.835943347967202
 30
0.0
 40
0.0380740466881505
 50
159.582349518807689
 51
220.9219173200307011
  0
ARC
  5
10D01
  8
0
 10
3758.8971900485998958
 20
156.9182874128013907
 30
0.0
 40
0.1637844372909435
 50
220.9219173200307011
 51
241.7356636593005987
  0
ARC
  5
10D02
  8
0
 10
3759.1863073375798194
 20
155.6653776366856903
 30
0.0
 40
1.2883710484126321
 50
89.9420540484429409
 51
94.9978200545356657
  0
ARC
  5
10D03
  8
0
 10
3759.1655840831522255
 20
155.9023493618296925
 30
0.0
 40
1.0504949214225481
 50
94.9978200545356657
 51
101.4818155111149025
  0
ARC
  5
10D04
  8
0
 10
3759.0623876950389786
 20
156.4104011116484969
 30
0.0
 40
0.5320683837014637
 50
101.4818155111149025
 51
113.2245899007135961
  0
ARC
  5
10D05
  8
0
 10
3758.9146401862171842
 20
156.754713693801591
 30
0.0
 40
0.1573945514257608
 50
113.2245899007135961
 51
127.1906162009679946
  0
ARC
  5
10D06
  8
0
 10
3758.8759672463629613
 20
156.8056807414232878
 30
0.0
 40
0.0934161470985707
 50
127.1906162009679946
 51
152.5533429652882091
  0
ARC
  5
10D07
  8
0
 10
3758.839298281270203
 20
156.837518414485686
 30
0.0
 40
0.0475742778621318
 50
166.3588292231962953
 51
238.9337206169363981
  0
ARC
  5
10D08
  8
0
 10
3759.0304103350558762
 20
157.1364025026911122
 30
0.0
 40
0.4023205440394274
 50
237.5852152852932022
 51
261.9770815067590206
  0
ARC
  5
10D09
  8
0
 10
3759.1791627511288425
 20
157.8795505376114079
 30
0.0
 40
1.1597750609466679
 50
259.8238166631006152
 51
268.9910477705777794
  0
ARC
  5
10D0A
  8
0
 10
3759.187577112040799
 20
158.0612902444250096
 30
0.0
 40
1.3416448826401439
 50
268.7684283804121037
 51
270.0014185244601208
  0
ARC
  5
10D0B
  8
0
 10
3759.1872815171318507
 20
155.7899098630784067
 30
0.0
 40
1.1390409011630001
 50
89.9836850782830311
 51
94.7357996002053824
  0
ARC
  5
10D0C
  8
0
 10
3759.1662090436448125
 20
156.0442730360510097
 30
0.0
 40
0.8838063562761705
 50
94.7357996002053824
 51
103.1724106131987071
  0
ARC
  5
10D0D
  8
0
 10
3759.045256078141847
 20
156.561077875819592
 30
0.0
 40
0.3530362909256032
 50
103.1724106131987071
 51
117.9324922922404966
  0
ARC
  5
10D0E
  8
0
 10
3758.9206591301658591
 20
156.7960782024387925
 30
0.0
 40
0.0870484097052092
 50
117.9324922922404966
 51
147.9047538464814977
  0
ARC
  5
10D0F
  8
0
 10
3758.8711442521521349
 20
156.8271331022814081
 30
0.0
 40
0.0286007412396302
 50
147.9047538464828051
 51
215.2135142164248975
  0
ARC
  5
10D10
  8
0
 10
3758.9745958777680244
 20
156.922887927242499
 30
0.0
 40
0.1693585167910474
 50
221.5119171571751053
 51
256.2584151233415923
  0
ARC
  5
10D11
  8
0
 10
3759.139619364182181
 20
157.4438424019712102
 30
0.0
 40
0.7155360554545948
 50
253.3303742858286114
 51
264.7384140380128201
  0
ARC
  5
10D12
  8
0
 10
3759.1865664590609413
 20
157.8423675251067948
 30
0.0
 40
1.116733757189881
 50
264.2149085357681884
 51
270.0535573628906718
  0
ARC
  5
10D13
  8
0
 10
3758.8792734220351122
 20
156.8452113083677091
 30
0.0
 40
0.059840412395657
 50
177.2863385741538877
 51
232.2160422679143039
  0
ARC
  5
10D14
  8
0
 10
3758.9933242330498615
 20
156.9923297651812959
 30
0.0
 40
0.2459893523024087
 50
232.2160422679143039
 51
256.562647445072173
  0
ARC
  5
10D15
  8
0
 10
3759.1430205190481502
 20
157.5027464789110923
 30
0.0
 40
0.7776882990982636
 50
254.5740233565157098
 51
264.5588515440431934
  0
ARC
  5
10D16
  8
0
 10
3759.186504651658197
 20
157.879702521822793
 30
0.0
 40
1.1570937246985431
 50
264.1852933015301801
 51
270.0547497735100251
  0
LINE
  5
10D17
  8
0
 10
3758.8195001138010412
 20
156.8480444300450927
 30
0.0
 11
3758.8195001138010412
 21
156.8800987464965999
 31
0.0
  0
ARC
  5
10D18
  8
0
 10
3759.1866359126088355
 20
155.9043757733277005
 30
0.0
 40
1.0217948179764089
 50
89.9453609289190155
 51
96.1109149752484768
  0
ARC
  5
10D19
  8
0
 10
3759.1571027292529834
 20
156.180227373842996
 30
0.0
 40
0.7443667832972624
 50
96.1109149752484768
 51
103.7383742369045052
  0
ARC
  5
10D1A
  8
0
 10
3759.062667541261817
 20
156.5664915919876137
 30
0.0
 40
0.3467261780395767
 50
103.7383742369045052
 51
114.1795969073345987
  0
ARC
  5
10D1B
  8
0
 10
3758.9727615190149663
 20
156.766732242548386
 30
0.0
 40
0.127228089270069
 50
114.1795969073345987
 51
137.8937793407093011
  0
ARC
  5
10D1C
  8
0
 10
3758.9034101513047972
 20
156.832626004836186
 30
0.0
 40
0.031683841040147
 50
142.2129652449561092
 51
227.6627645005511056
  0
ARC
  5
10D1D
  8
0
 10
3759.0023064561241881
 20
156.9442477063003025
 30
0.0
 40
0.1808117403289559
 50
228.3196500629701973
 51
255.4940745353551961
  0
ARC
  5
10D1E
  8
0
 10
3759.1299367678939234
 20
157.3412869932703018
 30
0.0
 40
0.5976495257305656
 50
253.181939094725891
 51
262.3235267167812026
  0
ARC
  5
10D1F
  8
0
 10
3759.1852928176967907
 20
157.7273237921434088
 30
0.0
 40
0.9876266257225509
 50
262.1324616259078084
 51
270.134447269395082
  0
ARC
  5
10D20
  8
0
 10
3758.9989542891999008
 20
156.7021467458714028
 30
0.0
 40
0.2045832827359322
 50
106.930560677902406
 51
126.7396270655728046
  0
ARC
  5
10D21
  8
0
 10
3758.9066117107568061
 20
156.8258551658462068
 30
0.0
 40
0.0502106006764692
 50
126.7396270655728046
 51
171.8941161710152983
  0
ARC
  5
10D22
  8
0
 10
3758.9143767505761389
 20
156.843423337264511
 30
0.0
 40
0.058423156864724
 50
190.3420078275860021
 51
245.6996961498813903
  0
ARC
  5
10D23
  8
0
 10
3759.0688159136420836
 20
157.1299718374438896
 30
0.0
 40
0.3838183798049799
 50
242.288788711288305
 51
260.8310063955411806
  0
ARC
  5
10D24
  8
0
 10
3759.1759697183551907
 20
157.6642970592534994
 30
0.0
 40
0.9286204111737351
 50
259.5573193743828142
 51
267.5782605182650968
  0
ARC
  5
10D25
  8
0
 10
3759.1875814519930827
 20
157.8476736286835944
 30
0.0
 40
1.1123305248617881
 50
267.379801963072623
 51
270.001487413243126
  0
ARC
  5
10D26
  8
0
 10
3759.1864572607728405
 20
157.7281975482987946
 30
0.0
 40
0.9813439125483323
 50
260.1539711733581157
 51
270.0673218856227891
  0
ARC
  5
10D27
  8
0
 10
3759.0896974826609949
 20
157.1706888458977005
 30
0.0
 40
0.4155008177656211
 50
243.4653013064842071
 51
260.1539711733581157
  0
ARC
  5
10D28
  8
0
 10
3758.9326461868149636
 20
156.8561698227289014
 30
0.0
 40
0.0639509273347781
 50
198.2714519841555045
 51
243.4653013064842071
  0
ARC
  5
10D29
  8
0
 10
3759.0093532736868838
 20
156.9760444494802982
 30
0.0
 40
0.2023608982753537
 50
229.9493955461583994
 51
253.0838220059154935
  0
ARC
  5
10D2A
  8
0
 10
3759.1520819717229642
 20
157.4453434652473902
 30
0.0
 40
0.6928841367085911
 50
253.0838220059154935
 51
268.3009433594584721
  0
ARC
  5
10D2B
  8
0
 10
3759.367454719133093
 20
164.7060385033703085
 30
0.0
 40
7.9567727548627207
 50
268.3009433594584721
 51
268.7048515196598828
  0
LINE
  5
10D2C
  8
0
 10
3759.0503899337008988
 20
156.7799349017965937
 30
0.0
 11
3759.0691154681007902
 21
156.7712225773965997
 31
0.0
  0
LINE
  5
10D2D
  8
0
 10
3759.0691154681007902
 20
156.7712225773965997
 30
0.0
 11
3759.1015331662019889
 21
156.7712213390965985
 31
0.0
  0
LINE
  5
10D2E
  8
0
 10
3759.1015331662019889
 20
156.7712213390965985
 30
0.0
 11
3759.1203295747009179
 21
156.7797945483966089
 31
0.0
  0
LINE
  5
10D2F
  8
0
 10
3759.1203295747009179
 20
156.7797945483966089
 30
0.0
 11
3759.1015341975021329
 21
156.7886493796966079
 31
0.0
  0
LINE
  5
10D30
  8
0
 10
3759.1015341975021329
 20
156.7886493796966079
 30
0.0
 11
3759.0691146038011539
 21
156.7886484643966014
 31
0.0
  0
LINE
  5
10D31
  8
0
 10
3759.0691146038011539
 20
156.7886484643966014
 30
0.0
 11
3759.0503899337008988
 21
156.7799349017965937
 31
0.0
  0
LINE
  5
10D32
  8
0
 10
3759.0588431023511475
 20
156.7838686006977014
 30
0.0
 11
3759.0711174315010794
 21
156.7775948593966007
 31
0.0
  0
LINE
  5
10D33
  8
0
 10
3759.0711174315010794
 20
156.7775948593966007
 30
0.0
 11
3759.0995303385011539
 21
156.7775948593966007
 31
0.0
  0
LINE
  5
10D34
  8
0
 10
3759.0995303385011539
 20
156.7775948593966007
 30
0.0
 11
3759.1117458031631031
 21
156.7838385134672023
 31
0.0
  0
LINE
  5
10D35
  8
0
 10
3759.0503900172011527
 20
156.7973618655965993
 30
0.0
 11
3759.0691146038011539
 21
156.7886484643966014
 31
0.0
  0
LINE
  5
10D36
  8
0
 10
3759.1015341975021329
 20
156.7886493796966079
 30
0.0
 11
3759.1203296582020812
 21
156.797221512196586
 31
0.0
  0
LINE
  5
10D37
  8
0
 10
3759.1203296582020812
 20
156.797221512196586
 30
0.0
 11
3759.1015342810010225
 21
156.8060763434966134
 31
0.0
  0
LINE
  5
10D38
  8
0
 10
3759.1015342810010225
 20
156.8060763434966134
 30
0.0
 11
3759.0691146873018624
 21
156.8060754281966069
 31
0.0
  0
LINE
  5
10D39
  8
0
 10
3759.0691146873018624
 20
156.8060754281966069
 30
0.0
 11
3759.0503900172011527
 21
156.7973618655965993
 31
0.0
  0
LINE
  5
10D3A
  8
0
 10
3759.0588431858509466
 20
156.8012955644977069
 30
0.0
 11
3759.0711175150008785
 21
156.7950218231966062
 31
0.0
  0
LINE
  5
10D3B
  8
0
 10
3759.0711175150008785
 20
156.7950218231966062
 30
0.0
 11
3759.099530422000953
 21
156.7950218231966062
 31
0.0
  0
LINE
  5
10D3C
  8
0
 10
3759.099530422000953
 20
156.7950218231966062
 30
0.0
 11
3759.1117458866629022
 21
156.8012654772672079
 31
0.0
  0
LINE
  5
10D3D
  8
0
 10
3759.0503901007009517
 20
156.8147888293966048
 30
0.0
 11
3759.0691146873018624
 21
156.8060754281966069
 31
0.0
  0
LINE
  5
10D3E
  8
0
 10
3759.1015342810010225
 20
156.8060763434966134
 30
0.0
 11
3759.1203297417009708
 21
156.8146484759965915
 31
0.0
  0
LINE
  5
10D3F
  8
0
 10
3759.1203297417009708
 20
156.8146484759965915
 30
0.0
 11
3759.1015343645008215
 21
156.8235033072965905
 31
0.0
  0
LINE
  5
10D40
  8
0
 10
3759.1015343645008215
 20
156.8235033072965905
 30
0.0
 11
3759.0691147708012068
 21
156.8235023919966125
 31
0.0
  0
LINE
  5
10D41
  8
0
 10
3759.0691147708012068
 20
156.8235023919966125
 30
0.0
 11
3759.0503901007009517
 21
156.8147888293966048
 31
0.0
  0
LINE
  5
10D42
  8
0
 10
3759.0588432693512004
 20
156.8187225282977977
 30
0.0
 11
3759.0711175985020418
 21
156.8124487869966117
 31
0.0
  0
LINE
  5
10D43
  8
0
 10
3759.0711175985020418
 20
156.8124487869966117
 30
0.0
 11
3759.0995305055012068
 21
156.8124487869966117
 31
0.0
  0
LINE
  5
10D44
  8
0
 10
3759.0995305055012068
 20
156.8124487869966117
 30
0.0
 11
3759.1117459701640655
 21
156.8186924410672134
 31
0.0
  0
LINE
  5
10D45
  8
0
 10
3759.0503901842021151
 20
156.8322157931966103
 30
0.0
 11
3759.0691147708012068
 21
156.8235023919966125
 31
0.0
  0
LINE
  5
10D46
  8
0
 10
3759.1015343645008215
 20
156.8235033072965905
 30
0.0
 11
3759.1203298252012246
 21
156.832075439796597
 31
0.0
  0
LINE
  5
10D47
  8
0
 10
3759.1203298252012246
 20
156.832075439796597
 30
0.0
 11
3759.1015344480019849
 21
156.840930271096596
 31
0.0
  0
LINE
  5
10D48
  8
0
 10
3759.1015344480019849
 20
156.840930271096596
 30
0.0
 11
3759.0691148543010058
 21
156.8409293557965896
 31
0.0
  0
LINE
  5
10D49
  8
0
 10
3759.0691148543010058
 20
156.8409293557965896
 30
0.0
 11
3759.0503901842021151
 21
156.8322157931966103
 31
0.0
  0
LINE
  5
10D4A
  8
0
 10
3759.0588433528509995
 20
156.8361494920976895
 30
0.0
 11
3759.0711176820009314
 21
156.8298757507965888
 31
0.0
  0
LINE
  5
10D4B
  8
0
 10
3759.0711176820009314
 20
156.8298757507965888
 30
0.0
 11
3759.0995305890010059
 21
156.8298757507965888
 31
0.0
  0
LINE
  5
10D4C
  8
0
 10
3759.0995305890010059
 20
156.8298757507965888
 30
0.0
 11
3759.1117460536638646
 21
156.8361194048671905
 31
0.0
  0
LINE
  5
10D4D
  8
0
 10
3759.0503902677010046
 20
156.8496427569965874
 30
0.0
 11
3759.0691148543010058
 21
156.8409293557965896
 31
0.0
  0
LINE
  5
10D4E
  8
0
 10
3759.1015344480019849
 20
156.840930271096596
 30
0.0
 11
3759.1203299087010237
 21
156.8495024035966026
 31
0.0
  0
LINE
  5
10D4F
  8
0
 10
3759.1203299087010237
 20
156.8495024035966026
 30
0.0
 11
3759.1015345315008744
 21
156.8583572348966015
 31
0.0
  0
LINE
  5
10D50
  8
0
 10
3759.1015345315008744
 20
156.8583572348966015
 30
0.0
 11
3759.0691149378008049
 21
156.8583563195965951
 31
0.0
  0
LINE
  5
10D51
  8
0
 10
3759.0691149378008049
 20
156.8583563195965951
 30
0.0
 11
3759.0503902677010046
 21
156.8496427569965874
 31
0.0
  0
LINE
  5
10D52
  8
0
 10
3759.0588434363507986
 20
156.853576455897695
 30
0.0
 11
3759.0711177655011852
 21
156.8473027145965943
 31
0.0
  0
LINE
  5
10D53
  8
0
 10
3759.0711177655011852
 20
156.8473027145965943
 30
0.0
 11
3759.0995306725008049
 21
156.8473027145965943
 31
0.0
  0
LINE
  5
10D54
  8
0
 10
3759.0995306725008049
 20
156.8473027145965943
 30
0.0
 11
3759.1117461371632089
 21
156.853546368667196
 31
0.0
  0
LINE
  5
10D55
  8
0
 10
3759.0503903512021679
 20
156.8670697207965929
 30
0.0
 11
3759.0691149378008049
 21
156.8583563195965951
 31
0.0
  0
LINE
  5
10D56
  8
0
 10
3759.1015345315008744
 20
156.8583572348966015
 30
0.0
 11
3759.120329992202187
 21
156.8669293673966081
 31
0.0
  0
LINE
  5
10D57
  8
0
 10
3759.120329992202187
 20
156.8669293673966081
 30
0.0
 11
3759.1015346150011283
 21
156.8757841986966071
 31
0.0
  0
LINE
  5
10D58
  8
0
 10
3759.1015346150011283
 20
156.8757841986966071
 30
0.0
 11
3759.0691150213010587
 21
156.8757832833966006
 31
0.0
  0
LINE
  5
10D59
  8
0
 10
3759.0691150213010587
 20
156.8757832833966006
 30
0.0
 11
3759.0503903512021679
 21
156.8670697207965929
 31
0.0
  0
LINE
  5
10D5A
  8
0
 10
3759.0588435198510524
 20
156.8710034196977006
 30
0.0
 11
3759.0711178490009843
 21
156.8647296783965999
 31
0.0
  0
LINE
  5
10D5B
  8
0
 10
3759.0711178490009843
 20
156.8647296783965999
 30
0.0
 11
3759.0995307560019683
 21
156.8647296783965999
 31
0.0
  0
LINE
  5
10D5C
  8
0
 10
3759.0995307560019683
 20
156.8647296783965999
 30
0.0
 11
3759.111746220663008
 21
156.8709733324672015
 31
0.0
  0
LINE
  5
10D5D
  8
0
 10
3759.0503904347010575
 20
156.8844966845965985
 30
0.0
 11
3759.0691150213010587
 21
156.8757832833966006
 31
0.0
  0
LINE
  5
10D5E
  8
0
 10
3759.1015346150011283
 20
156.8757841986966071
 30
0.0
 11
3759.1203300757010766
 21
156.8843563311966136
 31
0.0
  0
LINE
  5
10D5F
  8
0
 10
3759.1203300757010766
 20
156.8843563311966136
 30
0.0
 11
3759.1015346985009273
 21
156.8932111624966126
 31
0.0
  0
LINE
  5
10D60
  8
0
 10
3759.1015346985009273
 20
156.8932111624966126
 30
0.0
 11
3759.0691151048008578
 21
156.8932102471966061
 31
0.0
  0
LINE
  5
10D61
  8
0
 10
3759.0691151048008578
 20
156.8932102471966061
 30
0.0
 11
3759.0503904347010575
 21
156.8844966845965985
 31
0.0
  0
LINE
  5
10D62
  8
0
 10
3759.0588436033508515
 20
156.8884303834977061
 30
0.0
 11
3759.0711179325021476
 21
156.8821566421966054
 31
0.0
  0
LINE
  5
10D63
  8
0
 10
3759.0711179325021476
 20
156.8821566421966054
 30
0.0
 11
3759.0995308395008578
 21
156.8821566421966054
 31
0.0
  0
LINE
  5
10D64
  8
0
 10
3759.0995308395008578
 20
156.8821566421966054
 30
0.0
 11
3759.1117463041641713
 21
156.8884002962672071
 31
0.0
  0
LINE
  5
10D65
  8
0
 10
3759.0503905182008566
 20
156.901923648396604
 30
0.0
 11
3759.0691151048008578
 21
156.8932102471966061
 31
0.0
  0
LINE
  5
10D66
  8
0
 10
3759.1015346985009273
 20
156.8932111624966126
 30
0.0
 11
3759.1203301592008756
 21
156.9017832949965907
 31
0.0
  0
LINE
  5
10D67
  8
0
 10
3759.1203301592008756
 20
156.9017832949965907
 30
0.0
 11
3759.1015347820011812
 21
156.9106381262965897
 31
0.0
  0
LINE
  5
10D68
  8
0
 10
3759.1015347820011812
 20
156.9106381262965897
 30
0.0
 11
3759.0691151883020211
 21
156.9106372109966117
 31
0.0
  0
LINE
  5
10D69
  8
0
 10
3759.0691151883020211
 20
156.9106372109966117
 30
0.0
 11
3759.0503905182008566
 21
156.901923648396604
 31
0.0
  0
LINE
  5
10D6A
  8
0
 10
3759.0588436868511053
 20
156.9058573472977116
 30
0.0
 11
3759.0711180160010372
 21
156.8995836059966109
 31
0.0
  0
LINE
  5
10D6B
  8
0
 10
3759.0711180160010372
 20
156.8995836059966109
 30
0.0
 11
3759.0995309230011117
 21
156.8995836059966109
 31
0.0
  0
LINE
  5
10D6C
  8
0
 10
3759.0995309230011117
 20
156.8995836059966109
 30
0.0
 11
3759.1117463876630609
 21
156.9058272600672126
 31
0.0
  0
LINE
  5
10D6D
  8
0
 10
3758.9992456845520792
 20
156.788648976046602
 30
0.0
 11
3759.017971218951061
 21
156.779936651646608
 31
0.0
  0
LINE
  5
10D6E
  8
0
 10
3759.017971218951061
 20
156.779936651646608
 30
0.0
 11
3759.0503899337008988
 21
156.7799349017965937
 31
0.0
  0
LINE
  5
10D6F
  8
0
 10
3759.0503900172011527
 20
156.7973618655965993
 30
0.0
 11
3759.01797035465097
 21
156.7973625386466097
 31
0.0
  0
LINE
  5
10D70
  8
0
 10
3759.01797035465097
 20
156.7973625386466097
 30
0.0
 11
3758.9992456845520792
 21
156.788648976046602
 31
0.0
  0
LINE
  5
10D71
  8
0
 10
3759.0076988532009636
 20
156.7925826749477949
 30
0.0
 11
3759.0199731823508955
 21
156.7863089336466089
 31
0.0
  0
LINE
  5
10D72
  8
0
 10
3759.0199731823508955
 20
156.7863089336466089
 30
0.0
 11
3759.04838608935097
 21
156.7863089336466089
 31
0.0
  0
LINE
  5
10D73
  8
0
 10
3759.04838608935097
 20
156.7863089336466089
 30
0.0
 11
3759.0606015540138287
 21
156.7925525877172106
 31
0.0
  0
LINE
  5
10D74
  8
0
 10
3758.9992457680509688
 20
156.8060759398466075
 30
0.0
 11
3759.01797035465097
 21
156.7973625386466097
 31
0.0
  0
LINE
  5
10D75
  8
0
 10
3759.0503901007009517
 20
156.8147888293966048
 30
0.0
 11
3759.0179704381512238
 21
156.8147895024465868
 31
0.0
  0
LINE
  5
10D76
  8
0
 10
3759.0179704381512238
 20
156.8147895024465868
 30
0.0
 11
3758.9992457680509688
 21
156.8060759398466075
 31
0.0
  0
LINE
  5
10D77
  8
0
 10
3759.0076989367012175
 20
156.8100096387476867
 30
0.0
 11
3759.0199732658511493
 21
156.803735897446586
 31
0.0
  0
LINE
  5
10D78
  8
0
 10
3759.0199732658511493
 20
156.803735897446586
 30
0.0
 11
3759.0483861728521333
 21
156.803735897446586
 31
0.0
  0
LINE
  5
10D79
  8
0
 10
3759.0483861728521333
 20
156.803735897446586
 30
0.0
 11
3759.060601637513173
 21
156.8099795515171877
 31
0.0
  0
LINE
  5
10D7A
  8
0
 10
3758.9992458515512226
 20
156.823502903646613
 30
0.0
 11
3759.0179704381512238
 21
156.8147895024465868
 31
0.0
  0
LINE
  5
10D7B
  8
0
 10
3759.0503901842021151
 20
156.8322157931966103
 30
0.0
 11
3759.0179705216510229
 21
156.8322164662465923
 31
0.0
  0
LINE
  5
10D7C
  8
0
 10
3759.0179705216510229
 20
156.8322164662465923
 30
0.0
 11
3758.9992458515512226
 21
156.823502903646613
 31
0.0
  0
LINE
  5
10D7D
  8
0
 10
3759.0076990202010165
 20
156.8274366025476922
 30
0.0
 11
3759.0199733493518579
 21
156.8211628612465915
 31
0.0
  0
LINE
  5
10D7E
  8
0
 10
3759.0199733493518579
 20
156.8211628612465915
 30
0.0
 11
3759.0483862563510229
 21
156.8211628612465915
 31
0.0
  0
LINE
  5
10D7F
  8
0
 10
3759.0483862563510229
 20
156.8211628612465915
 30
0.0
 11
3759.0606017210138816
 21
156.8274065153171932
 31
0.0
  0
LINE
  5
10D80
  8
0
 10
3758.9992459350510217
 20
156.8409298674465902
 30
0.0
 11
3759.0179705216510229
 21
156.8322164662465923
 31
0.0
  0
LINE
  5
10D81
  8
0
 10
3759.0503902677010046
 20
156.8496427569965874
 30
0.0
 11
3759.0179706051521862
 21
156.8496434300465978
 31
0.0
  0
LINE
  5
10D82
  8
0
 10
3759.0179706051521862
 20
156.8496434300465978
 30
0.0
 11
3758.9992459350510217
 21
156.8409298674465902
 31
0.0
  0
LINE
  5
10D83
  8
0
 10
3759.0076991037008156
 20
156.8448635663476978
 30
0.0
 11
3759.0199734328512022
 21
156.8385898250465971
 31
0.0
  0
LINE
  5
10D84
  8
0
 10
3759.0199734328512022
 20
156.8385898250465971
 30
0.0
 11
3759.048386339850822
 21
156.8385898250465971
 31
0.0
  0
LINE
  5
10D85
  8
0
 10
3759.048386339850822
 20
156.8385898250465971
 30
0.0
 11
3759.0606018045141354
 21
156.8448334791171987
 31
0.0
  0
LINE
  5
10D86
  8
0
 10
3758.9992460185508207
 20
156.8583568312465957
 30
0.0
 11
3759.0179706051521862
 21
156.8496434300465978
 31
0.0
  0
LINE
  5
10D87
  8
0
 10
3759.0503903512021679
 20
156.8670697207965929
 30
0.0
 11
3759.0179706886510758
 21
156.8670703938466033
 31
0.0
  0
LINE
  5
10D88
  8
0
 10
3759.0179706886510758
 20
156.8670703938466033
 30
0.0
 11
3758.9992460185508207
 21
156.8583568312465957
 31
0.0
  0
LINE
  5
10D89
  8
0
 10
3759.0076991872010694
 20
156.8622905301477033
 30
0.0
 11
3759.0199735163510013
 21
156.8560167888466026
 31
0.0
  0
LINE
  5
10D8A
  8
0
 10
3759.0199735163510013
 20
156.8560167888466026
 30
0.0
 11
3759.0483864233510758
 21
156.8560167888466026
 31
0.0
  0
LINE
  5
10D8B
  8
0
 10
3759.0483864233510758
 20
156.8560167888466026
 30
0.0
 11
3759.0606018880139345
 21
156.8622604429172043
 31
0.0
  0
LINE
  5
10D8C
  8
0
 10
3758.9992461020519841
 20
156.8757837950466012
 30
0.0
 11
3759.0179706886510758
 21
156.8670703938466033
 31
0.0
  0
LINE
  5
10D8D
  8
0
 10
3759.0503904347010575
 20
156.8844966845965985
 30
0.0
 11
3759.0179707721508748
 21
156.8844973576466089
 31
0.0
  0
LINE
  5
10D8E
  8
0
 10
3759.0179707721508748
 20
156.8844973576466089
 30
0.0
 11
3758.9992461020519841
 21
156.8757837950466012
 31
0.0
  0
LINE
  5
10D8F
  8
0
 10
3759.007699270699959
 20
156.8797174939477941
 30
0.0
 11
3759.0199735998508004
 21
156.8734437526466081
 31
0.0
  0
LINE
  5
10D90
  8
0
 10
3759.0199735998508004
 20
156.8734437526466081
 30
0.0
 11
3759.0483865068508749
 21
156.8734437526466081
 31
0.0
  0
LINE
  5
10D91
  8
0
 10
3759.0483865068508749
 20
156.8734437526466081
 30
0.0
 11
3759.0606019715128241
 21
156.8796874067172098
 31
0.0
  0
LINE
  5
10D92
  8
0
 10
3758.9992461855508736
 20
156.8932107588466067
 30
0.0
 11
3759.0179707721508748
 21
156.8844973576466089
 31
0.0
  0
LINE
  5
10D93
  8
0
 10
3759.0503905182008566
 20
156.901923648396604
 30
0.0
 11
3759.0179708556511287
 21
156.901924321446586
 31
0.0
  0
LINE
  5
10D94
  8
0
 10
3759.0179708556511287
 20
156.901924321446586
 30
0.0
 11
3758.9992461855508736
 21
156.8932107588466067
 31
0.0
  0
LINE
  5
10D95
  8
0
 10
3759.0076993542011223
 20
156.8971444577476859
 30
0.0
 11
3759.0199736833510542
 21
156.8908707164466136
 31
0.0
  0
LINE
  5
10D96
  8
0
 10
3759.0199736833510542
 20
156.8908707164466136
 30
0.0
 11
3759.0483865903520382
 21
156.8908707164466136
 31
0.0
  0
LINE
  5
10D97
  8
0
 10
3759.0483865903520382
 20
156.8908707164466136
 30
0.0
 11
3759.0606020550139874
 21
156.8971143705171869
 31
0.0
  0
LINE
  5
10D98
  8
0
 10
3759.003625338816164
 20
156.9085999424511897
 30
0.0
 11
3759.0179708556511287
 21
156.901924321446586
 31
0.0
  0
LINE
  5
10D99
  8
0
 10
3759.0149087958689051
 20
156.9108865237789985
 30
0.0
 11
3759.0199737668508533
 21
156.9082976802465907
 31
0.0
  0
LINE
  5
10D9A
  8
0
 10
3759.0199737668508533
 20
156.9082976802465907
 30
0.0
 11
3759.0483866738509278
 21
156.9082976802465907
 31
0.0
  0
LINE
  5
10D9B
  8
0
 10
3759.0483866738509278
 20
156.9082976802465907
 30
0.0
 11
3759.0606021385137865
 21
156.9145413343171924
 31
0.0
  0
LINE
  5
10D9C
  8
0
 10
3758.9992456845520792
 20
156.788648976046602
 30
0.0
 11
3758.9668271221507894
 21
156.788648976046602
 31
0.0
  0
LINE
  5
10D9D
  8
0
 10
3758.9668271221507894
 20
156.788648976046602
 30
0.0
 11
3758.9568021514592147
 21
156.7839838359282965
 31
0.0
  0
LINE
  5
10D9E
  8
0
 10
3758.9481025355507882
 20
156.7973623772465999
 30
0.0
 11
3758.9668271221507894
 21
156.788648976046602
 31
0.0
  0
LINE
  5
10D9F
  8
0
 10
3758.9992457680509688
 20
156.8060759398466075
 30
0.0
 11
3758.9668272056519527
 21
156.8060759398466075
 31
0.0
  0
LINE
  5
10DA0
  8
0
 10
3758.9668272056519527
 20
156.8060759398466075
 30
0.0
 11
3758.9481025355507882
 21
156.7973623772465999
 31
0.0
  0
LINE
  5
10DA1
  8
0
 10
3758.9565557042010369
 20
156.8012960761477075
 30
0.0
 11
3758.9688300333518782
 21
156.7950223348466068
 31
0.0
  0
LINE
  5
10DA2
  8
0
 10
3758.9688300333518782
 20
156.7950223348466068
 30
0.0
 11
3758.9972429403510432
 21
156.7950223348466068
 31
0.0
  0
LINE
  5
10DA3
  8
0
 10
3758.9972429403510432
 20
156.7950223348466068
 30
0.0
 11
3759.0094584050139019
 21
156.8012659889172085
 31
0.0
  0
LINE
  5
10DA4
  8
0
 10
3758.948102619051042
 20
156.8147893410466054
 30
0.0
 11
3758.9668272056519527
 21
156.8060759398466075
 31
0.0
  0
LINE
  5
10DA5
  8
0
 10
3758.9992458515512226
 20
156.823502903646613
 30
0.0
 11
3758.9668272891508423
 21
156.823502903646613
 31
0.0
  0
LINE
  5
10DA6
  8
0
 10
3758.9668272891508423
 20
156.823502903646613
 30
0.0
 11
3758.948102619051042
 21
156.8147893410466054
 31
0.0
  0
LINE
  5
10DA7
  8
0
 10
3758.9565557876999264
 20
156.818723039947713
 30
0.0
 11
3758.9688301168521321
 21
156.8124492986466123
 31
0.0
  0
LINE
  5
10DA8
  8
0
 10
3758.9688301168521321
 20
156.8124492986466123
 30
0.0
 11
3758.9972430238508423
 21
156.8124492986466123
 31
0.0
  0
LINE
  5
10DA9
  8
0
 10
3758.9972430238508423
 20
156.8124492986466123
 30
0.0
 11
3759.0094584885141558
 21
156.818692952717214
 31
0.0
  0
LINE
  5
10DAA
  8
0
 10
3758.9481027025508411
 20
156.8322163048466109
 30
0.0
 11
3758.9668272891508423
 21
156.823502903646613
 31
0.0
  0
LINE
  5
10DAB
  8
0
 10
3758.9992459350510217
 20
156.8409298674465902
 30
0.0
 11
3758.9668273726510961
 21
156.8409298674465902
 31
0.0
  0
LINE
  5
10DAC
  8
0
 10
3758.9668273726510961
 20
156.8409298674465902
 30
0.0
 11
3758.9481027025508411
 21
156.8322163048466109
 31
0.0
  0
LINE
  5
10DAD
  8
0
 10
3758.9565558712010898
 20
156.8361500037476901
 30
0.0
 11
3758.9688302003510216
 21
156.8298762624465894
 31
0.0
  0
LINE
  5
10DAE
  8
0
 10
3758.9688302003510216
 20
156.8298762624465894
 30
0.0
 11
3758.9972431073510961
 21
156.8298762624465894
 31
0.0
  0
LINE
  5
10DAF
  8
0
 10
3758.9972431073510961
 20
156.8298762624465894
 30
0.0
 11
3759.0094585720139548
 21
156.8361199165171911
 31
0.0
  0
LINE
  5
10DB0
  8
0
 10
3758.9481027860520044
 20
156.849643268646588
 30
0.0
 11
3758.9668273726510961
 21
156.8409298674465902
 31
0.0
  0
LINE
  5
10DB1
  8
0
 10
3758.9992460185508207
 20
156.8583568312465957
 30
0.0
 11
3758.9668274561508952
 21
156.8583568312465957
 31
0.0
  0
LINE
  5
10DB2
  8
0
 10
3758.9668274561508952
 20
156.8583568312465957
 30
0.0
 11
3758.9481027860520044
 21
156.849643268646588
 31
0.0
  0
LINE
  5
10DB3
  8
0
 10
3758.948102869550894
 20
156.8670702324465935
 30
0.0
 11
3758.9668274561508952
 21
156.8583568312465957
 31
0.0
  0
LINE
  5
10DB4
  8
0
 10
3758.9992461020519841
 20
156.8757837950466012
 30
0.0
 11
3758.966827539651149
 21
156.8757837950466012
 31
0.0
  0
LINE
  5
10DB5
  8
0
 10
3758.966827539651149
 20
156.8757837950466012
 30
0.0
 11
3758.948102869550894
 21
156.8670702324465935
 31
0.0
  0
LINE
  5
10DB6
  8
0
 10
3758.9565560382011427
 20
156.8710039313477012
 30
0.0
 11
3758.9688303673510745
 21
156.8647301900466005
 31
0.0
  0
LINE
  5
10DB7
  8
0
 10
3758.9688303673510745
 20
156.8647301900466005
 30
0.0
 11
3758.9972432743520585
 21
156.8647301900466005
 31
0.0
  0
LINE
  5
10DB8
  8
0
 10
3758.9972432743520585
 20
156.8647301900466005
 30
0.0
 11
3759.0094587390140077
 21
156.8709738441172021
 31
0.0
  0
LINE
  5
10DB9
  8
0
 10
3758.9481029530511478
 20
156.8844971962465991
 30
0.0
 11
3758.966827539651149
 21
156.8757837950466012
 31
0.0
  0
LINE
  5
10DBA
  8
0
 10
3758.9992461855508736
 20
156.8932107588466067
 30
0.0
 11
3758.9668276231509481
 21
156.8932107588466067
 31
0.0
  0
LINE
  5
10DBB
  8
0
 10
3758.9668276231509481
 20
156.8932107588466067
 30
0.0
 11
3758.9481029530511478
 21
156.8844971962465991
 31
0.0
  0
LINE
  5
10DBC
  8
0
 10
3758.9565561217009417
 20
156.8884308951477067
 30
0.0
 11
3758.9688304508508736
 21
156.882157153846606
 31
0.0
  0
LINE
  5
10DBD
  8
0
 10
3758.9688304508508736
 20
156.882157153846606
 30
0.0
 11
3758.9972433578509481
 21
156.882157153846606
 31
0.0
  0
LINE
  5
10DBE
  8
0
 10
3758.9972433578509481
 20
156.882157153846606
 30
0.0
 11
3759.0094588225138068
 21
156.8884008079172077
 31
0.0
  0
LINE
  5
10DBF
  8
0
 10
3758.9583537057778813
 20
156.8971540577504129
 30
0.0
 11
3758.9668276231509481
 21
156.8932107588466067
 31
0.0
  0
LINE
  5
10DC0
  8
0
 10
3758.9679557123699851
 20
156.9000312628002121
 30
0.0
 11
3758.9688305343520369
 21
156.8995841176466115
 31
0.0
  0
LINE
  5
10DC1
  8
0
 10
3758.9688305343520369
 20
156.8995841176466115
 30
0.0
 11
3758.9972434413512019
 21
156.8995841176466115
 31
0.0
  0
LINE
  5
10DC2
  8
0
 10
3758.9972434413512019
 20
156.8995841176466115
 30
0.0
 11
3759.0094589060131511
 21
156.9058277717172132
 31
0.0
  0
LINE
  5
10DC3
  8
0
 10
3758.9481025355507882
 20
156.7973623772465999
 30
0.0
 11
3758.9237287369201113
 21
156.7973624427714867
 31
0.0
  0
LINE
  5
10DC4
  8
0
 10
3758.948102619051042
 20
156.8147893410466054
 30
0.0
 11
3758.9156841401008933
 21
156.814789179446592
 31
0.0
  0
LINE
  5
10DC5
  8
0
 10
3758.9156841401008933
 20
156.814789179446592
 30
0.0
 11
3758.900206826847807
 21
156.8075867808358907
 31
0.0
  0
LINE
  5
10DC6
  8
0
 10
3758.9157361714637773
 20
156.8037355744465913
 30
0.0
 11
3758.9460998748008933
 21
156.8037355744465913
 31
0.0
  0
LINE
  5
10DC7
  8
0
 10
3758.9460998748008933
 20
156.8037355744465913
 30
0.0
 11
3758.9583153394642068
 21
156.809979228517193
 31
0.0
  0
LINE
  5
10DC8
  8
0
 10
3758.8969595535018016
 20
156.8235025806465899
 30
0.0
 11
3758.9156841401008933
 21
156.814789179446592
 31
0.0
  0
LINE
  5
10DC9
  8
0
 10
3758.9481027025508411
 20
156.8322163048466109
 30
0.0
 11
3758.9156842236020566
 21
156.8322161432465975
 31
0.0
  0
LINE
  5
10DCA
  8
0
 10
3758.9156842236020566
 20
156.8322161432465975
 30
0.0
 11
3758.8969595535018016
 21
156.8235025806465899
 31
0.0
  0
LINE
  5
10DCB
  8
0
 10
3758.9054127221511408
 20
156.8274362795476975
 30
0.0
 11
3758.9176870513010726
 21
156.8211625382465968
 31
0.0
  0
LINE
  5
10DCC
  8
0
 10
3758.9176870513010726
 20
156.8211625382465968
 30
0.0
 11
3758.9460999583011471
 21
156.8211625382465968
 31
0.0
  0
LINE
  5
10DCD
  8
0
 10
3758.9460999583011471
 20
156.8211625382465968
 30
0.0
 11
3758.9583154229630964
 21
156.8274061923171985
 31
0.0
  0
LINE
  5
10DCE
  8
0
 10
3758.8969596370011459
 20
156.8409295444465954
 30
0.0
 11
3758.9156842236020566
 21
156.8322161432465975
 31
0.0
  0
LINE
  5
10DCF
  8
0
 10
3758.9481027860520044
 20
156.849643268646588
 30
0.0
 11
3758.9156843071009462
 21
156.8496431070466031
 31
0.0
  0
LINE
  5
10DD0
  8
0
 10
3758.9156843071009462
 20
156.8496431070466031
 30
0.0
 11
3758.8969596370011459
 21
156.8409295444465954
 31
0.0
  0
LINE
  5
10DD1
  8
0
 10
3758.9054128056500304
 20
156.844863243347703
 30
0.0
 11
3758.9176871348008717
 21
156.8385895020466023
 31
0.0
  0
LINE
  5
10DD2
  8
0
 10
3758.9176871348008717
 20
156.8385895020466023
 30
0.0
 11
3758.9461000418009462
 21
156.8385895020466023
 31
0.0
  0
LINE
  5
10DD3
  8
0
 10
3758.9461000418009462
 20
156.8385895020466023
 30
0.0
 11
3758.9583155064638049
 21
156.844833156117204
 31
0.0
  0
LINE
  5
10DD4
  8
0
 10
3758.896959720500945
 20
156.8583565082466009
 30
0.0
 11
3758.9156843071009462
 21
156.8496431070466031
 31
0.0
  0
LINE
  5
10DD5
  8
0
 10
3758.948102869550894
 20
156.8670702324465935
 30
0.0
 11
3758.9156843906012
 21
156.8670700708466086
 31
0.0
  0
LINE
  5
10DD6
  8
0
 10
3758.9156843906012
 20
156.8670700708466086
 30
0.0
 11
3758.896959720500945
 21
156.8583565082466009
 31
0.0
  0
LINE
  5
10DD7
  8
0
 10
3758.9054128891511937
 20
156.8622902071477085
 30
0.0
 11
3758.9176872183011255
 21
156.8560164658466078
 31
0.0
  0
LINE
  5
10DD8
  8
0
 10
3758.9176872183011255
 20
156.8560164658466078
 30
0.0
 11
3758.9461001253021095
 21
156.8560164658466078
 31
0.0
  0
LINE
  5
10DD9
  8
0
 10
3758.9461001253021095
 20
156.8560164658466078
 30
0.0
 11
3758.9583155899631493
 21
156.8622601199172095
 31
0.0
  0
LINE
  5
10DDA
  8
0
 10
3758.9028604870568415
 20
156.8730376160276876
 30
0.0
 11
3758.9156843906012
 21
156.8670700708466086
 31
0.0
  0
LINE
  5
10DDB
  8
0
 10
3758.9481029530511478
 20
156.8844971962465991
 30
0.0
 11
3758.9244953550478385
 21
156.8844970785671933
 31
0.0
  0
LINE
  5
10DDC
  8
0
 10
3758.9099719857781565
 20
156.8773869361463937
 30
0.0
 11
3758.9176873018009246
 21
156.8734434296466134
 31
0.0
  0
LINE
  5
10DDD
  8
0
 10
3758.9176873018009246
 20
156.8734434296466134
 30
0.0
 11
3758.9461002088009991
 21
156.8734434296466134
 31
0.0
  0
LINE
  5
10DDE
  8
0
 10
3758.9461002088009991
 20
156.8734434296466134
 30
0.0
 11
3758.9583156734638578
 21
156.8796870837171866
 31
0.0
  0
ARC
  5
10DDF
  8
0
 10
3758.9590975999790317
 20
156.7898965880708886
 30
0.0
 40
0.0064511916487953
 50
177.9204054882972912
 51
226.6789375378143063
  0
ARC
  5
10DE0
  8
0
 10
3758.9582689550711621
 20
156.7890178988477032
 30
0.0
 40
0.0052434056028589
 50
226.6789375378143063
 51
253.7551605866921136
  0
LINE
  5
10DE1
  8
0
 10
3758.9526506572078688
 20
156.7901306876401009
 30
0.0
 11
3758.9526482516489523
 21
156.7952470489383927
 31
0.0
  0
ARC
  5
10DE2
  8
0
 10
3759.0034776412580868
 20
156.7780783988193889
 30
0.0
 40
0.0057038903267961
 50
178.3719303358394939
 51
228.921048244238392
  0
ARC
  5
10DE3
  8
0
 10
3759.0039660639968133
 20
156.7786387036962026
 30
0.0
 40
0.006447192638461
 50
228.921048244238392
 51
244.8059456868896859
  0
ARC
  5
10DE4
  8
0
 10
3759.0028120566012149
 20
156.7761856524327868
 30
0.0
 40
0.0037362530283669
 50
244.8059456868876111
 51
302.6562834783754283
  0
LINE
  5
10DE5
  8
0
 10
3759.0048281316098837
 20
156.7730400160496913
 30
0.0
 11
3759.0183210921991304
 21
156.7799366327616895
 31
0.0
  0
LINE
  5
10DE6
  8
0
 10
3758.9977760534998197
 20
156.7782404540575101
 30
0.0
 11
3758.9977760531019157
 21
156.788648976046602
 31
0.0
  0
LINE
  5
10DE7
  8
0
 10
3758.9157287696270942
 20
156.8042329390000873
 30
0.0
 11
3758.9157287515008647
 21
156.8147891807061001
 31
0.0
  0
ARC
  5
10DE8
  8
0
 10
3758.9225525934748475
 20
156.8040857545857989
 30
0.0
 40
0.0068254109877149
 50
178.7643675262002887
 51
279.9226392937961236
  0
ARC
  5
10DE9
  8
0
 10
3758.905097991465027
 20
156.8137598793103962
 30
0.0
 40
0.0078759530274005
 50
178.8971830252021959
 51
231.6089676508319997
  0
LINE
  5
10DEA
  8
0
 10
3758.8972234932980427
 20
156.8233797574629875
 30
0.0
 11
3758.8972234973248305
 21
156.8139114646185135
 31
0.0
  0
LINE
  5
10DEB
  8
0
 10
3758.8969595535018016
 20
156.8235025806465899
 30
0.0
 11
3758.8792975916931027
 21
156.8235025806465899
 31
0.0
  0
LINE
  5
10DEC
  8
0
 10
3758.9072312178618631
 20
156.8361497110163896
 30
0.0
 11
3758.8949574084008418
 21
156.8298762353965969
 31
0.0
  0
LINE
  5
10DED
  8
0
 10
3758.8949574084008418
 20
156.8298762353965969
 30
0.0
 11
3758.8768200180998065
 21
156.8298762353965969
 31
0.0
  0
LINE
  5
10DEE
  8
0
 10
3758.8969596370011459
 20
156.8409295444465954
 30
0.0
 11
3758.8728337386160092
 21
156.8409295444465954
 31
0.0
  0
LINE
  5
10DEF
  8
0
 10
3758.9072310922629185
 20
156.85357677211951
 30
0.0
 11
3758.8949574084008418
 21
156.8473033606965998
 31
0.0
  0
LINE
  5
10DF0
  8
0
 10
3758.8949574084008418
 20
156.8473033606965998
 30
0.0
 11
3758.8753309595790597
 21
156.8473033606965998
 31
0.0
  0
LINE
  5
10DF1
  8
0
 10
3758.896959720500945
 20
156.8583565082466009
 30
0.0
 11
3758.8844893227428656
 21
156.8583565082466009
 31
0.0
  0
LINE
  5
10DF2
  8
0
 10
3758.8916237906710194
 20
156.8647304860965903
 30
0.0
 11
3758.8949574084008418
 21
156.8647304860965903
 31
0.0
  0
LINE
  5
10DF3
  8
0
 10
3758.8949574084008418
 20
156.8647304860965903
 30
0.0
 11
3758.9072309665621106
 21
156.8710038332702936
 31
0.0
  0
LINE
  5
10DF4
  8
0
 10
3758.876823555323881
 20
156.8409295444465954
 30
0.0
 11
3758.8768235472011838
 21
156.8302134646062882
 31
0.0
  0
ARC
  5
10DF5
  8
0
 10
3758.8864320855777805
 20
156.8299442782524977
 30
0.0
 40
0.0096123083099901
 50
178.3952596898413958
 51
222.0787167475716899
  0
LINE
  5
10DF6
  8
0
 10
3759.0691151883020211
 20
156.9106372109966117
 30
0.0
 11
3759.0542506161928031
 21
156.9174541713180986
 31
0.0
  0
LINE
  5
10DF7
  8
0
 10
3759.0669931331640328
 20
156.9191199024078003
 30
0.0
 11
3759.0711174315010794
 21
156.9170118620965866
 31
0.0
  0
LINE
  5
10DF8
  8
0
 10
3759.0711174315010794
 20
156.9170118620965866
 30
0.0
 11
3759.0995303385011539
 21
156.9170118620965866
 31
0.0
  0
LINE
  5
10DF9
  8
0
 10
3759.0995303385011539
 20
156.9170118620965866
 30
0.0
 11
3759.111109234684136
 21
156.9229301488159081
 31
0.0
  0
LINE
  5
10DFA
  8
0
 10
3759.1202581161019225
 20
156.7799372707966086
 30
0.0
 11
3759.1526758142008475
 21
156.7799360324966074
 31
0.0
  0
LINE
  5
10DFB
  8
0
 10
3759.1526758142008475
 20
156.7799360324966074
 30
0.0
 11
3759.1714722227011407
 21
156.7885092417965893
 31
0.0
  0
LINE
  5
10DFC
  8
0
 10
3759.1714722227011407
 20
156.7885092417965893
 30
0.0
 11
3759.1526768455009915
 21
156.7973640730965883
 31
0.0
  0
LINE
  5
10DFD
  8
0
 10
3759.1526768455009915
 20
156.7973640730965883
 30
0.0
 11
3759.1203296582020812
 21
156.797221512196586
 31
0.0
  0
LINE
  5
10DFE
  8
0
 10
3759.1100678177158443
 20
156.7925413472495961
 30
0.0
 11
3759.1222600795008475
 21
156.7863095527966095
 31
0.0
  0
LINE
  5
10DFF
  8
0
 10
3759.1222600795008475
 20
156.7863095527966095
 30
0.0
 11
3759.150672986500922
 21
156.7863095527966095
 31
0.0
  0
LINE
  5
10E00
  8
0
 10
3759.150672986500922
 20
156.7863095527966095
 30
0.0
 11
3759.1628884511637807
 21
156.7925532068672112
 31
0.0
  0
LINE
  5
10E01
  8
0
 10
3759.1526768455009915
 20
156.7973640730965883
 30
0.0
 11
3759.1714723062009398
 21
156.8059362055965948
 31
0.0
  0
LINE
  5
10E02
  8
0
 10
3759.1714723062009398
 20
156.8059362055965948
 30
0.0
 11
3759.1526769290021548
 21
156.8147910368965938
 31
0.0
  0
LINE
  5
10E03
  8
0
 10
3759.1526769290021548
 20
156.8147910368965938
 30
0.0
 11
3759.1203297417009708
 21
156.8146484759965915
 31
0.0
  0
LINE
  5
10E04
  8
0
 10
3759.1100679012170076
 20
156.8099683110496017
 30
0.0
 11
3759.1222601630020108
 21
156.8037365165965866
 31
0.0
  0
LINE
  5
10E05
  8
0
 10
3759.1222601630020108
 20
156.8037365165965866
 30
0.0
 11
3759.1506730700011758
 21
156.8037365165965866
 31
0.0
  0
LINE
  5
10E06
  8
0
 10
3759.1506730700011758
 20
156.8037365165965866
 30
0.0
 11
3759.162888534663125
 21
156.8099801706671883
 31
0.0
  0
LINE
  5
10E07
  8
0
 10
3759.1526769290021548
 20
156.8147910368965938
 30
0.0
 11
3759.1714723897011936
 21
156.8233631693966004
 31
0.0
  0
LINE
  5
10E08
  8
0
 10
3759.1714723897011936
 20
156.8233631693966004
 30
0.0
 11
3759.1526770125010444
 21
156.8322180006965993
 31
0.0
  0
LINE
  5
10E09
  8
0
 10
3759.1526770125010444
 20
156.8322180006965993
 30
0.0
 11
3759.1202574188009748
 21
156.8322170853965929
 31
0.0
  0
LINE
  5
10E0A
  8
0
 10
3759.1100679847158972
 20
156.8273952748496072
 30
0.0
 11
3759.1222602465009004
 21
156.8211634803965921
 31
0.0
  0
LINE
  5
10E0B
  8
0
 10
3759.1222602465009004
 20
156.8211634803965921
 30
0.0
 11
3759.1506731535009749
 21
156.8211634803965921
 31
0.0
  0
LINE
  5
10E0C
  8
0
 10
3759.1506731535009749
 20
156.8211634803965921
 30
0.0
 11
3759.1628886181629241
 21
156.8274071344671938
 31
0.0
  0
LINE
  5
10E0D
  8
0
 10
3759.1526770125010444
 20
156.8322180006965993
 30
0.0
 11
3759.1714724732009927
 21
156.8407901331966059
 31
0.0
  0
LINE
  5
10E0E
  8
0
 10
3759.1714724732009927
 20
156.8407901331966059
 30
0.0
 11
3759.1526770960008434
 21
156.8496449644966049
 31
0.0
  0
LINE
  5
10E0F
  8
0
 10
3759.1526770960008434
 20
156.8496449644966049
 30
0.0
 11
3759.1203295747009179
 21
156.8495030496966081
 31
0.0
  0
LINE
  5
10E10
  8
0
 10
3759.110068068216151
 20
156.8448222386496127
 30
0.0
 11
3759.1222603300011542
 21
156.8385904441965977
 31
0.0
  0
LINE
  5
10E11
  8
0
 10
3759.1222603300011542
 20
156.8385904441965977
 30
0.0
 11
3759.1506732370021382
 21
156.8385904441965977
 31
0.0
  0
LINE
  5
10E12
  8
0
 10
3759.1506732370021382
 20
156.8385904441965977
 30
0.0
 11
3759.1628887016631779
 21
156.8448340982671994
 31
0.0
  0
LINE
  5
10E13
  8
0
 10
3759.1526770960008434
 20
156.8496449644966049
 30
0.0
 11
3759.171472556702156
 21
156.8582170969966114
 31
0.0
  0
LINE
  5
10E14
  8
0
 10
3759.171472556702156
 20
156.8582170969966114
 30
0.0
 11
3759.1526771795010973
 21
156.8670719282966104
 31
0.0
  0
LINE
  5
10E15
  8
0
 10
3759.1526771795010973
 20
156.8670719282966104
 30
0.0
 11
3759.120329992202187
 21
156.8669293673966081
 31
0.0
  0
LINE
  5
10E16
  8
0
 10
3759.1100681517159501
 20
156.8622492024495898
 30
0.0
 11
3759.1222604135009533
 21
156.8560174079966032
 31
0.0
  0
LINE
  5
10E17
  8
0
 10
3759.1222604135009533
 20
156.8560174079966032
 30
0.0
 11
3759.1506733205010278
 21
156.8560174079966032
 31
0.0
  0
LINE
  5
10E18
  8
0
 10
3759.1506733205010278
 20
156.8560174079966032
 30
0.0
 11
3759.1628887851638865
 21
156.8622610620672049
 31
0.0
  0
LINE
  5
10E19
  8
0
 10
3759.1526771795010973
 20
156.8670719282966104
 30
0.0
 11
3759.1714726402010456
 21
156.8756440607965885
 31
0.0
  0
LINE
  5
10E1A
  8
0
 10
3759.1714726402010456
 20
156.8756440607965885
 30
0.0
 11
3759.1526772630008963
 21
156.8844988920965875
 31
0.0
  0
LINE
  5
10E1B
  8
0
 10
3759.1526772630008963
 20
156.8844988920965875
 30
0.0
 11
3759.1203295747009179
 21
156.8843573003966014
 31
0.0
  0
LINE
  5
10E1C
  8
0
 10
3759.1100682352162039
 20
156.8796761662495953
 30
0.0
 11
3759.1222604970012071
 21
156.8734443717966087
 31
0.0
  0
LINE
  5
10E1D
  8
0
 10
3759.1222604970012071
 20
156.8734443717966087
 30
0.0
 11
3759.1506734040021911
 21
156.8734443717966087
 31
0.0
  0
LINE
  5
10E1E
  8
0
 10
3759.1506734040021911
 20
156.8734443717966087
 30
0.0
 11
3759.1628888686641403
 21
156.8796880258672104
 31
0.0
  0
LINE
  5
10E1F
  8
0
 10
3759.1526772630008963
 20
156.8844988920965875
 30
0.0
 11
3759.1714727237008447
 21
156.893071024596594
 31
0.0
  0
LINE
  5
10E20
  8
0
 10
3759.1714727237008447
 20
156.893071024596594
 30
0.0
 11
3759.1526773465011502
 21
156.901925855896593
 31
0.0
  0
LINE
  5
10E21
  8
0
 10
3759.1526773465011502
 20
156.901925855896593
 30
0.0
 11
3759.1203301592008756
 21
156.9017832949965907
 31
0.0
  0
LINE
  5
10E22
  8
0
 10
3759.110068318716003
 20
156.8971031300496008
 30
0.0
 11
3759.1222605805010062
 21
156.8908713355965858
 31
0.0
  0
LINE
  5
10E23
  8
0
 10
3759.1222605805010062
 20
156.8908713355965858
 30
0.0
 11
3759.1506734875010807
 21
156.8908713355965858
 31
0.0
  0
LINE
  5
10E24
  8
0
 10
3759.1506734875010807
 20
156.8908713355965858
 30
0.0
 11
3759.1628889521639394
 21
156.8971149896671875
 31
0.0
  0
LINE
  5
10E25
  8
0
 10
3759.1526773465011502
 20
156.901925855896593
 30
0.0
 11
3759.171472807202008
 21
156.9104979883965996
 31
0.0
  0
LINE
  5
10E26
  8
0
 10
3759.171472807202008
 20
156.9104979883965996
 30
0.0
 11
3759.1526774300009492
 21
156.9193528196965985
 31
0.0
  0
LINE
  5
10E27
  8
0
 10
3759.1526774300009492
 20
156.9193528196965985
 30
0.0
 11
3759.1202578363008797
 21
156.9193519043965921
 31
0.0
  0
LINE
  5
10E28
  8
0
 10
3759.1099863348508734
 20
156.914572040697692
 30
0.0
 11
3759.1222606640021695
 21
156.9082982993965913
 31
0.0
  0
LINE
  5
10E29
  8
0
 10
3759.1222606640021695
 20
156.9082982993965913
 30
0.0
 11
3759.1506735710017892
 21
156.9082982993965913
 31
0.0
  0
LINE
  5
10E2A
  8
0
 10
3759.1506735710017892
 20
156.9082982993965913
 30
0.0
 11
3759.162889035662829
 21
156.914541953467193
 31
0.0
  0
LINE
  5
10E2B
  8
0
 10
3759.1679904858078771
 20
156.7552945651412983
 30
0.0
 11
3759.1526773465011502
 21
156.7625088531966071
 31
0.0
  0
LINE
  5
10E2C
  8
0
 10
3759.1526773465011502
 20
156.7625088531966071
 30
0.0
 11
3759.1202577528010806
 21
156.7625079378966007
 31
0.0
  0
LINE
  5
10E2D
  8
0
 10
3759.1526773465011502
 20
156.7625088531966071
 30
0.0
 11
3759.171472807202008
 21
156.7710809856966137
 31
0.0
  0
LINE
  5
10E2E
  8
0
 10
3759.171472807202008
 20
156.7710809856966137
 30
0.0
 11
3759.1526774300009492
 21
156.7799358169966126
 31
0.0
  0
LINE
  5
10E2F
  8
0
 10
3759.1526774300009492
 20
156.7799358169966126
 30
0.0
 11
3759.1203295747009179
 21
156.7797945483966089
 31
0.0
  0
LINE
  5
10E30
  8
0
 10
3759.110067114938829
 20
156.7751137491115117
 30
0.0
 11
3759.1222606640021695
 21
156.7688812966966054
 31
0.0
  0
LINE
  5
10E31
  8
0
 10
3759.1222606640021695
 20
156.7688812966966054
 30
0.0
 11
3759.1506735710017892
 21
156.7688812966966054
 31
0.0
  0
LINE
  5
10E32
  8
0
 10
3759.1506735710017892
 20
156.7688812966966054
 30
0.0
 11
3759.162889035662829
 21
156.7751249507672071
 31
0.0
  0
LINE
  5
10E33
  8
0
 10
3759.1015331662019889
 20
156.9106383417966128
 30
0.0
 11
3759.1202578363008797
 21
156.9193519043965921
 31
0.0
  0
LINE
  5
10E34
  8
0
 10
3759.1202578363008797
 20
156.9193519043965921
 30
0.0
 11
3759.1101530364207974
 21
156.9233041416115952
 31
0.0
  0
LINE
  5
10E35
  8
0
 10
3759.1202587006009708
 20
156.7625090146966045
 30
0.0
 11
3759.1015331662019889
 21
156.7712213390965985
 31
0.0
  0
LINE
  5
10E36
  8
0
 10
3759.1526763987008053
 20
156.9193519044966081
 30
0.0
 11
3759.1680647082639553
 21
156.9260018107860049
 31
0.0
  0
ARC
  5
10E37
  8
0
 10
3759.1691141893111308
 20
156.7605090037525031
 30
0.0
 40
0.0053341428174059
 50
257.8388246802817889
 51
350.9285991362515915
  0
LINE
  5
10E38
  8
0
 10
3759.1130417363378911
 20
156.7586424119631943
 30
0.0
 11
3759.1206045057601841
 21
156.7625079476864869
 31
0.0
  0
LINE
  5
10E39
  8
0
 10
3759.1046698664299583
 20
156.7635077841090094
 30
0.0
 11
3759.1046698652398845
 21
156.7697619447216084
 31
0.0
  0
ARC
  5
10E3A
  8
0
 10
3759.1097247864199744
 20
156.7631631325340891
 30
0.0
 40
0.0050666557825538
 50
176.0995295086410977
 51
249.9008266360976052
  0
ARC
  5
10E3B
  8
0
 10
3759.1102672132310545
 20
156.7637545816984073
 30
0.0
 40
0.0058165503408111
 50
246.8837752092130131
 51
298.4899703681389838
  0
ARC
  5
10E3C
  8
0
 10
3759.0537584715120829
 20
156.7691777697467899
 30
0.0
 40
0.0052972176048449
 50
177.6189735516645101
 51
239.9985977582898045
  0
ARC
  5
10E3D
  8
0
 10
3759.053868194640927
 20
156.7693678050397068
 30
0.0
 40
0.0055166545605601
 50
239.9985977582915098
 51
287.9037075188712151
  0
LINE
  5
10E3E
  8
0
 10
3759.0555641146188464
 20
156.7641182971617013
 30
0.0
 11
3759.0694633348230127
 21
156.7712225641087116
 31
0.0
  0
LINE
  5
10E3F
  8
0
 10
3759.0484658272998786
 20
156.769397841544901
 30
0.0
 11
3759.0484658272021079
 21
156.7799350056531864
 31
0.0
  0
LINE
  5
10E40
  8
0
 10
3760.124017096460193
 20
157.9324120684709953
 30
0.0
 11
3760.124017096460193
 21
149.8814946901966039
 31
0.0
  0
ARC
  5
10E41
  8
0
 10
3759.1324922017602148
 20
157.9723783513965998
 30
0.0
 40
0.8661417323
 50
359.9937500985324164
 51
6.5580055384282083
  0
ARC
  5
10E42
  8
0
 10
3760.0803522304317994
 20
159.4073699644665112
 30
0.0
 40
0.0438235260117635
 50
4.8769554548554881
 51
78.1411539428590913
  0
ARC
  5
10E43
  8
0
 10
3759.1907475864941262
 20
152.0563594838970118
 30
0.0
 40
7.4483043922010026
 50
83.0705956196722042
 51
86.1548881584345168
  0
ARC
  5
10E44
  8
0
 10
3759.1796489772927998
 20
151.8912281809253102
 30
0.0
 40
7.6138082481902911
 50
86.1548881316679029
 51
89.9400888642206979
  0
ARC
  5
10E45
  8
0
 10
3759.7178688397748374
 20
159.407957806245804
 30
0.0
 40
0.0451923315658231
 50
15.8237979299908904
 51
90.0207742364478065
  0
ARC
  5
10E46
  8
0
 10
3759.7271417289948658
 20
159.4105859298130952
 30
0.0
 40
0.0355542037401994
 50
338.7428394781828729
 51
15.8237979299908904
  0
ARC
  5
10E47
  8
0
 10
3759.6210033685301823
 20
159.4518761521443082
 30
0.0
 40
0.1494411389980405
 50
299.8753466854540761
 51
338.7428394781844077
  0
ARC
  5
10E48
  8
0
 10
3759.4143991374139659
 20
159.8926319761606862
 30
0.0
 40
0.6358227140040223
 50
272.8921621479963164
 51
296.2325048369207252
  0
ARC
  5
10E49
  8
0
 10
3759.2778685265011518
 20
161.053524033465095
 30
0.0
 40
1.8038027586015
 50
270.8160523293573192
 51
275.3635985035359113
  0
ARC
  5
10E4A
  8
0
 10
3759.176134074913989
 20
163.0062594427853924
 30
0.0
 40
3.758515872951159
 50
270.1749472217786092
 51
271.9428684021751792
  0
ARC
  5
10E4B
  8
0
 10
3760.0589260215301692
 20
158.1129940443078112
 30
0.0
 40
0.0651032262210277
 50
338.6250950690696868
 51
358.8929828400515021
  0
ARC
  5
10E4C
  8
0
 10
3760.0888594552820905
 20
158.1063724666641122
 30
0.0
 40
0.0351370723638281
 50
273.4632452299230181
 51
330.8661681840948745
  0
ARC
  5
10E4D
  8
0
 10
3760.0844677334371227
 20
157.9328435146003073
 30
0.0
 40
0.0395517162882264
 50
359.374982051475115
 51
85.6994828423998456
  0
ARC
  5
10E4E
  8
0
 10
3755.7252185019810895
 20
104.5473752018877036
 30
0.0
 40
53.5881897506479419
 50
85.5261506568932788
 51
85.8547565642659976
  0
ARC
  5
10E4F
  8
0
 10
3759.0322461525238396
 20
150.0178325960712868
 30
0.0
 40
7.9976421026690048
 50
85.9374467275788163
 51
87.8252522440331518
  0
ARC
  5
10E50
  8
0
 10
3759.1202233281960616
 20
148.3775344181316029
 30
0.0
 40
9.6345905450378897
 50
88.7182654774223636
 51
89.5992541491837784
  0
ARC
  5
10E51
  8
0
 10
3759.7739172100400538
 20
157.9372759952512126
 30
0.0
 40
0.0395325534714173
 50
0.2240126642014991
 51
83.1082813541323588
  0
ARC
  5
10E52
  8
0
 10
3746.7939296171862225
 20
157.8865271191108093
 30
0.0
 40
13.0196193543779906
 50
358.2736931875376172
 51
0.2240126642014991
  0
ARC
  5
10E53
  8
0
 10
3758.6815639900642054
 20
157.528247390527298
 30
0.0
 40
1.1265871360099571
 50
344.8450855727825228
 51
358.2736931875376172
  0
ARC
  5
10E54
  8
0
 10
3759.5203945037728772
 20
157.3161963856724128
 30
0.0
 40
0.26190092088421
 50
301.5846834459584898
 51
341.6452758945839037
  0
ARC
  5
10E55
  8
0
 10
3759.6470006595041013
 20
157.103848982631888
 30
0.0
 40
0.0208293416422156
 50
347.6998227380444177
 51
59.7555508125402426
  0
ARC
  5
10E56
  8
0
 10
3759.5091000928800895
 20
156.8079755212434918
 30
0.0
 40
0.3471787558198273
 50
64.6958868378576568
 51
86.4158948586263591
  0
ARC
  5
10E57
  8
0
 10
3759.188927673991202
 20
153.5742446523580043
 30
0.0
 40
3.5965163833153868
 50
84.545371136315552
 51
90.0209865150800539
  0
ARC
  5
10E58
  8
0
 10
3759.3226771261688555
 20
157.2918218626963949
 30
0.0
 40
0.5677638226831265
 50
287.7697707024074134
 51
301.543092865249605
  0
ARC
  5
10E59
  8
0
 10
3759.2511069245110775
 20
157.5763552059162862
 30
0.0
 40
0.8607677123776362
 50
275.997114542788097
 51
286.526136599669087
  0
ARC
  5
10E5A
  8
0
 10
3759.1915255345079458
 20
158.0417839261621111
 30
0.0
 40
1.329916649862716
 50
271.3448945263368728
 51
276.4550005202676175
  0
ARC
  5
10E5B
  8
0
 10
3759.1729511469229692
 20
159.3363516735466021
 30
0.0
 40
2.6245903247058551
 50
270.3200170280816224
 51
271.0869652655277946
  0
ARC
  5
10E5C
  8
0
 10
3759.6210718043571433
 20
156.9976187129570064
 30
0.0
 40
0.036533387321888
 50
4.5074872003576454
 51
92.1567565539174041
  0
ARC
  5
10E5D
  8
0
 10
3759.5668495856621121
 20
157.0080951569339902
 30
0.0
 40
0.0909611104934954
 50
326.9839792561340914
 51
355.2038693974286048
  0
ARC
  5
10E5E
  8
0
 10
3759.4141138864770255
 20
157.0948704016525141
 30
0.0
 40
0.2665196142118749
 50
320.4763302636031881
 51
329.2330112913277276
  0
LINE
  5
10E5F
  8
0
 10
3759.6196969209590861
 20
157.0341262201966117
 30
0.0
 11
3759.6196969209590861
 21
156.8079468789966029
 31
0.0
  0
LINE
  5
10E60
  8
0
 10
3759.6574921965598151
 20
157.0004898487966045
 30
0.0
 11
3759.6574921965598151
 21
157.121843123996598
 31
0.0
  0
ARC
  5
10E61
  8
0
 10
3759.1829263893428106
 20
155.3366334717393897
 30
0.0
 40
1.664467540351664
 50
85.0465431908520344
 51
89.8387650788876471
  0
ARC
  5
10E62
  8
0
 10
3759.2257600949301377
 20
155.8772479919666978
 30
0.0
 40
1.1221807366215399
 50
74.2735748411404302
 51
84.8419844116825033
  0
ARC
  5
10E63
  8
0
 10
3759.4300037914658787
 20
156.614540456094602
 30
0.0
 40
0.3571430487948019
 50
57.9174552680565
 51
73.7536530044446437
  0
ARC
  5
10E64
  8
0
 10
3759.1724253686847987
 20
155.2032789372154866
 30
0.0
 40
1.7583777148206281
 50
85.5506509137601654
 51
89.5052002139968153
  0
ARC
  5
10E65
  8
0
 10
3759.2185435923020123
 20
155.920173616627892
 30
0.0
 40
1.040110424767775
 50
75.1856979385294437
 51
85.019840523662495
  0
ARC
  5
10E66
  8
0
 10
3759.4012579662171447
 20
156.6110214667706089
 30
0.0
 40
0.3255089312887814
 50
55.7145968498929065
 51
75.1856979385294437
  0
ARC
  5
10E67
  8
0
 10
3759.5483431198199469
 20
156.8267582813722072
 30
0.0
 40
0.0644027927460174
 50
20.4176504811907797
 51
55.7145968498929065
  0
ARC
  5
10E68
  8
0
 10
3759.5730177509340137
 20
156.835943347967202
 30
0.0
 40
0.0380740466881505
 50
319.0780826799680767
 51
20.417650481192311
  0
ARC
  5
10E69
  8
0
 10
3759.4780306081620438
 20
156.9182874128013907
 30
0.0
 40
0.1637844372909435
 50
298.2643363406994013
 51
319.0780826799693273
  0
ARC
  5
10E6A
  8
0
 10
3759.1889133191821202
 20
155.6653776366856903
 30
0.0
 40
1.2883710484126321
 50
85.0021799454643201
 51
90.0579459515570449
  0
ARC
  5
10E6B
  8
0
 10
3759.2096365736088046
 20
155.9023493618296925
 30
0.0
 40
1.0504949214225481
 50
78.5181844888850407
 51
85.0021799454643201
  0
ARC
  5
10E6C
  8
0
 10
3759.3128329617220516
 20
156.4104011116484969
 30
0.0
 40
0.5320683837014637
 50
66.7754100992863613
 51
78.5181844888850407
  0
ARC
  5
10E6D
  8
0
 10
3759.4605804705452101
 20
156.754713693801591
 30
0.0
 40
0.1573945514257608
 50
52.8093837990320125
 51
66.7754100992863613
  0
ARC
  5
10E6E
  8
0
 10
3759.4992534103989783
 20
156.8056807414232878
 30
0.0
 40
0.0934161470985707
 50
27.4466570347117909
 51
52.8093837990320125
  0
ARC
  5
10E6F
  8
0
 10
3759.5359223754908271
 20
156.837518414485686
 30
0.0
 40
0.0475742778621318
 50
301.0662793830636019
 51
13.6411707768036408
  0
ARC
  5
10E70
  8
0
 10
3759.3448103217051539
 20
157.1364025026911122
 30
0.0
 40
0.4023205440394274
 50
278.0229184932409794
 51
302.4147847147067978
  0
ARC
  5
10E71
  8
0
 10
3759.1960579056321876
 20
157.8795505376114079
 30
0.0
 40
1.1597750609466679
 50
271.0089522294222206
 51
280.1761833368994985
  0
ARC
  5
10E72
  8
0
 10
3759.1876435447197764
 20
158.0612902444250096
 30
0.0
 40
1.3416448826401439
 50
269.9985814755398792
 51
271.2315716195877826
  0
ARC
  5
10E73
  8
0
 10
3759.1879391396291794
 20
155.7899098630784067
 30
0.0
 40
1.1390409011630001
 50
85.2642003997946034
 51
90.0163149217169547
  0
ARC
  5
10E74
  8
0
 10
3759.2090116131162176
 20
156.0442730360510097
 30
0.0
 40
0.8838063562761705
 50
76.8275893868013213
 51
85.2642003997946034
  0
ARC
  5
10E75
  8
0
 10
3759.3299645786191832
 20
156.561077875819592
 30
0.0
 40
0.3530362909256032
 50
62.0675077077594892
 51
76.8275893868013213
  0
ARC
  5
10E76
  8
0
 10
3759.454561526595171
 20
156.7960782024387925
 30
0.0
 40
0.0870484097052092
 50
32.0952461535185094
 51
62.0675077077594892
  0
ARC
  5
10E77
  8
0
 10
3759.5040764046098047
 20
156.8271331022814081
 30
0.0
 40
0.0286007412396302
 50
324.7864857835738235
 51
32.0952461535171309
  0
ARC
  5
10E78
  8
0
 10
3759.4006247789939152
 20
156.922887927242499
 30
0.0
 40
0.1693585167910474
 50
283.7415848766580098
 51
318.488082842824781
  0
ARC
  5
10E79
  8
0
 10
3759.2356012925788491
 20
157.4438424019712102
 30
0.0
 40
0.7155360554545948
 50
275.2615859619871799
 51
286.6696257141713886
  0
ARC
  5
10E7A
  8
0
 10
3759.1886541977000888
 20
157.8423675251067948
 30
0.0
 40
1.116733757189881
 50
269.9464426371093282
 51
275.7850914642318116
  0
ARC
  5
10E7B
  8
0
 10
3759.495947234725918
 20
156.8452113083677091
 30
0.0
 40
0.059840412395657
 50
307.7839577320858098
 51
2.7136614258460461
  0
ARC
  5
10E7C
  8
0
 10
3759.3818964237111686
 20
156.9923297651812959
 30
0.0
 40
0.2459893523024087
 50
283.437352554927827
 51
307.7839577320858098
  0
ARC
  5
10E7D
  8
0
 10
3759.23220013771288
 20
157.5027464789110923
 30
0.0
 40
0.7776882990982636
 50
275.4411484559568066
 51
285.4259766434843186
  0
ARC
  5
10E7E
  8
0
 10
3759.1887160051028332
 20
157.879702521822793
 30
0.0
 40
1.1570937246985431
 50
269.9452502264899749
 51
275.8147066984697062
  0
LINE
  5
10E7F
  8
0
 10
3759.5557205429590795
 20
156.8480444300450927
 30
0.0
 11
3759.5557205429590795
 21
156.8800987464965999
 31
0.0
  0
ARC
  5
10E80
  8
0
 10
3759.1885847441531041
 20
155.9043757733277005
 30
0.0
 40
1.0217948179764089
 50
83.8890850247515516
 51
90.054639071081013
  0
ARC
  5
10E81
  8
0
 10
3759.2181179275080467
 20
156.180227373842996
 30
0.0
 40
0.7443667832972624
 50
76.2616257630955232
 51
83.8890850247515516
  0
ARC
  5
10E82
  8
0
 10
3759.3125531154992132
 20
156.5664915919876137
 30
0.0
 40
0.3467261780395767
 50
65.8204030926654156
 51
76.2616257630955232
  0
ARC
  5
10E83
  8
0
 10
3759.4024591377469733
 20
156.766732242548386
 30
0.0
 40
0.127228089270069
 50
42.1062206592906918
 51
65.8204030926654156
  0
ARC
  5
10E84
  8
0
 10
3759.4718105054557782
 20
156.832626004836186
 30
0.0
 40
0.031683841040147
 50
312.3372354994489228
 51
37.7870347550438979
  0
ARC
  5
10E85
  8
0
 10
3759.3729142006382062
 20
156.9442477063003025
 30
0.0
 40
0.1808117403289559
 50
284.5059254646446902
 51
311.6803499370298027
  0
ARC
  5
10E86
  8
0
 10
3759.2452838888671067
 20
157.3412869932703018
 30
0.0
 40
0.5976495257305656
 50
277.6764732832187974
 51
286.8180609052740806
  0
ARC
  5
10E87
  8
0
 10
3759.1899278390637846
 20
157.7273237921434088
 30
0.0
 40
0.9876266257225509
 50
269.865552730604918
 51
277.8675383740920779
  0
ARC
  5
10E88
  8
0
 10
3759.3762663675602198
 20
156.7021467458714028
 30
0.0
 40
0.2045832827359322
 50
53.2603729344271528
 51
73.0694393220976508
  0
ARC
  5
10E89
  8
0
 10
3759.468608946004224
 20
156.8258551658462068
 30
0.0
 40
0.0502106006764692
 50
8.1058838289846395
 51
53.2603729344271528
  0
ARC
  5
10E8A
  8
0
 10
3759.4608439061848912
 20
156.843423337264511
 30
0.0
 40
0.058423156864724
 50
294.300303850118496
 51
349.6579921724139126
  0
ARC
  5
10E8B
  8
0
 10
3759.3064047431189465
 20
157.1299718374438896
 30
0.0
 40
0.3838183798049799
 50
279.1689936044587057
 51
297.7112112887115813
  0
ARC
  5
10E8C
  8
0
 10
3759.1992509384072036
 20
157.6642970592534994
 30
0.0
 40
0.9286204111737351
 50
272.4217394817347895
 51
280.4426806256171858
  0
ARC
  5
10E8D
  8
0
 10
3759.1876392047679474
 20
157.8476736286835944
 30
0.0
 40
1.1123305248617881
 50
269.9985125867569877
 51
272.620198036927377
  0
ARC
  5
10E8E
  8
0
 10
3759.1887633959890991
 20
157.7281975482987946
 30
0.0
 40
0.9813439125483323
 50
269.9326781143772109
 51
279.8460288266418843
  0
ARC
  5
10E8F
  8
0
 10
3759.2855231741000352
 20
157.1706888458977005
 30
0.0
 40
0.4155008177656211
 50
279.8460288266418843
 51
296.5346986935159066
  0
ARC
  5
10E90
  8
0
 10
3759.442574469946976
 20
156.8561698227289014
 30
0.0
 40
0.0639509273347781
 50
296.5346986935159066
 51
341.7285480158445239
  0
ARC
  5
10E91
  8
0
 10
3759.3658673830741463
 20
156.9760444494802982
 30
0.0
 40
0.2023608982753537
 50
286.9161779940844212
 51
310.0506044538415722
  0
ARC
  5
10E92
  8
0
 10
3759.2231386850389754
 20
157.4453434652473902
 30
0.0
 40
0.6928841367085911
 50
271.6990566405415279
 51
286.9161779940844212
  0
ARC
  5
10E93
  8
0
 10
3759.0077659376279371
 20
164.7060385033703085
 30
0.0
 40
7.9567727548627207
 50
271.2951484803401172
 51
271.6990566405415279
  0
LINE
  5
10E94
  8
0
 10
3759.3248307230601313
 20
156.7799349017965937
 30
0.0
 11
3759.3061051886597852
 21
156.7712225773965997
 31
0.0
  0
LINE
  5
10E95
  8
0
 10
3759.3061051886597852
 20
156.7712225773965997
 30
0.0
 11
3759.2736874905599507
 21
156.7712213390965985
 31
0.0
  0
LINE
  5
10E96
  8
0
 10
3759.2736874905599507
 20
156.7712213390965985
 30
0.0
 11
3759.2548910820601122
 21
156.7797945483966089
 31
0.0
  0
LINE
  5
10E97
  8
0
 10
3759.2548910820601122
 20
156.7797945483966089
 30
0.0
 11
3759.2736864592598067
 21
156.7886493796966079
 31
0.0
  0
LINE
  5
10E98
  8
0
 10
3759.2736864592598067
 20
156.7886493796966079
 30
0.0
 11
3759.3061060529598763
 21
156.7886484643966014
 31
0.0
  0
LINE
  5
10E99
  8
0
 10
3759.3061060529598763
 20
156.7886484643966014
 30
0.0
 11
3759.3248307230601313
 21
156.7799349017965937
 31
0.0
  0
LINE
  5
10E9A
  8
0
 10
3759.3163775544107921
 20
156.7838686006977014
 30
0.0
 11
3759.3041032252599507
 21
156.7775948593966007
 31
0.0
  0
LINE
  5
10E9B
  8
0
 10
3759.3041032252599507
 20
156.7775948593966007
 30
0.0
 11
3759.2756903182598762
 21
156.7775948593966007
 31
0.0
  0
LINE
  5
10E9C
  8
0
 10
3759.2756903182598762
 20
156.7775948593966007
 30
0.0
 11
3759.263474853597927
 21
156.7838385134672023
 31
0.0
  0
LINE
  5
10E9D
  8
0
 10
3759.3248306395598775
 20
156.7973618655965993
 30
0.0
 11
3759.3061060529598763
 21
156.7886484643966014
 31
0.0
  0
LINE
  5
10E9E
  8
0
 10
3759.2736864592598067
 20
156.7886493796966079
 30
0.0
 11
3759.2548909985612227
 21
156.797221512196586
 31
0.0
  0
LINE
  5
10E9F
  8
0
 10
3759.2548909985612227
 20
156.797221512196586
 30
0.0
 11
3759.2736863757600076
 21
156.8060763434966134
 31
0.0
  0
LINE
  5
10EA0
  8
0
 10
3759.2736863757600076
 20
156.8060763434966134
 30
0.0
 11
3759.3061059694600772
 21
156.8060754281966069
 31
0.0
  0
LINE
  5
10EA1
  8
0
 10
3759.3061059694600772
 20
156.8060754281966069
 30
0.0
 11
3759.3248306395598775
 21
156.7973618655965993
 31
0.0
  0
LINE
  5
10EA2
  8
0
 10
3759.316377470910993
 20
156.8012955644977069
 30
0.0
 11
3759.3041031417601516
 21
156.7950218231966062
 31
0.0
  0
LINE
  5
10EA3
  8
0
 10
3759.3041031417601516
 20
156.7950218231966062
 30
0.0
 11
3759.2756902347600771
 21
156.7950218231966062
 31
0.0
  0
LINE
  5
10EA4
  8
0
 10
3759.2756902347600771
 20
156.7950218231966062
 30
0.0
 11
3759.2634747700981279
 21
156.8012654772672079
 31
0.0
  0
LINE
  5
10EA5
  8
0
 10
3759.3248305560600784
 20
156.8147888293966048
 30
0.0
 11
3759.3061059694600772
 21
156.8060754281966069
 31
0.0
  0
LINE
  5
10EA6
  8
0
 10
3759.2736863757600076
 20
156.8060763434966134
 30
0.0
 11
3759.2548909150591498
 21
156.8146484759965915
 31
0.0
  0
LINE
  5
10EA7
  8
0
 10
3759.2548909150591498
 20
156.8146484759965915
 30
0.0
 11
3759.2736862922602086
 21
156.8235033072965905
 31
0.0
  0
LINE
  5
10EA8
  8
0
 10
3759.2736862922602086
 20
156.8235033072965905
 30
0.0
 11
3759.3061058859598234
 21
156.8235023919966125
 31
0.0
  0
LINE
  5
10EA9
  8
0
 10
3759.3061058859598234
 20
156.8235023919966125
 30
0.0
 11
3759.3248305560600784
 21
156.8147888293966048
 31
0.0
  0
LINE
  5
10EAA
  8
0
 10
3759.3163773874098297
 20
156.8187225282977977
 30
0.0
 11
3759.3041030582598978
 21
156.8124487869966117
 31
0.0
  0
LINE
  5
10EAB
  8
0
 10
3759.3041030582598978
 20
156.8124487869966117
 30
0.0
 11
3759.2756901512598233
 21
156.8124487869966117
 31
0.0
  0
LINE
  5
10EAC
  8
0
 10
3759.2756901512598233
 20
156.8124487869966117
 30
0.0
 11
3759.2634746865978741
 21
156.8186924410672134
 31
0.0
  0
LINE
  5
10EAD
  8
0
 10
3759.3248304725598246
 20
156.8322157931966103
 30
0.0
 11
3759.3061058859598234
 21
156.8235023919966125
 31
0.0
  0
LINE
  5
10EAE
  8
0
 10
3759.2736862922602086
 20
156.8235033072965905
 30
0.0
 11
3759.2548908315598055
 21
156.832075439796597
 31
0.0
  0
LINE
  5
10EAF
  8
0
 10
3759.2548908315598055
 20
156.832075439796597
 30
0.0
 11
3759.2736862087599548
 21
156.840930271096596
 31
0.0
  0
LINE
  5
10EB0
  8
0
 10
3759.2736862087599548
 20
156.840930271096596
 30
0.0
 11
3759.3061058024600243
 21
156.8409293557965896
 31
0.0
  0
LINE
  5
10EB1
  8
0
 10
3759.3061058024600243
 20
156.8409293557965896
 30
0.0
 11
3759.3248304725598246
 21
156.8322157931966103
 31
0.0
  0
LINE
  5
10EB2
  8
0
 10
3759.3163773039100306
 20
156.8361494920976895
 30
0.0
 11
3759.3041029747600987
 21
156.8298757507965888
 31
0.0
  0
LINE
  5
10EB3
  8
0
 10
3759.3041029747600987
 20
156.8298757507965888
 30
0.0
 11
3759.2756900677600242
 21
156.8298757507965888
 31
0.0
  0
LINE
  5
10EB4
  8
0
 10
3759.2756900677600242
 20
156.8298757507965888
 30
0.0
 11
3759.2634746030971655
 21
156.8361194048671905
 31
0.0
  0
LINE
  5
10EB5
  8
0
 10
3759.3248303890600255
 20
156.8496427569965874
 30
0.0
 11
3759.3061058024600243
 21
156.8409293557965896
 31
0.0
  0
LINE
  5
10EB6
  8
0
 10
3759.2736862087599548
 20
156.840930271096596
 30
0.0
 11
3759.2548907480600064
 21
156.8495024035966026
 31
0.0
  0
LINE
  5
10EB7
  8
0
 10
3759.2548907480600064
 20
156.8495024035966026
 30
0.0
 11
3759.2736861252601557
 21
156.8583572348966015
 31
0.0
  0
LINE
  5
10EB8
  8
0
 10
3759.2736861252601557
 20
156.8583572348966015
 30
0.0
 11
3759.3061057189602252
 21
156.8583563195965951
 31
0.0
  0
LINE
  5
10EB9
  8
0
 10
3759.3061057189602252
 20
156.8583563195965951
 30
0.0
 11
3759.3248303890600255
 21
156.8496427569965874
 31
0.0
  0
LINE
  5
10EBA
  8
0
 10
3759.3163772204097768
 20
156.853576455897695
 30
0.0
 11
3759.3041028912598449
 21
156.8473027145965943
 31
0.0
  0
LINE
  5
10EBB
  8
0
 10
3759.3041028912598449
 20
156.8473027145965943
 30
0.0
 11
3759.2756899842602252
 21
156.8473027145965943
 31
0.0
  0
LINE
  5
10EBC
  8
0
 10
3759.2756899842602252
 20
156.8473027145965943
 30
0.0
 11
3759.2634745195978212
 21
156.853546368667196
 31
0.0
  0
LINE
  5
10EBD
  8
0
 10
3759.3248303055602264
 20
156.8670697207965929
 30
0.0
 11
3759.3061057189602252
 21
156.8583563195965951
 31
0.0
  0
LINE
  5
10EBE
  8
0
 10
3759.2736861252601557
 20
156.8583572348966015
 30
0.0
 11
3759.2548906645602074
 21
156.8669293673966081
 31
0.0
  0
LINE
  5
10EBF
  8
0
 10
3759.2548906645602074
 20
156.8669293673966081
 30
0.0
 11
3759.2736860417608113
 21
156.8757841986966071
 31
0.0
  0
LINE
  5
10EC0
  8
0
 10
3759.2736860417608113
 20
156.8757841986966071
 30
0.0
 11
3759.3061056354599714
 21
156.8757832833966006
 31
0.0
  0
LINE
  5
10EC1
  8
0
 10
3759.3061056354599714
 20
156.8757832833966006
 30
0.0
 11
3759.3248303055602264
 21
156.8670697207965929
 31
0.0
  0
LINE
  5
10EC2
  8
0
 10
3759.3163771369108872
 20
156.8710034196977006
 30
0.0
 11
3759.3041028077600458
 21
156.8647296783965999
 31
0.0
  0
LINE
  5
10EC3
  8
0
 10
3759.3041028077600458
 20
156.8647296783965999
 30
0.0
 11
3759.2756899007608808
 21
156.8647296783965999
 31
0.0
  0
LINE
  5
10EC4
  8
0
 10
3759.2756899007608808
 20
156.8647296783965999
 30
0.0
 11
3759.2634744360980221
 21
156.8709733324672015
 31
0.0
  0
LINE
  5
10EC5
  8
0
 10
3759.3248302220599726
 20
156.8844966845965985
 30
0.0
 11
3759.3061056354599714
 21
156.8757832833966006
 31
0.0
  0
LINE
  5
10EC6
  8
0
 10
3759.2736860417608113
 20
156.8757841986966071
 30
0.0
 11
3759.2548905810599535
 21
156.8843563311966136
 31
0.0
  0
LINE
  5
10EC7
  8
0
 10
3759.2548905810599535
 20
156.8843563311966136
 30
0.0
 11
3759.2736859582591933
 21
156.8932111624966126
 31
0.0
  0
LINE
  5
10EC8
  8
0
 10
3759.2736859582591933
 20
156.8932111624966126
 30
0.0
 11
3759.3061055519601723
 21
156.8932102471966061
 31
0.0
  0
LINE
  5
10EC9
  8
0
 10
3759.3061055519601723
 20
156.8932102471966061
 30
0.0
 11
3759.3248302220599726
 21
156.8844966845965985
 31
0.0
  0
LINE
  5
10ECA
  8
0
 10
3759.3163770534110881
 20
156.8884303834977061
 30
0.0
 11
3759.304102724259792
 21
156.8821566421966054
 31
0.0
  0
LINE
  5
10ECB
  8
0
 10
3759.304102724259792
 20
156.8821566421966054
 30
0.0
 11
3759.2756898172601723
 21
156.8821566421966054
 31
0.0
  0
LINE
  5
10ECC
  8
0
 10
3759.2756898172601723
 20
156.8821566421966054
 30
0.0
 11
3759.263474352598223
 21
156.8884002962672071
 31
0.0
  0
LINE
  5
10ECD
  8
0
 10
3759.3248301385601735
 20
156.901923648396604
 30
0.0
 11
3759.3061055519601723
 21
156.8932102471966061
 31
0.0
  0
LINE
  5
10ECE
  8
0
 10
3759.2736859582591933
 20
156.8932111624966126
 30
0.0
 11
3759.2548904975601545
 21
156.9017832949965907
 31
0.0
  0
LINE
  5
10ECF
  8
0
 10
3759.2548904975601545
 20
156.9017832949965907
 30
0.0
 11
3759.273685874759849
 21
156.9106381262965897
 31
0.0
  0
LINE
  5
10ED0
  8
0
 10
3759.273685874759849
 20
156.9106381262965897
 30
0.0
 11
3759.3061054684599185
 21
156.9106372109966117
 31
0.0
  0
LINE
  5
10ED1
  8
0
 10
3759.3061054684599185
 20
156.9106372109966117
 30
0.0
 11
3759.3248301385601735
 21
156.901923648396604
 31
0.0
  0
LINE
  5
10ED2
  8
0
 10
3759.3163769699099248
 20
156.9058573472977116
 30
0.0
 11
3759.3041026407599929
 21
156.8995836059966109
 31
0.0
  0
LINE
  5
10ED3
  8
0
 10
3759.3041026407599929
 20
156.8995836059966109
 30
0.0
 11
3759.2756897337599185
 21
156.8995836059966109
 31
0.0
  0
LINE
  5
10ED4
  8
0
 10
3759.2756897337599185
 20
156.8995836059966109
 30
0.0
 11
3759.2634742690979692
 21
156.9058272600672126
 31
0.0
  0
LINE
  5
10ED5
  8
0
 10
3759.3759749722098604
 20
156.788648976046602
 30
0.0
 11
3759.3572494378099691
 21
156.779936651646608
 31
0.0
  0
LINE
  5
10ED6
  8
0
 10
3759.3572494378099691
 20
156.779936651646608
 30
0.0
 11
3759.3248307230601313
 21
156.7799349017965937
 31
0.0
  0
LINE
  5
10ED7
  8
0
 10
3759.3248306395598775
 20
156.7973618655965993
 30
0.0
 11
3759.3572503021100601
 21
156.7973625386466097
 31
0.0
  0
LINE
  5
10ED8
  8
0
 10
3759.3572503021100601
 20
156.7973625386466097
 30
0.0
 11
3759.3759749722098604
 21
156.788648976046602
 31
0.0
  0
LINE
  5
10ED9
  8
0
 10
3759.3675218035600665
 20
156.7925826749477949
 30
0.0
 11
3759.3552474744101346
 21
156.7863089336466089
 31
0.0
  0
LINE
  5
10EDA
  8
0
 10
3759.3552474744101346
 20
156.7863089336466089
 30
0.0
 11
3759.3268345674100601
 21
156.7863089336466089
 31
0.0
  0
LINE
  5
10EDB
  8
0
 10
3759.3268345674100601
 20
156.7863089336466089
 30
0.0
 11
3759.3146191027481109
 21
156.7925525877172106
 31
0.0
  0
LINE
  5
10EDC
  8
0
 10
3759.3759748887100614
 20
156.8060759398466075
 30
0.0
 11
3759.3572503021100601
 21
156.7973625386466097
 31
0.0
  0
LINE
  5
10EDD
  8
0
 10
3759.3248305560600784
 20
156.8147888293966048
 30
0.0
 11
3759.3572502186098063
 21
156.8147895024465868
 31
0.0
  0
LINE
  5
10EDE
  8
0
 10
3759.3572502186098063
 20
156.8147895024465868
 30
0.0
 11
3759.3759748887100614
 21
156.8060759398466075
 31
0.0
  0
LINE
  5
10EDF
  8
0
 10
3759.3675217200611769
 20
156.8100096387476867
 30
0.0
 11
3759.3552473909098808
 21
156.803735897446586
 31
0.0
  0
LINE
  5
10EE0
  8
0
 10
3759.3552473909098808
 20
156.803735897446586
 30
0.0
 11
3759.3268344839098063
 21
156.803735897446586
 31
0.0
  0
LINE
  5
10EE1
  8
0
 10
3759.3268344839098063
 20
156.803735897446586
 30
0.0
 11
3759.3146190192478571
 21
156.8099795515171877
 31
0.0
  0
LINE
  5
10EE2
  8
0
 10
3759.3759748052098075
 20
156.823502903646613
 30
0.0
 11
3759.3572502186098063
 21
156.8147895024465868
 31
0.0
  0
LINE
  5
10EE3
  8
0
 10
3759.3248304725598246
 20
156.8322157931966103
 30
0.0
 11
3759.3572501351100072
 21
156.8322164662465923
 31
0.0
  0
LINE
  5
10EE4
  8
0
 10
3759.3572501351100072
 20
156.8322164662465923
 30
0.0
 11
3759.3759748052098075
 21
156.823502903646613
 31
0.0
  0
LINE
  5
10EE5
  8
0
 10
3759.3675216365609231
 20
156.8274366025476922
 30
0.0
 11
3759.3552473074100817
 21
156.8211628612465915
 31
0.0
  0
LINE
  5
10EE6
  8
0
 10
3759.3552473074100817
 20
156.8211628612465915
 30
0.0
 11
3759.3268344004100072
 21
156.8211628612465915
 31
0.0
  0
LINE
  5
10EE7
  8
0
 10
3759.3268344004100072
 20
156.8211628612465915
 30
0.0
 11
3759.314618935748058
 21
156.8274065153171932
 31
0.0
  0
LINE
  5
10EE8
  8
0
 10
3759.3759747217100085
 20
156.8409298674465902
 30
0.0
 11
3759.3572501351100072
 21
156.8322164662465923
 31
0.0
  0
LINE
  5
10EE9
  8
0
 10
3759.3248303890600255
 20
156.8496427569965874
 30
0.0
 11
3759.3572500516102082
 21
156.8496434300465978
 31
0.0
  0
LINE
  5
10EEA
  8
0
 10
3759.3572500516102082
 20
156.8496434300465978
 30
0.0
 11
3759.3759747217100085
 21
156.8409298674465902
 31
0.0
  0
LINE
  5
10EEB
  8
0
 10
3759.3675215530602145
 20
156.8448635663476978
 30
0.0
 11
3759.3552472239098279
 21
156.8385898250465971
 31
0.0
  0
LINE
  5
10EEC
  8
0
 10
3759.3552472239098279
 20
156.8385898250465971
 30
0.0
 11
3759.3268343169102081
 21
156.8385898250465971
 31
0.0
  0
LINE
  5
10EED
  8
0
 10
3759.3268343169102081
 20
156.8385898250465971
 30
0.0
 11
3759.3146188522468947
 21
156.8448334791171987
 31
0.0
  0
LINE
  5
10EEE
  8
0
 10
3759.3759746382102094
 20
156.8583568312465957
 30
0.0
 11
3759.3572500516102082
 21
156.8496434300465978
 31
0.0
  0
LINE
  5
10EEF
  8
0
 10
3759.3248303055602264
 20
156.8670697207965929
 30
0.0
 11
3759.3572499681099544
 21
156.8670703938466033
 31
0.0
  0
LINE
  5
10EF0
  8
0
 10
3759.3572499681099544
 20
156.8670703938466033
 30
0.0
 11
3759.3759746382102094
 21
156.8583568312465957
 31
0.0
  0
LINE
  5
10EF1
  8
0
 10
3759.3675214695608702
 20
156.8622905301477033
 30
0.0
 11
3759.3552471404100288
 21
156.8560167888466026
 31
0.0
  0
LINE
  5
10EF2
  8
0
 10
3759.3552471404100288
 20
156.8560167888466026
 30
0.0
 11
3759.3268342334099543
 21
156.8560167888466026
 31
0.0
  0
LINE
  5
10EF3
  8
0
 10
3759.3268342334099543
 20
156.8560167888466026
 30
0.0
 11
3759.3146187687480051
 21
156.8622604429172043
 31
0.0
  0
LINE
  5
10EF4
  8
0
 10
3759.375974554710865
 20
156.8757837950466012
 30
0.0
 11
3759.3572499681099544
 21
156.8670703938466033
 31
0.0
  0
LINE
  5
10EF5
  8
0
 10
3759.3248302220599726
 20
156.8844966845965985
 30
0.0
 11
3759.3572498846101553
 21
156.8844973576466089
 31
0.0
  0
LINE
  5
10EF6
  8
0
 10
3759.3572498846101553
 20
156.8844973576466089
 30
0.0
 11
3759.375974554710865
 21
156.8757837950466012
 31
0.0
  0
LINE
  5
10EF7
  8
0
 10
3759.3675213860601616
 20
156.8797174939477941
 30
0.0
 11
3759.355247056909775
 21
156.8734437526466081
 31
0.0
  0
LINE
  5
10EF8
  8
0
 10
3759.355247056909775
 20
156.8734437526466081
 30
0.0
 11
3759.3268341499101552
 21
156.8734437526466081
 31
0.0
  0
LINE
  5
10EF9
  8
0
 10
3759.3268341499101552
 20
156.8734437526466081
 30
0.0
 11
3759.314618685248206
 21
156.8796874067172098
 31
0.0
  0
LINE
  5
10EFA
  8
0
 10
3759.3759744712101565
 20
156.8932107588466067
 30
0.0
 11
3759.3572498846101553
 21
156.8844973576466089
 31
0.0
  0
LINE
  5
10EFB
  8
0
 10
3759.3248301385601735
 20
156.901923648396604
 30
0.0
 11
3759.3572498011099015
 21
156.901924321446586
 31
0.0
  0
LINE
  5
10EFC
  8
0
 10
3759.3572498011099015
 20
156.901924321446586
 30
0.0
 11
3759.3759744712101565
 21
156.8932107588466067
 31
0.0
  0
LINE
  5
10EFD
  8
0
 10
3759.3675213025608173
 20
156.8971444577476859
 30
0.0
 11
3759.3552469734099759
 21
156.8908707164466136
 31
0.0
  0
LINE
  5
10EFE
  8
0
 10
3759.3552469734099759
 20
156.8908707164466136
 30
0.0
 11
3759.3268340664099014
 21
156.8908707164466136
 31
0.0
  0
LINE
  5
10EFF
  8
0
 10
3759.3268340664099014
 20
156.8908707164466136
 30
0.0
 11
3759.3146186017479522
 21
156.8971143705171869
 31
0.0
  0
LINE
  5
10F00
  8
0
 10
3759.3715953179457756
 20
156.9085999424511897
 30
0.0
 11
3759.3572498011099015
 21
156.901924321446586
 31
0.0
  0
LINE
  5
10F01
  8
0
 10
3759.3603118608912155
 20
156.9108865237789985
 30
0.0
 11
3759.3552468899101768
 21
156.9082976802465907
 31
0.0
  0
LINE
  5
10F02
  8
0
 10
3759.3552468899101768
 20
156.9082976802465907
 30
0.0
 11
3759.3268339829101023
 21
156.9082976802465907
 31
0.0
  0
LINE
  5
10F03
  8
0
 10
3759.3268339829101023
 20
156.9082976802465907
 30
0.0
 11
3759.3146185182481531
 21
156.9145413343171924
 31
0.0
  0
LINE
  5
10F04
  8
0
 10
3759.3759749722098604
 20
156.788648976046602
 30
0.0
 11
3759.408393534609786
 21
156.788648976046602
 31
0.0
  0
LINE
  5
10F05
  8
0
 10
3759.408393534609786
 20
156.788648976046602
 30
0.0
 11
3759.4184185053018155
 21
156.7839838359282965
 31
0.0
  0
LINE
  5
10F06
  8
0
 10
3759.4271181212097872
 20
156.7973623772465999
 30
0.0
 11
3759.408393534609786
 21
156.788648976046602
 31
0.0
  0
LINE
  5
10F07
  8
0
 10
3759.3759748887100614
 20
156.8060759398466075
 30
0.0
 11
3759.4083934511099869
 21
156.8060759398466075
 31
0.0
  0
LINE
  5
10F08
  8
0
 10
3759.4083934511099869
 20
156.8060759398466075
 30
0.0
 11
3759.4271181212097872
 21
156.7973623772465999
 31
0.0
  0
LINE
  5
10F09
  8
0
 10
3759.4186649525609027
 20
156.8012960761477075
 30
0.0
 11
3759.4063906234100614
 21
156.7950223348466068
 31
0.0
  0
LINE
  5
10F0A
  8
0
 10
3759.4063906234100614
 20
156.7950223348466068
 30
0.0
 11
3759.3779777164099869
 21
156.7950223348466068
 31
0.0
  0
LINE
  5
10F0B
  8
0
 10
3759.3779777164099869
 20
156.7950223348466068
 30
0.0
 11
3759.3657622517480377
 21
156.8012659889172085
 31
0.0
  0
LINE
  5
10F0C
  8
0
 10
3759.4271180377099881
 20
156.8147893410466054
 30
0.0
 11
3759.4083934511099869
 21
156.8060759398466075
 31
0.0
  0
LINE
  5
10F0D
  8
0
 10
3759.3759748052098075
 20
156.823502903646613
 30
0.0
 11
3759.4083933676101879
 21
156.823502903646613
 31
0.0
  0
LINE
  5
10F0E
  8
0
 10
3759.4083933676101879
 20
156.823502903646613
 30
0.0
 11
3759.4271180377099881
 21
156.8147893410466054
 31
0.0
  0
LINE
  5
10F0F
  8
0
 10
3759.4186648690601942
 20
156.818723039947713
 30
0.0
 11
3759.4063905399098076
 21
156.8124492986466123
 31
0.0
  0
LINE
  5
10F10
  8
0
 10
3759.4063905399098076
 20
156.8124492986466123
 30
0.0
 11
3759.3779776329101878
 21
156.8124492986466123
 31
0.0
  0
LINE
  5
10F11
  8
0
 10
3759.3779776329101878
 20
156.8124492986466123
 30
0.0
 11
3759.3657621682468744
 21
156.818692952717214
 31
0.0
  0
LINE
  5
10F12
  8
0
 10
3759.4271179542101891
 20
156.8322163048466109
 30
0.0
 11
3759.4083933676101879
 21
156.823502903646613
 31
0.0
  0
LINE
  5
10F13
  8
0
 10
3759.3759747217100085
 20
156.8409298674465902
 30
0.0
 11
3759.408393284109934
 21
156.8409298674465902
 31
0.0
  0
LINE
  5
10F14
  8
0
 10
3759.408393284109934
 20
156.8409298674465902
 30
0.0
 11
3759.4271179542101891
 21
156.8322163048466109
 31
0.0
  0
LINE
  5
10F15
  8
0
 10
3759.4186647855608499
 20
156.8361500037476901
 30
0.0
 11
3759.4063904564100085
 21
156.8298762624465894
 31
0.0
  0
LINE
  5
10F16
  8
0
 10
3759.4063904564100085
 20
156.8298762624465894
 30
0.0
 11
3759.377977549409934
 21
156.8298762624465894
 31
0.0
  0
LINE
  5
10F17
  8
0
 10
3759.377977549409934
 20
156.8298762624465894
 30
0.0
 11
3759.3657620847479848
 21
156.8361199165171911
 31
0.0
  0
LINE
  5
10F18
  8
0
 10
3759.4271178707108447
 20
156.849643268646588
 30
0.0
 11
3759.408393284109934
 21
156.8409298674465902
 31
0.0
  0
LINE
  5
10F19
  8
0
 10
3759.3759746382102094
 20
156.8583568312465957
 30
0.0
 11
3759.408393200610135
 21
156.8583568312465957
 31
0.0
  0
LINE
  5
10F1A
  8
0
 10
3759.408393200610135
 20
156.8583568312465957
 30
0.0
 11
3759.4271178707108447
 21
156.849643268646588
 31
0.0
  0
LINE
  5
10F1B
  8
0
 10
3759.4271177872101362
 20
156.8670702324465935
 30
0.0
 11
3759.408393200610135
 21
156.8583568312465957
 31
0.0
  0
LINE
  5
10F1C
  8
0
 10
3759.375974554710865
 20
156.8757837950466012
 30
0.0
 11
3759.4083931171098811
 21
156.8757837950466012
 31
0.0
  0
LINE
  5
10F1D
  8
0
 10
3759.4083931171098811
 20
156.8757837950466012
 30
0.0
 11
3759.4271177872101362
 21
156.8670702324465935
 31
0.0
  0
LINE
  5
10F1E
  8
0
 10
3759.418664618560797
 20
156.8710039313477012
 30
0.0
 11
3759.4063902894099556
 21
156.8647301900466005
 31
0.0
  0
LINE
  5
10F1F
  8
0
 10
3759.4063902894099556
 20
156.8647301900466005
 30
0.0
 11
3759.3779773824098811
 21
156.8647301900466005
 31
0.0
  0
LINE
  5
10F20
  8
0
 10
3759.3779773824098811
 20
156.8647301900466005
 30
0.0
 11
3759.3657619177479319
 21
156.8709738441172021
 31
0.0
  0
LINE
  5
10F21
  8
0
 10
3759.4271177037098823
 20
156.8844971962465991
 30
0.0
 11
3759.4083931171098811
 21
156.8757837950466012
 31
0.0
  0
LINE
  5
10F22
  8
0
 10
3759.3759744712101565
 20
156.8932107588466067
 30
0.0
 11
3759.4083930336100821
 21
156.8932107588466067
 31
0.0
  0
LINE
  5
10F23
  8
0
 10
3759.4083930336100821
 20
156.8932107588466067
 30
0.0
 11
3759.4271177037098823
 21
156.8844971962465991
 31
0.0
  0
LINE
  5
10F24
  8
0
 10
3759.4186645350600884
 20
156.8884308951477067
 30
0.0
 11
3759.4063902059101565
 21
156.882157153846606
 31
0.0
  0
LINE
  5
10F25
  8
0
 10
3759.4063902059101565
 20
156.882157153846606
 30
0.0
 11
3759.3779772989091725
 21
156.882157153846606
 31
0.0
  0
LINE
  5
10F26
  8
0
 10
3759.3779772989091725
 20
156.882157153846606
 30
0.0
 11
3759.3657618342481328
 21
156.8884008079172077
 31
0.0
  0
LINE
  5
10F27
  8
0
 10
3759.4168669509840583
 20
156.8971540577504129
 30
0.0
 11
3759.4083930336100821
 21
156.8932107588466067
 31
0.0
  0
LINE
  5
10F28
  8
0
 10
3759.407264944391045
 20
156.9000312628002121
 30
0.0
 11
3759.4063901224099027
 21
156.8995841176466115
 31
0.0
  0
LINE
  5
10F29
  8
0
 10
3759.4063901224099027
 20
156.8995841176466115
 30
0.0
 11
3759.3779772154098282
 21
156.8995841176466115
 31
0.0
  0
LINE
  5
10F2A
  8
0
 10
3759.3779772154098282
 20
156.8995841176466115
 30
0.0
 11
3759.365761750747879
 21
156.9058277717172132
 31
0.0
  0
LINE
  5
10F2B
  8
0
 10
3759.4271181212097872
 20
156.7973623772465999
 30
0.0
 11
3759.4514919198409189
 21
156.7973624427714867
 31
0.0
  0
LINE
  5
10F2C
  8
0
 10
3759.4271180377099881
 20
156.8147893410466054
 30
0.0
 11
3759.4595365166601368
 21
156.814789179446592
 31
0.0
  0
LINE
  5
10F2D
  8
0
 10
3759.4595365166601368
 20
156.814789179446592
 30
0.0
 11
3759.4750138299132232
 21
156.8075867808358907
 31
0.0
  0
LINE
  5
10F2E
  8
0
 10
3759.4594844852958886
 20
156.8037355744465913
 30
0.0
 11
3759.4291207819592273
 21
156.8037355744465913
 31
0.0
  0
LINE
  5
10F2F
  8
0
 10
3759.4291207819592273
 20
156.8037355744465913
 30
0.0
 11
3759.4169053172981876
 21
156.809979228517193
 31
0.0
  0
LINE
  5
10F30
  8
0
 10
3759.478261103260138
 20
156.8235025806465899
 30
0.0
 11
3759.4595365166601368
 21
156.814789179446592
 31
0.0
  0
LINE
  5
10F31
  8
0
 10
3759.4271179542101891
 20
156.8322163048466109
 30
0.0
 11
3759.4595364331607925
 21
156.8322161432465975
 31
0.0
  0
LINE
  5
10F32
  8
0
 10
3759.4595364331607925
 20
156.8322161432465975
 30
0.0
 11
3759.478261103260138
 21
156.8235025806465899
 31
0.0
  0
LINE
  5
10F33
  8
0
 10
3759.4698079346098893
 20
156.8274362795476975
 30
0.0
 11
3759.4575336054599575
 21
156.8211625382465968
 31
0.0
  0
LINE
  5
10F34
  8
0
 10
3759.4575336054599575
 20
156.8211625382465968
 30
0.0
 11
3759.429120698459883
 21
156.8211625382465968
 31
0.0
  0
LINE
  5
10F35
  8
0
 10
3759.429120698459883
 20
156.8211625382465968
 30
0.0
 11
3759.4169052337979338
 21
156.8274061923171985
 31
0.0
  0
LINE
  5
10F36
  8
0
 10
3759.4782610197598842
 20
156.8409295444465954
 30
0.0
 11
3759.4595364331607925
 21
156.8322161432465975
 31
0.0
  0
LINE
  5
10F37
  8
0
 10
3759.4271178707108447
 20
156.849643268646588
 30
0.0
 11
3759.4595363496591744
 21
156.8496431070466031
 31
0.0
  0
LINE
  5
10F38
  8
0
 10
3759.4595363496591744
 20
156.8496431070466031
 30
0.0
 11
3759.4782610197598842
 21
156.8409295444465954
 31
0.0
  0
LINE
  5
10F39
  8
0
 10
3759.4698078511100903
 20
156.844863243347703
 30
0.0
 11
3759.4575335219601584
 21
156.8385895020466023
 31
0.0
  0
LINE
  5
10F3A
  8
0
 10
3759.4575335219601584
 20
156.8385895020466023
 30
0.0
 11
3759.4291206149600839
 21
156.8385895020466023
 31
0.0
  0
LINE
  5
10F3B
  8
0
 10
3759.4291206149600839
 20
156.8385895020466023
 30
0.0
 11
3759.4169051502981347
 21
156.844833156117204
 31
0.0
  0
LINE
  5
10F3C
  8
0
 10
3759.4782609362600851
 20
156.8583565082466009
 30
0.0
 11
3759.4595363496591744
 21
156.8496431070466031
 31
0.0
  0
LINE
  5
10F3D
  8
0
 10
3759.4271177872101362
 20
156.8670702324465935
 30
0.0
 11
3759.4595362661598301
 21
156.8670700708466086
 31
0.0
  0
LINE
  5
10F3E
  8
0
 10
3759.4595362661598301
 20
156.8670700708466086
 30
0.0
 11
3759.4782609362600851
 21
156.8583565082466009
 31
0.0
  0
LINE
  5
10F3F
  8
0
 10
3759.4698077676112007
 20
156.8622902071477085
 30
0.0
 11
3759.4575334384599046
 21
156.8560164658466078
 31
0.0
  0
LINE
  5
10F40
  8
0
 10
3759.4575334384599046
 20
156.8560164658466078
 30
0.0
 11
3759.4291205314598301
 21
156.8560164658466078
 31
0.0
  0
LINE
  5
10F41
  8
0
 10
3759.4291205314598301
 20
156.8560164658466078
 30
0.0
 11
3759.4169050667969714
 21
156.8622601199172095
 31
0.0
  0
LINE
  5
10F42
  8
0
 10
3759.4723601697041886
 20
156.8730376160276876
 30
0.0
 11
3759.4595362661598301
 21
156.8670700708466086
 31
0.0
  0
LINE
  5
10F43
  8
0
 10
3759.4271177037098823
 20
156.8844971962465991
 30
0.0
 11
3759.4507253017131916
 21
156.8844970785671933
 31
0.0
  0
LINE
  5
10F44
  8
0
 10
3759.4652486709828736
 20
156.8773869361463937
 30
0.0
 11
3759.4575333549601055
 21
156.8734434296466134
 31
0.0
  0
LINE
  5
10F45
  8
0
 10
3759.4575333549601055
 20
156.8734434296466134
 30
0.0
 11
3759.429120447960031
 21
156.8734434296466134
 31
0.0
  0
LINE
  5
10F46
  8
0
 10
3759.429120447960031
 20
156.8734434296466134
 30
0.0
 11
3759.4169049832980818
 21
156.8796870837171866
 31
0.0
  0
ARC
  5
10F47
  8
0
 10
3759.416123056782908
 20
156.7898965880708886
 30
0.0
 40
0.0064511916487953
 50
313.32106246218558
 51
2.0795945117026959
  0
ARC
  5
10F48
  8
0
 10
3759.4169517016898681
 20
156.7890178988477032
 30
0.0
 40
0.0052434056028589
 50
286.2448394133078864
 51
313.32106246218558
  0
LINE
  5
10F49
  8
0
 10
3759.4225699995540708
 20
156.7901306876401009
 30
0.0
 11
3759.4225724051129873
 21
156.7952470489383927
 31
0.0
  0
ARC
  5
10F4A
  8
0
 10
3759.3717430155029433
 20
156.7780783988193889
 30
0.0
 40
0.0057038903267961
 50
311.0789517557615795
 51
1.6280696641604879
  0
ARC
  5
10F4B
  8
0
 10
3759.3712545927642168
 20
156.7786387036962026
 30
0.0
 40
0.006447192638461
 50
295.1940543131103141
 51
311.0789517557615795
  0
ARC
  5
10F4C
  8
0
 10
3759.3724086001598153
 20
156.7761856524327868
 30
0.0
 40
0.0037362530283669
 50
237.3437165216246001
 51
295.1940543131124173
  0
LINE
  5
10F4D
  8
0
 10
3759.3703925251511464
 20
156.7730400160496913
 30
0.0
 11
3759.3568995645628092
 21
156.7799366327616895
 31
0.0
  0
LINE
  5
10F4E
  8
0
 10
3759.3774446032612104
 20
156.7782404540575101
 30
0.0
 11
3759.3774446036600239
 21
156.788648976046602
 31
0.0
  0
LINE
  5
10F4F
  8
0
 10
3759.459491887133936
 20
156.8042329390000873
 30
0.0
 11
3759.4594919052601654
 21
156.8147891807061001
 31
0.0
  0
ARC
  5
10F50
  8
0
 10
3759.4526680632861826
 20
156.8040857545857989
 30
0.0
 40
0.0068254109877149
 50
260.0773607062038195
 51
1.235632473799666
  0
ARC
  5
10F51
  8
0
 10
3759.4701226652950936
 20
156.8137598793103962
 30
0.0
 40
0.0078759530274005
 50
308.3910323491679719
 51
1.102816974797814
  0
LINE
  5
10F52
  8
0
 10
3759.4779971634638969
 20
156.8233797574629875
 30
0.0
 11
3759.4779971594371091
 21
156.8139114646185135
 31
0.0
  0
LINE
  5
10F53
  8
0
 10
3759.478261103260138
 20
156.8235025806465899
 30
0.0
 11
3759.4959230650679274
 21
156.8235025806465899
 31
0.0
  0
LINE
  5
10F54
  8
0
 10
3759.4679894389000765
 20
156.8361497110163896
 30
0.0
 11
3759.4802632483601883
 21
156.8298762353965969
 31
0.0
  0
LINE
  5
10F55
  8
0
 10
3759.4802632483601883
 20
156.8298762353965969
 30
0.0
 11
3759.4984006386612236
 21
156.8298762353965969
 31
0.0
  0
LINE
  5
10F56
  8
0
 10
3759.4782610197598842
 20
156.8409295444465954
 30
0.0
 11
3759.5023869181450209
 21
156.8409295444465954
 31
0.0
  0
LINE
  5
10F57
  8
0
 10
3759.4679895644981116
 20
156.85357677211951
 30
0.0
 11
3759.4802632483601883
 21
156.8473033606965998
 31
0.0
  0
LINE
  5
10F58
  8
0
 10
3759.4802632483601883
 20
156.8473033606965998
 30
0.0
 11
3759.4998896971819704
 21
156.8473033606965998
 31
0.0
  0
LINE
  5
10F59
  8
0
 10
3759.4782609362600851
 20
156.8583565082466009
 30
0.0
 11
3759.4907313340181645
 21
156.8583565082466009
 31
0.0
  0
LINE
  5
10F5A
  8
0
 10
3759.4835968660900107
 20
156.8647304860965903
 30
0.0
 11
3759.4802632483601883
 21
156.8647304860965903
 31
0.0
  0
LINE
  5
10F5B
  8
0
 10
3759.4802632483601883
 20
156.8647304860965903
 30
0.0
 11
3759.4679896901989196
 21
156.8710038332702936
 31
0.0
  0
LINE
  5
10F5C
  8
0
 10
3759.4983971014371491
 20
156.8409295444465954
 30
0.0
 11
3759.4983971095598463
 21
156.8302134646062882
 31
0.0
  0
ARC
  5
10F5D
  8
0
 10
3759.4887885711827948
 20
156.8299442782524977
 30
0.0
 40
0.0096123083099901
 50
317.9212832524282248
 51
1.6047403101585449
  0
LINE
  5
10F5E
  8
0
 10
3759.3061054684599185
 20
156.9106372109966117
 30
0.0
 11
3759.320970040568227
 21
156.9174541713180986
 31
0.0
  0
LINE
  5
10F5F
  8
0
 10
3759.3082275235969973
 20
156.9191199024078003
 30
0.0
 11
3759.3041032252599507
 21
156.9170118620965866
 31
0.0
  0
LINE
  5
10F60
  8
0
 10
3759.3041032252599507
 20
156.9170118620965866
 30
0.0
 11
3759.2756903182598762
 21
156.9170118620965866
 31
0.0
  0
LINE
  5
10F61
  8
0
 10
3759.2756903182598762
 20
156.9170118620965866
 30
0.0
 11
3759.2641114220778036
 21
156.9229301488159081
 31
0.0
  0
LINE
  5
10F62
  8
0
 10
3759.2549625406600171
 20
156.7799372707966086
 30
0.0
 11
3759.2225448425601826
 21
156.7799360324966074
 31
0.0
  0
LINE
  5
10F63
  8
0
 10
3759.2225448425601826
 20
156.7799360324966074
 30
0.0
 11
3759.2037484340598894
 21
156.7885092417965893
 31
0.0
  0
LINE
  5
10F64
  8
0
 10
3759.2037484340598894
 20
156.7885092417965893
 30
0.0
 11
3759.2225438112600386
 21
156.7973640730965883
 31
0.0
  0
LINE
  5
10F65
  8
0
 10
3759.2225438112600386
 20
156.7973640730965883
 30
0.0
 11
3759.2548909985612227
 21
156.797221512196586
 31
0.0
  0
LINE
  5
10F66
  8
0
 10
3759.2651528390451858
 20
156.7925413472495961
 30
0.0
 11
3759.2529605772601826
 21
156.7863095527966095
 31
0.0
  0
LINE
  5
10F67
  8
0
 10
3759.2529605772601826
 20
156.7863095527966095
 30
0.0
 11
3759.2245476702591986
 21
156.7863095527966095
 31
0.0
  0
LINE
  5
10F68
  8
0
 10
3759.2245476702591986
 20
156.7863095527966095
 30
0.0
 11
3759.2123322055981589
 21
156.7925532068672112
 31
0.0
  0
LINE
  5
10F69
  8
0
 10
3759.2225438112600386
 20
156.7973640730965883
 30
0.0
 11
3759.2037483505600903
 21
156.8059362055965948
 31
0.0
  0
LINE
  5
10F6A
  8
0
 10
3759.2037483505600903
 20
156.8059362055965948
 30
0.0
 11
3759.2225437277597848
 21
156.8147910368965938
 31
0.0
  0
LINE
  5
10F6B
  8
0
 10
3759.2225437277597848
 20
156.8147910368965938
 30
0.0
 11
3759.2548909150591498
 21
156.8146484759965915
 31
0.0
  0
LINE
  5
10F6C
  8
0
 10
3759.265152755544932
 20
156.8099683110496017
 30
0.0
 11
3759.2529604937608383
 21
156.8037365165965866
 31
0.0
  0
LINE
  5
10F6D
  8
0
 10
3759.2529604937608383
 20
156.8037365165965866
 30
0.0
 11
3759.2245475867598543
 21
156.8037365165965866
 31
0.0
  0
LINE
  5
10F6E
  8
0
 10
3759.2245475867598543
 20
156.8037365165965866
 30
0.0
 11
3759.2123321220979051
 21
156.8099801706671883
 31
0.0
  0
LINE
  5
10F6F
  8
0
 10
3759.2225437277597848
 20
156.8147910368965938
 30
0.0
 11
3759.2037482670598365
 21
156.8233631693966004
 31
0.0
  0
LINE
  5
10F70
  8
0
 10
3759.2037482670598365
 20
156.8233631693966004
 30
0.0
 11
3759.2225436442599857
 21
156.8322180006965993
 31
0.0
  0
LINE
  5
10F71
  8
0
 10
3759.2225436442599857
 20
156.8322180006965993
 30
0.0
 11
3759.2549632379591458
 21
156.8322170853965929
 31
0.0
  0
LINE
  5
10F72
  8
0
 10
3759.2651526720451329
 20
156.8273952748496072
 30
0.0
 11
3759.2529604102601297
 21
156.8211634803965921
 31
0.0
  0
LINE
  5
10F73
  8
0
 10
3759.2529604102601297
 20
156.8211634803965921
 30
0.0
 11
3759.2245475032600552
 21
156.8211634803965921
 31
0.0
  0
LINE
  5
10F74
  8
0
 10
3759.2245475032600552
 20
156.8211634803965921
 30
0.0
 11
3759.212332038598106
 21
156.8274071344671938
 31
0.0
  0
LINE
  5
10F75
  8
0
 10
3759.2225436442599857
 20
156.8322180006965993
 30
0.0
 11
3759.2037481835600374
 21
156.8407901331966059
 31
0.0
  0
LINE
  5
10F76
  8
0
 10
3759.2037481835600374
 20
156.8407901331966059
 30
0.0
 11
3759.2225435607601867
 21
156.8496449644966049
 31
0.0
  0
LINE
  5
10F77
  8
0
 10
3759.2225435607601867
 20
156.8496449644966049
 30
0.0
 11
3759.2548910820601122
 21
156.8495030496966081
 31
0.0
  0
LINE
  5
10F78
  8
0
 10
3759.2651525885448791
 20
156.8448222386496127
 30
0.0
 11
3759.2529603267598759
 21
156.8385904441965977
 31
0.0
  0
LINE
  5
10F79
  8
0
 10
3759.2529603267598759
 20
156.8385904441965977
 30
0.0
 11
3759.2245474197598014
 21
156.8385904441965977
 31
0.0
  0
LINE
  5
10F7A
  8
0
 10
3759.2245474197598014
 20
156.8385904441965977
 30
0.0
 11
3759.2123319550969427
 21
156.8448340982671994
 31
0.0
  0
LINE
  5
10F7B
  8
0
 10
3759.2225435607601867
 20
156.8496449644966049
 30
0.0
 11
3759.2037481000588741
 21
156.8582170969966114
 31
0.0
  0
LINE
  5
10F7C
  8
0
 10
3759.2037481000588741
 20
156.8582170969966114
 30
0.0
 11
3759.2225434772599328
 21
156.8670719282966104
 31
0.0
  0
LINE
  5
10F7D
  8
0
 10
3759.2225434772599328
 20
156.8670719282966104
 30
0.0
 11
3759.2548906645602074
 21
156.8669293673966081
 31
0.0
  0
LINE
  5
10F7E
  8
0
 10
3759.26515250504508
 20
156.8622492024495898
 30
0.0
 11
3759.2529602432600768
 21
156.8560174079966032
 31
0.0
  0
LINE
  5
10F7F
  8
0
 10
3759.2529602432600768
 20
156.8560174079966032
 30
0.0
 11
3759.2245473362590928
 21
156.8560174079966032
 31
0.0
  0
LINE
  5
10F80
  8
0
 10
3759.2245473362590928
 20
156.8560174079966032
 30
0.0
 11
3759.2123318715980531
 21
156.8622610620672049
 31
0.0
  0
LINE
  5
10F81
  8
0
 10
3759.2225434772599328
 20
156.8670719282966104
 30
0.0
 11
3759.2037480165599845
 21
156.8756440607965885
 31
0.0
  0
LINE
  5
10F82
  8
0
 10
3759.2037480165599845
 20
156.8756440607965885
 30
0.0
 11
3759.2225433937601338
 21
156.8844988920965875
 31
0.0
  0
LINE
  5
10F83
  8
0
 10
3759.2225433937601338
 20
156.8844988920965875
 30
0.0
 11
3759.2548910820601122
 21
156.8843573003966014
 31
0.0
  0
LINE
  5
10F84
  8
0
 10
3759.2651524215448262
 20
156.8796761662495953
 30
0.0
 11
3759.252960159759823
 21
156.8734443717966087
 31
0.0
  0
LINE
  5
10F85
  8
0
 10
3759.252960159759823
 20
156.8734443717966087
 30
0.0
 11
3759.2245472527602033
 21
156.8734443717966087
 31
0.0
  0
LINE
  5
10F86
  8
0
 10
3759.2245472527602033
 20
156.8734443717966087
 30
0.0
 11
3759.2123317880977993
 21
156.8796880258672104
 31
0.0
  0
LINE
  5
10F87
  8
0
 10
3759.2225433937601338
 20
156.8844988920965875
 30
0.0
 11
3759.2037479330601855
 21
156.893071024596594
 31
0.0
  0
LINE
  5
10F88
  8
0
 10
3759.2037479330601855
 20
156.893071024596594
 30
0.0
 11
3759.2225433102598799
 21
156.901925855896593
 31
0.0
  0
LINE
  5
10F89
  8
0
 10
3759.2225433102598799
 20
156.901925855896593
 30
0.0
 11
3759.2548904975601545
 21
156.9017832949965907
 31
0.0
  0
LINE
  5
10F8A
  8
0
 10
3759.2651523380450271
 20
156.8971031300496008
 30
0.0
 11
3759.2529600762600239
 21
156.8908713355965858
 31
0.0
  0
LINE
  5
10F8B
  8
0
 10
3759.2529600762600239
 20
156.8908713355965858
 30
0.0
 11
3759.2245471692599494
 21
156.8908713355965858
 31
0.0
  0
LINE
  5
10F8C
  8
0
 10
3759.2245471692599494
 20
156.8908713355965858
 30
0.0
 11
3759.2123317045980002
 21
156.8971149896671875
 31
0.0
  0
LINE
  5
10F8D
  8
0
 10
3759.2225433102598799
 20
156.901925855896593
 30
0.0
 11
3759.2037478495599316
 21
156.9104979883965996
 31
0.0
  0
LINE
  5
10F8E
  8
0
 10
3759.2037478495599316
 20
156.9104979883965996
 30
0.0
 11
3759.2225432267600809
 21
156.9193528196965985
 31
0.0
  0
LINE
  5
10F8F
  8
0
 10
3759.2225432267600809
 20
156.9193528196965985
 30
0.0
 11
3759.2549628204601504
 21
156.9193519043965921
 31
0.0
  0
LINE
  5
10F90
  8
0
 10
3759.2652343219101567
 20
156.914572040697692
 30
0.0
 11
3759.2529599927602248
 21
156.9082982993965913
 31
0.0
  0
LINE
  5
10F91
  8
0
 10
3759.2529599927602248
 20
156.9082982993965913
 30
0.0
 11
3759.2245470857601504
 21
156.9082982993965913
 31
0.0
  0
LINE
  5
10F92
  8
0
 10
3759.2245470857601504
 20
156.9082982993965913
 30
0.0
 11
3759.2123316210982011
 21
156.914541953467193
 31
0.0
  0
LINE
  5
10F93
  8
0
 10
3759.2072301709540625
 20
156.7552945651412983
 30
0.0
 11
3759.2225433102598799
 21
156.7625088531966071
 31
0.0
  0
LINE
  5
10F94
  8
0
 10
3759.2225433102598799
 20
156.7625088531966071
 30
0.0
 11
3759.2549629039599495
 21
156.7625079378966007
 31
0.0
  0
LINE
  5
10F95
  8
0
 10
3759.2225433102598799
 20
156.7625088531966071
 30
0.0
 11
3759.2037478495599316
 21
156.7710809856966137
 31
0.0
  0
LINE
  5
10F96
  8
0
 10
3759.2037478495599316
 20
156.7710809856966137
 30
0.0
 11
3759.2225432267600809
 21
156.7799358169966126
 31
0.0
  0
LINE
  5
10F97
  8
0
 10
3759.2225432267600809
 20
156.7799358169966126
 30
0.0
 11
3759.2548910820601122
 21
156.7797945483966089
 31
0.0
  0
LINE
  5
10F98
  8
0
 10
3759.2651535418222011
 20
156.7751137491115117
 30
0.0
 11
3759.2529599927602248
 21
156.7688812966966054
 31
0.0
  0
LINE
  5
10F99
  8
0
 10
3759.2529599927602248
 20
156.7688812966966054
 30
0.0
 11
3759.2245470857601504
 21
156.7688812966966054
 31
0.0
  0
LINE
  5
10F9A
  8
0
 10
3759.2245470857601504
 20
156.7688812966966054
 30
0.0
 11
3759.2123316210982011
 21
156.7751249507672071
 31
0.0
  0
LINE
  5
10F9B
  8
0
 10
3759.2736874905599507
 20
156.9106383417966128
 30
0.0
 11
3759.2549628204601504
 21
156.9193519043965921
 31
0.0
  0
LINE
  5
10F9C
  8
0
 10
3759.2549628204601504
 20
156.9193519043965921
 30
0.0
 11
3759.2650676203397779
 21
156.9233041416115952
 31
0.0
  0
LINE
  5
10F9D
  8
0
 10
3759.2549619561591498
 20
156.7625090146966045
 30
0.0
 11
3759.2736874905599507
 21
156.7712213390965985
 31
0.0
  0
LINE
  5
10F9E
  8
0
 10
3759.2225442580602248
 20
156.9193519044966081
 30
0.0
 11
3759.2071559484970749
 21
156.9260018107860049
 31
0.0
  0
ARC
  5
10F9F
  8
0
 10
3759.2061064674508089
 20
156.7605090037525031
 30
0.0
 40
0.0053341428174059
 50
189.0714008637073107
 51
282.1611753197182111
  0
LINE
  5
10FA0
  8
0
 10
3759.2621789204240486
 20
156.7586424119631943
 30
0.0
 11
3759.2546161510022102
 21
156.7625079476864869
 31
0.0
  0
LINE
  5
10FA1
  8
0
 10
3759.2705507903310718
 20
156.7635077841090094
 30
0.0
 11
3759.2705507915211456
 21
156.7697619447216084
 31
0.0
  0
ARC
  5
10FA2
  8
0
 10
3759.2654958703410557
 20
156.7631631325340891
 30
0.0
 40
0.0050666557825538
 50
290.0991733639024233
 51
3.9004704913588379
  0
ARC
  5
10FA3
  8
0
 10
3759.2649534435299756
 20
156.7637545816984073
 30
0.0
 40
0.0058165503408111
 50
241.5100296318609878
 51
293.1162247907869869
  0
ARC
  5
10FA4
  8
0
 10
3759.3214621852489472
 20
156.7691777697467899
 30
0.0
 40
0.0052972176048449
 50
300.0014022417100819
 51
2.3810264483355041
  0
ARC
  5
10FA5
  8
0
 10
3759.3213524621201032
 20
156.7693678050397068
 30
0.0
 40
0.0055166545605601
 50
252.0962924811288133
 51
300.0014022417086039
  0
LINE
  5
10FA6
  8
0
 10
3759.3196565421421838
 20
156.7641182971617013
 30
0.0
 11
3759.3057573219380174
 21
156.7712225641087116
 31
0.0
  0
LINE
  5
10FA7
  8
0
 10
3759.3267548294611515
 20
156.769397841544901
 30
0.0
 11
3759.3267548295589222
 21
156.7799350056531864
 31
0.0
  0
LINE
  5
10FA8
  8
0
 10
3759.1612099837188907
 20
156.7664003724298141
 30
0.0
 11
3759.1743816160201277
 21
156.7596679951604131
 31
0.0
  0
LINE
  5
10FA9
  8
0
 10
3759.1743816160201277
 20
156.7596679951604131
 30
0.0
 11
3759.2008396559449466
 21
156.7596679951604131
 31
0.0
  0
LINE
  5
10FAA
  8
0
 10
3759.2008396559449466
 20
156.7596679951604131
 30
0.0
 11
3759.214010602433973
 21
156.7664004046322077
 31
0.0
  0
LINE
  5
10FAB
  8
0
 10
3759.171472807202008
 20
156.7710809856966137
 30
0.0
 11
3759.2037478495599316
 21
156.7710809856966137
 31
0.0
  0
LINE
  5
10FAC
  8
0
 10
3759.1714722227011407
 20
156.7885092417965893
 30
0.0
 11
3759.2037484340598894
 21
156.7885092417965893
 31
0.0
  0
LINE
  5
10FAD
  8
0
 10
3759.1714723062009398
 20
156.8059362055965948
 30
0.0
 11
3759.2037483505600903
 21
156.8059362055965948
 31
0.0
  0
LINE
  5
10FAE
  8
0
 10
3759.1714723897011936
 20
156.8233631693966004
 30
0.0
 11
3759.2037482670598365
 21
156.8233631693966004
 31
0.0
  0
LINE
  5
10FAF
  8
0
 10
3759.1714724732009927
 20
156.8407901331966059
 30
0.0
 11
3759.2037481835600374
 21
156.8407901331966059
 31
0.0
  0
LINE
  5
10FB0
  8
0
 10
3759.171472556702156
 20
156.8582170969966114
 30
0.0
 11
3759.2037481000588741
 21
156.8582170969966114
 31
0.0
  0
LINE
  5
10FB1
  8
0
 10
3759.1714726402010456
 20
156.8756440607965885
 30
0.0
 11
3759.2037480165599845
 21
156.8756440607965885
 31
0.0
  0
LINE
  5
10FB2
  8
0
 10
3759.1714727237008447
 20
156.893071024596594
 30
0.0
 11
3759.2037479330601855
 21
156.893071024596594
 31
0.0
  0
LINE
  5
10FB3
  8
0
 10
3759.171472807202008
 20
156.9104979883965996
 30
0.0
 11
3759.2037478495599316
 21
156.9104979883965996
 31
0.0
  0
LINE
  5
10FB4
  8
0
 10
3759.2141023590379518
 20
156.7837867244116978
 30
0.0
 11
3759.201853500730067
 21
156.7775260019465975
 31
0.0
  0
LINE
  5
10FB5
  8
0
 10
3759.201853500730067
 20
156.7775260019465975
 30
0.0
 11
3759.1734405937299925
 21
156.7775260019465975
 31
0.0
  0
LINE
  5
10FB6
  8
0
 10
3759.1734405937299925
 20
156.7775260019465975
 30
0.0
 11
3759.1611571052071668
 21
156.783804424850814
 31
0.0
  0
LINE
  5
10FB7
  8
0
 10
3759.21410268674299
 20
156.8012138557101025
 30
0.0
 11
3759.201853500730067
 21
156.794952965746603
 31
0.0
  0
LINE
  5
10FB8
  8
0
 10
3759.201853500730067
 20
156.794952965746603
 30
0.0
 11
3759.1734405937299925
 21
156.794952965746603
 31
0.0
  0
LINE
  5
10FB9
  8
0
 10
3759.1734405937299925
 20
156.794952965746603
 30
0.0
 11
3759.1611567788791035
 21
156.8012315554458951
 31
0.0
  0
LINE
  5
10FBA
  8
0
 10
3759.2141026473677812
 20
156.8186407993852072
 30
0.0
 11
3759.201853500730067
 21
156.8123799295466085
 31
0.0
  0
LINE
  5
10FBB
  8
0
 10
3759.201853500730067
 20
156.8123799295466085
 30
0.0
 11
3759.1734405937299925
 21
156.8123799295466085
 31
0.0
  0
LINE
  5
10FBC
  8
0
 10
3759.1734405937299925
 20
156.8123799295466085
 30
0.0
 11
3759.1611568182529481
 21
156.8186584991209997
 31
0.0
  0
LINE
  5
10FBD
  8
0
 10
3759.214102607994846
 20
156.8360677430601982
 30
0.0
 11
3759.201853500730067
 21
156.8298068933466141
 31
0.0
  0
LINE
  5
10FBE
  8
0
 10
3759.201853500730067
 20
156.8298068933466141
 30
0.0
 11
3759.1734405937299925
 21
156.8298068933466141
 31
0.0
  0
LINE
  5
10FBF
  8
0
 10
3759.1734405937299925
 20
156.8298068933466141
 30
0.0
 11
3759.1611568576258833
 21
156.8360854427961044
 31
0.0
  0
LINE
  5
10FC0
  8
0
 10
3759.2141025686210014
 20
156.8534946867353028
 30
0.0
 11
3759.201853500730067
 21
156.8472338571465912
 31
0.0
  0
LINE
  5
10FC1
  8
0
 10
3759.201853500730067
 20
156.8472338571465912
 30
0.0
 11
3759.1734405937299925
 21
156.8472338571465912
 31
0.0
  0
LINE
  5
10FC2
  8
0
 10
3759.1734405937299925
 20
156.8472338571465912
 30
0.0
 11
3759.1611568970001827
 21
156.8535123864712091
 31
0.0
  0
LINE
  5
10FC3
  8
0
 10
3759.2141025292480663
 20
156.8709216304104075
 30
0.0
 11
3759.201853500730067
 21
156.8646608209465967
 31
0.0
  0
LINE
  5
10FC4
  8
0
 10
3759.201853500730067
 20
156.8646608209465967
 30
0.0
 11
3759.1734405937299925
 21
156.8646608209465967
 31
0.0
  0
LINE
  5
10FC5
  8
0
 10
3759.1734405937299925
 20
156.8646608209465967
 30
0.0
 11
3759.1611569363740273
 21
156.8709393301463138
 31
0.0
  0
LINE
  5
10FC6
  8
0
 10
3759.2141024898742216
 20
156.8883485740855122
 30
0.0
 11
3759.201853500730067
 21
156.8820877847466022
 31
0.0
  0
LINE
  5
10FC7
  8
0
 10
3759.201853500730067
 20
156.8820877847466022
 30
0.0
 11
3759.1734405937299925
 21
156.8820877847466022
 31
0.0
  0
LINE
  5
10FC8
  8
0
 10
3759.1734405937299925
 20
156.8820877847466022
 30
0.0
 11
3759.1611569757469624
 21
156.8883662738213047
 31
0.0
  0
LINE
  5
10FC9
  8
0
 10
3759.2141024505008318
 20
156.9057755177605031
 30
0.0
 11
3759.201853500730067
 21
156.8995147485466077
 31
0.0
  0
LINE
  5
10FCA
  8
0
 10
3759.201853500730067
 20
156.8995147485466077
 30
0.0
 11
3759.1734405937299925
 21
156.8995147485466077
 31
0.0
  0
LINE
  5
10FCB
  8
0
 10
3759.1734405937299925
 20
156.8995147485466077
 30
0.0
 11
3759.1611570151198976
 21
156.9057932174964094
 31
0.0
  0
LINE
  5
10FCC
  8
0
 10
3759.2127978530479595
 20
156.9235637173487135
 30
0.0
 11
3759.2018490303521503
 21
156.9179674782135123
 31
0.0
  0
LINE
  5
10FCD
  8
0
 10
3759.2018490303521503
 20
156.9179674782135123
 30
0.0
 11
3759.1734361233511663
 21
156.9179674782135123
 31
0.0
  0
LINE
  5
10FCE
  8
0
 10
3759.1734361233511663
 20
156.9179674782135123
 30
0.0
 11
3759.1624577525922177
 21
156.9235788201619926
 31
0.0
  0
LINE
  5
10FCF
  8
0
 10
3760.0874336267597755
 20
157.9722838713194903
 30
0.0
 11
3759.9053159146210419
 21
157.9722838716486137
 31
0.0
  0
ARC
  5
10FD0
  8
0
 10
3758.2907602375089482
 20
157.9328575805828905
 30
0.0
 40
0.0395567184096992
 50
94.3021475333216017
 51
180.0826962565940903
  0
LINE
  5
10FD1
  8
0
 10
3758.2877928466550657
 20
157.9723028409175072
 30
0.0
 11
3758.4699105587537815
 21
157.9722990019251085
 31
0.0
  0
LINE
  5
10FD3
  8
0
 10
3760.124017096460193
 20
159.4110956733719036
 30
0.0
 11
3760.124017096460193
 21
158.111736256993396
 31
0.0
  0
ARC
  5
10FD4
  8
0
 10
3758.294868426328776
 20
159.4073699644665112
 30
0.0
 40
0.0438235260117635
 50
101.8588460571408945
 51
175.123044545144495
  0
ARC
  5
10FD5
  8
0
 10
3758.3162946352308609
 20
158.1129940443078112
 30
0.0
 40
0.0651032262210277
 50
181.1070171599484127
 51
201.3749049309303132
  0
LINE
  5
10FD6
  8
0
 10
3758.2512035603008371
 20
159.4110956733719036
 30
0.0
 11
3758.2512035603008371
 21
158.111736256993396
 31
0.0
  0
ENDSEC
  0
EOF
