  0
SECTION
  2
HEADER
  9
$ACADVER
  1
AC1009
  9
$INSBASE
 10
3217.8018212829811091
 20
143.8409755238216974
 30
0.0
  9
$EXTMIN
 10
3213.4921926469810387
 20
142.8960936340716898
 30
0.0
  9
$EXTMAX
 10
3217.8126837912382143
 20
149.5693219805716865
 30
0.0
  9
$LIMMIN
 10
0.0
 20
0.0
  9
$LIMMAX
 10
11.6929133858000007
 20
8.2677165353999982
  9
$ORTHOMODE
 70
     0
  9
$REGENMODE
 70
     1
  9
$FILLMODE
 70
     1
  9
$QTEXTMODE
 70
     0
  9
$MIRRTEXT
 70
     0
  9
$DRAGMODE
 70
     2
  9
$LTSCALE
 40
0.6431102362
  9
$OSMODE
 70
  2039
  9
$ATTMODE
 70
     1
  9
$TEXTSIZE
 40
0.2
  9
$TRACEWID
 40
0.05
  9
$TEXTSTYLE
  7
STANDARD
  9
$CLAYER
  8
0
  9
$CELTYPE
  6
BYLAYER
  9
$CECOLOR
 62
   256
  9
$DIMSCALE
 40
1.0
  9
$DIMASZ
 40
0.1875
  9
$DIMEXO
 40
0.0625
  9
$DIMDLI
 40
0.4443307087
  9
$DIMRND
 40
0.0
  9
$DIMDLE
 40
0.0
  9
$DIMEXE
 40
0.125
  9
$DIMTP
 40
0.01
  9
$DIMTM
 40
0.01
  9
$DIMTXT
 40
2.0
  9
$DIMCEN
 40
0.1052362205
  9
$DIMTSZ
 40
0.0
  9
$DIMTOL
 70
     1
  9
$DIMLIM
 70
     0
  9
$DIMTIH
 70
     1
  9
$DIMTOH
 70
     1
  9
$DIMSE1
 70
     0
  9
$DIMSE2
 70
     0
  9
$DIMTAD
 70
     0
  9
$DIMZIN
 70
     0
  9
$DIMBLK
  1

  9
$DIMASO
 70
     1
  9
$DIMSHO
 70
     1
  9
$DIMPOST
  1
\X
  9
$DIMAPOST
  1

  9
$DIMALT
 70
     1
  9
$DIMALTD
 70
     2
  9
$DIMALTF
 40
25.3999999999999986
  9
$DIMLFAC
 40
1.0
  9
$DIMTOFL
 70
     0
  9
$DIMTVP
 40
0.0
  9
$DIMTIX
 70
     0
  9
$DIMSOXD
 70
     0
  9
$DIMSAH
 70
     0
  9
$DIMBLK1
  1

  9
$DIMBLK2
  1

  9
$DIMSTYLE
  2
STANDARD
  9
$DIMCLRD
 70
     0
  9
$DIMCLRE
 70
     0
  9
$DIMCLRT
 70
     0
  9
$DIMTFAC
 40
1.0
  9
$DIMGAP
 40
0.09
  9
$LUNITS
 70
     2
  9
$LUPREC
 70
     4
  9
$SKETCHINC
 40
0.1
  9
$FILLETRAD
 40
0.0
  9
$AUNITS
 70
     0
  9
$AUPREC
 70
     0
  9
$MENU
  1
.
  9
$ELEVATION
 40
0.0
  9
$PELEVATION
 40
0.0
  9
$THICKNESS
 40
0.0
  9
$LIMCHECK
 70
     0
  9
$BLIPMODE
 70
     0
  9
$CHAMFERA
 40
0.0
  9
$CHAMFERB
 40
0.0
  9
$SKPOLY
 70
     0
  9
$TDCREATE
 40
2458060.468368056230247
  9
$TDUPDATE
 40
2459199.5030092587694526
  9
$TDINDWG
 40
0.6058751157
  9
$TDUSRTIMER
 40
0.6058751157
  9
$USRTIMER
 70
     1
  9
$ANGBASE
 50
0.0
  9
$ANGDIR
 70
     0
  9
$PDMODE
 70
     0
  9
$PDSIZE
 40
0.3125
  9
$PLINEWID
 40
0.0
  9
$COORDS
 70
     1
  9
$SPLFRAME
 70
     0
  9
$SPLINETYPE
 70
     6
  9
$SPLINESEGS
 70
     8
  9
$ATTDIA
 70
     1
  9
$ATTREQ
 70
     1
  9
$HANDLING
 70
     1
  9
$HANDSEED
  5
29839
  9
$SURFTAB1
 70
     6
  9
$SURFTAB2
 70
     6
  9
$SURFTYPE
 70
     6
  9
$SURFU
 70
     6
  9
$SURFV
 70
     6
  9
$UCSNAME
  2

  9
$UCSORG
 10
0.0
 20
0.0
 30
0.0
  9
$UCSXDIR
 10
1.0
 20
0.0
 30
0.0
  9
$UCSYDIR
 10
0.0
 20
1.0
 30
0.0
  9
$PUCSNAME
  2

  9
$PUCSORG
 10
0.0
 20
0.0
 30
0.0
  9
$PUCSXDIR
 10
1.0
 20
0.0
 30
0.0
  9
$PUCSYDIR
 10
0.0
 20
1.0
 30
0.0
  9
$USERI1
 70
     0
  9
$USERI2
 70
     0
  9
$USERI3
 70
     0
  9
$USERI4
 70
     0
  9
$USERI5
 70
     0
  9
$USERR1
 40
0.0
  9
$USERR2
 40
0.0
  9
$USERR3
 40
0.0
  9
$USERR4
 40
0.0
  9
$USERR5
 40
0.0
  9
$WORLDVIEW
 70
     1
  9
$SHADEDGE
 70
     3
  9
$SHADEDIF
 70
    70
  9
$TILEMODE
 70
     1
  9
$MAXACTVP
 70
    64
  9
$PLIMCHECK
 70
     0
  9
$PEXTMIN
 10
1.0000000000000000E+20
 20
1.0000000000000000E+20
 30
1.0000000000000000E+20
  9
$PEXTMAX
 10
-1.0000000000000000E+20
 20
-1.0000000000000000E+20
 30
-1.0000000000000000E+20
  9
$PLIMMIN
 10
0.0
 20
0.0
  9
$PLIMMAX
 10
12.0
 20
9.0
  9
$UNITMODE
 70
     0
  9
$VISRETAIN
 70
     1
  9
$PLINEGEN
 70
     0
  9
$PSLTSCALE
 70
     1
  0
ENDSEC
  0
SECTION
  2
TABLES
  0
TABLE
  2
VPORT
 70
     1
  0
VPORT
  2
*ACTIVE
 70
     0
 10
0.0
 20
0.0
 11
1.0
 21
1.0
 12
-88.0406770152656151
 22
-49.0288037685660711
 13
0.0
 23
0.0
 14
1.0
 24
1.0
 15
0.0
 25
0.0
 16
0.0
 26
0.0
 36
96.5995694866707311
 17
3303.693115234375
 27
195.2615115758877096
 37
0.0
 40
6.7287614534056814
 41
2.6486111111111108
 42
50.0
 43
0.0
 44
0.0
 50
0.0
 51
0.0
 71
     0
 72
   100
 73
     1
 74
     1
 75
     0
 76
     0
 77
     0
 78
     0
  0
ENDTAB
  0
TABLE
  2
LTYPE
 70
     2
  0
LTYPE
  2
CONTINUOUS
 70
     0
  3
Solid line
 72
    65
 73
     0
 40
0.0
  0
LTYPE
  2
PHANTOM2
 70
     0
  3
___ _ _ ___ _ _ ___ _ _ ___ _ _
 72
    65
 73
     6
 40
1.25
 49
0.625
 49
-0.125
 49
0.125
 49
-0.125
 49
0.125
 49
-0.125
  0
ENDTAB
  0
TABLE
  2
LAYER
 70
     2
  0
LAYER
  2
0
 70
     0
 62
   255
  6
CONTINUOUS
  0
LAYER
  2
DEFPOINTS
 70
     0
 62
     7
  6
CONTINUOUS
  0
ENDTAB
  0
TABLE
  2
STYLE
 70
     1
  0
STYLE
  2
STANDARD
 70
     0
 40
0.0
 41
0.8
 50
0.0
 71
     0
 42
0.2
  3
txt
  4

  0
ENDTAB
  0
TABLE
  2
VIEW
 70
     0
  0
ENDTAB
  0
TABLE
  2
UCS
 70
     0
  0
ENDTAB
  0
TABLE
  2
APPID
 70
     9
  0
APPID
  2
ACAD
 70
     0
  0
APPID
  2
ACAD_MLEADERVER
 70
     0
  0
APPID
  2
ACAD_EXEMPT_FROM_CAD_STANDARDS
 70
     0
  0
APPID
  2
ACAD_NAV_VCDISPLAY
 70
     0
  0
APPID
  2
ACAECLAYERSTANDARD
 70
     0
  0
APPID
  2
ACCMTRANSPARENCY
 70
     0
  0
APPID
  2
ACAD_DSTYLE_DIMJAG
 70
     0
  0
APPID
  2
ACAD_DSTYLE_DIMTALN
 70
     0
  0
APPID
  2
ACDBATTR
 70
     0
  0
ENDTAB
  0
TABLE
  2
DIMSTYLE
 70
     1
  0
DIMSTYLE
  2
STANDARD
 70
     0
  3

  4

  5

  6

  7

 40
1.0
 41
0.1875
 42
0.0625
 43
0.38
 44
0.125
 45
0.0
 46
0.0
 47
0.01
 48
0.01
140
0.15625
141
0.09
142
0.0
143
25.3999999999999986
144
1.0
145
0.0
146
1.0
147
0.09
 71
     1
 72
     0
 73
     1
 74
     1
 75
     0
 76
     0
 77
     0
 78
     4
170
     0
171
     2
172
     0
173
     0
174
     0
175
     0
176
     0
177
     0
178
     0
  0
ENDTAB
  0
ENDSEC
  0
SECTION
  2
BLOCKS
  0
BLOCK
  8
0
  2
$MODEL_SPACE
 70
     0
 10
0.0
 20
0.0
 30
0.0
  3
$MODEL_SPACE
  1

  0
ENDBLK
  5
21
  8
0
  0
BLOCK
 67
     1
  8
0
  2
$PAPER_SPACE
 70
     0
 10
0.0
 20
0.0
 30
0.0
  3
$PAPER_SPACE
  1

  0
ENDBLK
  5
1D
 67
     1
  8
0
  0
BLOCK
  8
0
  2
_FILLED
 70
     0
 10
0.0
 20
0.0
 30
0.0
  3
_FILLED
  1

  0
SOLID
  5
26CF5
  8
0
  6
BYBLOCK
 62
     0
 10
0.0
 20
0.0
 30
0.0
 11
-1.0
 21
0.1666666667
 31
0.0
 12
-1.0
 22
-0.1666666667
 32
0.0
 13
-1.0
 23
-0.1666666667
 33
0.0
  0
ENDBLK
  5
26CF6
  8
0
  6
BYBLOCK
 62
     0
  0
ENDSEC
  0
SECTION
  2
ENTITIES
  0
ATTDEF
  5
277B7
  8
DEFPOINTS
 10
3217.8020171245689198
 20
143.844853083045308
 30
0.0
 40
0.001
  1
K-14444BR
  3

  2
MODELNUMBER
 70
     0
1001
ACDBATTR
1070
     0
1070
     1
  0
ATTDEF
  5
277B8
  8
DEFPOINTS
 10
3217.8020171245689198
 20
143.843186416378586
 30
0.0
 40
0.001
  1
PURIST
  3

  2
TRADENAME
 70
     0
1001
ACDBATTR
1070
     0
1070
     1
  0
ATTDEF
  5
277B9
  8
DEFPOINTS
 10
3217.8020171245689198
 20
143.8415197497118925
 30
0.0
 40
0.001
  1
TOILET TISSUE HOLDER
  3

  2
PRODUCT
 70
     0
1001
ACDBATTR
1070
     0
1070
     1
  0
LINE
  5
28215
  8
0
 10
3214.3386493398811581
 20
149.5693219805716865
 30
0.0
 11
3215.5984918595809177
 21
149.5693219805716865
 31
0.0
  0
LINE
  5
28217
  8
0
 10
3214.3386493398811581
 20
149.4118416655716999
 30
0.0
 11
3215.5984918595809177
 21
149.4118416655716999
 31
0.0
  0
LINE
  5
28219
  8
0
 10
3213.4921926469810387
 20
144.6874322167716969
 30
0.0
 11
3216.444948552481037
 21
144.6874322167716969
 31
0.0
  0
LINE
  5
2821B
  8
0
 10
3213.4921926469810387
 20
144.6283770986717059
 30
0.0
 11
3216.444948552481037
 21
144.6283770986717059
 31
0.0
  0
LINE
  5
2821D
  8
0
 10
3214.574869812281122
 20
143.2504243427717086
 30
0.0
 11
3215.3622713870809093
 21
143.2504243427717086
 31
0.0
  0
LINE
  5
28225
  8
0
 10
3213.4921926469810387
 20
144.6874322167716969
 30
0.0
 11
3213.4921926469810387
 21
144.6283770986717059
 31
0.0
  0
LINE
  5
28228
  8
0
 10
3214.3386493398811581
 20
149.5693219805716865
 30
0.0
 11
3214.3386493398811581
 21
149.4118416655716999
 31
0.0
  0
LINE
  5
28229
  8
0
 10
3215.5984918595809177
 20
149.5693219805716865
 30
0.0
 11
3215.5984918595809177
 21
149.4118416655716999
 31
0.0
  0
LINE
  5
2822A
  8
0
 10
3214.574869812281122
 20
149.4118416655716999
 30
0.0
 11
3214.574869812281122
 21
144.6874322167716969
 31
0.0
  0
LINE
  5
2822B
  8
0
 10
3214.574869812281122
 20
144.6283770986717059
 30
0.0
 11
3214.574869812281122
 21
143.2504243427717086
 31
0.0
  0
LINE
  5
2822C
  8
0
 10
3215.3622713870809093
 20
149.4118416655716999
 30
0.0
 11
3215.3622713870809093
 21
144.6874322167716969
 31
0.0
  0
LINE
  5
2822D
  8
0
 10
3215.3622713870809093
 20
144.6283770986717059
 30
0.0
 11
3215.3622713870809093
 21
144.1953062324716939
 31
0.0
  0
LINE
  5
2822E
  8
0
 10
3215.3622713870809093
 20
143.4866448151717009
 30
0.0
 11
3215.3622713870809093
 21
143.2504243427717086
 31
0.0
  0
LINE
  5
2822F
  8
0
 10
3216.444948552481037
 20
144.6874322167716969
 30
0.0
 11
3216.444948552481037
 21
144.6283770986717059
 31
0.0
  0
LINE
  5
28230
  8
0
 10
3215.3622713870809093
 20
144.1953062324716939
 30
0.0
 11
3217.2506401805808309
 21
144.1953062324716939
 31
0.0
  0
LINE
  5
28231
  8
0
 10
3215.3622713870809093
 20
143.4866448151717009
 30
0.0
 11
3216.8766244325811385
 21
143.4866448151717009
 31
0.0
  0
LINE
  5
28232
  8
0
 10
3217.1128449049811024
 20
143.4866448151717009
 30
0.0
 11
3217.2506401805808309
 21
143.4866448151717009
 31
0.0
  0
ARC
  5
28233
  8
0
 10
3218.9924073433257945
 20
140.9282692072200973
 30
0.0
 40
4.8837913535684594
 50
138.0135316453178973
 51
138.2478295753342081
  0
ARC
  5
28234
  8
0
 10
3217.06672916926982
 20
142.6471337519394922
 30
0.0
 40
2.3025645612992021
 50
138.2478295753342081
 51
144.5229693117200043
  0
ARC
  5
28235
  8
0
 10
3215.4347085398871968
 20
143.8102558952836034
 30
0.0
 40
0.2984826131069454
 50
144.5229693117200043
 51
165.4370781787100952
  0
ARC
  5
28236
  8
0
 10
3215.3232660174380726
 20
143.839207499282594
 30
0.0
 40
0.1833408258007705
 50
165.4370781787100952
 51
207.8430006240685088
  0
ARC
  5
28237
  8
0
 10
3215.9284512964632086
 20
144.1588661805446918
 30
0.0
 40
0.8677609412669863
 50
207.8430006240685088
 51
219.2094391542565006
  0
ARC
  5
28238
  8
0
 10
3217.7590793618160205
 20
145.6523922579729913
 30
0.0
 40
3.2303483486700109
 50
219.2094391542565006
 51
222.1008586951743098
  0
LINE
  5
28239
  8
0
 10
3217.8018212829811091
 20
142.8960936340716898
 30
0.0
 11
3217.8018212829811091
 21
144.7858574135717049
 31
0.0
  0
LINE
  5
2823A
  8
0
 10
3217.5459157711811713
 20
142.8960936340716898
 30
0.0
 11
3217.5459157711811713
 21
144.7858574135717049
 31
0.0
  0
LINE
  5
2823B
  8
0
 10
3217.2506401805808309
 20
143.4866448151717009
 30
0.0
 11
3217.2506401805808309
 21
144.1953062324716939
 31
0.0
  0
LINE
  5
2823C
  8
0
 10
3217.5459157711811713
 20
144.7858574135717049
 30
0.0
 11
3217.8018212829811091
 21
144.7858574135717049
 31
0.0
  0
LINE
  5
2823D
  8
0
 10
3217.8018212829811091
 20
142.8960936340716898
 30
0.0
 11
3217.5459157711811713
 21
142.8960936340716898
 31
0.0
  0
ARC
  5
2823E
  8
0
 10
3217.270325219949882
 20
144.1885970133832018
 30
0.0
 40
0.01968503936756
 50
93.8225555108176223
 51
180.0
  0
ARC
  5
2823F
  8
0
 10
3217.2506401703271877
 20
144.4832157209669106
 30
0.0
 40
0.275590567543802
 50
273.8225555108177218
 51
332.5556119044189245
  0
ARC
  5
28240
  8
0
 10
3216.9711258067818562
 20
144.6283770436322129
 30
0.0
 40
0.5905510238333102
 50
332.5556119044189245
 51
346.7330137545123989
  0
ARC
  5
28241
  8
0
 10
3217.2703252199808048
 20
143.4933540342717038
 30
0.0
 40
0.0196850393999949
 50
180.0
 51
266.1774445094200132
  0
ARC
  5
28242
  8
0
 10
3217.2506401704690688
 20
143.1987353267718106
 30
0.0
 40
0.2755905674203806
 50
27.4443881099951312
 51
86.1774445094200274
  0
ARC
  5
28243
  8
0
 10
3216.9711258079109939
 20
143.0535740045299065
 30
0.0
 40
0.5905510226385481
 50
13.2669862310720106
 51
27.4443881099951312
  0
ARC
  5
28244
  8
0
 10
3217.0173116034438863
 20
143.1112658316014858
 30
0.0
 40
0.4008768655732722
 50
104.8119070485329019
 51
110.5453461092770056
  0
ARC
  5
28245
  8
0
 10
3216.9948382669608691
 20
143.202958930625698
 30
0.0
 40
0.3064902640274807
 50
73.7718487165020917
 51
105.1324167308796973
  0
ARC
  5
28246
  8
0
 10
3216.960026243647917
 20
143.0745572147534119
 30
0.0
 40
0.4395115502612468
 50
69.6532175923830437
 51
74.0923496231299339
  0
LINE
  5
28247
  8
0
 10
3217.112844993680028
 20
143.4866455941717049
 30
0.0
 11
3217.1128449049811024
 21
143.4846763112716985
 31
0.0
  0
LINE
  5
28248
  8
0
 10
3217.1128449049811024
 20
143.4846763112716985
 30
0.0
 11
3217.1049708892810486
 21
143.4768022954717139
 31
0.0
  0
LINE
  5
28249
  8
0
 10
3217.1049708892810486
 20
143.4768022954717139
 30
0.0
 11
3216.8844985091809576
 21
143.4768022954717139
 31
0.0
  0
LINE
  5
2824A
  8
0
 10
3216.8844985091809576
 20
143.4768022954717139
 30
0.0
 11
3216.8766244325811385
 21
143.4846763112716985
 31
0.0
  0
LINE
  5
2824B
  8
0
 10
3216.8766244325811385
 20
143.4846763112716985
 30
0.0
 11
3216.8766244325811385
 21
143.4866448151717009
 31
0.0
  0
LINE
  5
2824C
  8
0
 10
3216.8766244325811385
 20
143.4846763112716985
 30
0.0
 11
3217.1128449049811024
 21
143.4846763112716985
 31
0.0
  0
ENDSEC
  0
EOF
