  0
SECTION
  2
HEADER
  9
$ACADVER
  1
AC1009
  9
$INSBASE
 10
3221.7651015686528808
 20
143.8467220153524977
 30
0.0
  9
$EXTMIN
 10
3219.9737629860542256
 20
142.9018401255524964
 30
0.0
  9
$EXTMAX
 10
3221.7762800998771127
 20
144.791603905152499
 30
0.0
  9
$LIMMIN
 10
0.0
 20
0.0
  9
$LIMMAX
 10
11.6929133858000007
 20
8.2677165353999982
  9
$ORTHOMODE
 70
     0
  9
$REGENMODE
 70
     1
  9
$FILLMODE
 70
     1
  9
$QTEXTMODE
 70
     0
  9
$MIRRTEXT
 70
     0
  9
$DRAGMODE
 70
     2
  9
$LTSCALE
 40
0.6431102362
  9
$OSMODE
 70
  2039
  9
$ATTMODE
 70
     1
  9
$TEXTSIZE
 40
0.2
  9
$TRACEWID
 40
0.05
  9
$TEXTSTYLE
  7
STANDARD
  9
$CLAYER
  8
0
  9
$CELTYPE
  6
BYLAYER
  9
$CECOLOR
 62
   256
  9
$DIMSCALE
 40
1.0
  9
$DIMASZ
 40
0.1875
  9
$DIMEXO
 40
0.0625
  9
$DIMDLI
 40
0.4443307087
  9
$DIMRND
 40
0.0
  9
$DIMDLE
 40
0.0
  9
$DIMEXE
 40
0.125
  9
$DIMTP
 40
0.01
  9
$DIMTM
 40
0.01
  9
$DIMTXT
 40
2.0
  9
$DIMCEN
 40
0.1052362205
  9
$DIMTSZ
 40
0.0
  9
$DIMTOL
 70
     1
  9
$DIMLIM
 70
     0
  9
$DIMTIH
 70
     1
  9
$DIMTOH
 70
     1
  9
$DIMSE1
 70
     0
  9
$DIMSE2
 70
     0
  9
$DIMTAD
 70
     0
  9
$DIMZIN
 70
     0
  9
$DIMBLK
  1

  9
$DIMASO
 70
     1
  9
$DIMSHO
 70
     1
  9
$DIMPOST
  1
\X
  9
$DIMAPOST
  1

  9
$DIMALT
 70
     1
  9
$DIMALTD
 70
     2
  9
$DIMALTF
 40
25.3999999999999986
  9
$DIMLFAC
 40
1.0
  9
$DIMTOFL
 70
     0
  9
$DIMTVP
 40
0.0
  9
$DIMTIX
 70
     0
  9
$DIMSOXD
 70
     0
  9
$DIMSAH
 70
     0
  9
$DIMBLK1
  1

  9
$DIMBLK2
  1

  9
$DIMSTYLE
  2
STANDARD
  9
$DIMCLRD
 70
     0
  9
$DIMCLRE
 70
     0
  9
$DIMCLRT
 70
     0
  9
$DIMTFAC
 40
1.0
  9
$DIMGAP
 40
0.09
  9
$LUNITS
 70
     2
  9
$LUPREC
 70
     4
  9
$SKETCHINC
 40
0.1
  9
$FILLETRAD
 40
0.0
  9
$AUNITS
 70
     0
  9
$AUPREC
 70
     0
  9
$MENU
  1
.
  9
$ELEVATION
 40
0.0
  9
$PELEVATION
 40
0.0
  9
$THICKNESS
 40
0.0
  9
$LIMCHECK
 70
     0
  9
$BLIPMODE
 70
     0
  9
$CHAMFERA
 40
0.0
  9
$CHAMFERB
 40
0.0
  9
$SKPOLY
 70
     0
  9
$TDCREATE
 40
2458060.468368056230247
  9
$TDUPDATE
 40
2459199.4914467590861022
  9
$TDINDWG
 40
0.5987917824
  9
$TDUSRTIMER
 40
0.5987917824
  9
$USRTIMER
 70
     1
  9
$ANGBASE
 50
0.0
  9
$ANGDIR
 70
     0
  9
$PDMODE
 70
     0
  9
$PDSIZE
 40
0.3125
  9
$PLINEWID
 40
0.0
  9
$COORDS
 70
     1
  9
$SPLFRAME
 70
     0
  9
$SPLINETYPE
 70
     6
  9
$SPLINESEGS
 70
     8
  9
$ATTDIA
 70
     1
  9
$ATTREQ
 70
     1
  9
$HANDLING
 70
     1
  9
$HANDSEED
  5
27D9E
  9
$SURFTAB1
 70
     6
  9
$SURFTAB2
 70
     6
  9
$SURFTYPE
 70
     6
  9
$SURFU
 70
     6
  9
$SURFV
 70
     6
  9
$UCSNAME
  2

  9
$UCSORG
 10
0.0
 20
0.0
 30
0.0
  9
$UCSXDIR
 10
1.0
 20
0.0
 30
0.0
  9
$UCSYDIR
 10
0.0
 20
1.0
 30
0.0
  9
$PUCSNAME
  2

  9
$PUCSORG
 10
0.0
 20
0.0
 30
0.0
  9
$PUCSXDIR
 10
1.0
 20
0.0
 30
0.0
  9
$PUCSYDIR
 10
0.0
 20
1.0
 30
0.0
  9
$USERI1
 70
     0
  9
$USERI2
 70
     0
  9
$USERI3
 70
     0
  9
$USERI4
 70
     0
  9
$USERI5
 70
     0
  9
$USERR1
 40
0.0
  9
$USERR2
 40
0.0
  9
$USERR3
 40
0.0
  9
$USERR4
 40
0.0
  9
$USERR5
 40
0.0
  9
$WORLDVIEW
 70
     1
  9
$SHADEDGE
 70
     3
  9
$SHADEDIF
 70
    70
  9
$TILEMODE
 70
     1
  9
$MAXACTVP
 70
    64
  9
$PLIMCHECK
 70
     0
  9
$PEXTMIN
 10
1.0000000000000000E+20
 20
1.0000000000000000E+20
 30
1.0000000000000000E+20
  9
$PEXTMAX
 10
-1.0000000000000000E+20
 20
-1.0000000000000000E+20
 30
-1.0000000000000000E+20
  9
$PLIMMIN
 10
0.0
 20
0.0
  9
$PLIMMAX
 10
12.0
 20
9.0
  9
$UNITMODE
 70
     0
  9
$VISRETAIN
 70
     1
  9
$PLINEGEN
 70
     0
  9
$PSLTSCALE
 70
     1
  0
ENDSEC
  0
SECTION
  2
TABLES
  0
TABLE
  2
VPORT
 70
     1
  0
VPORT
  2
*ACTIVE
 70
     0
 10
0.0
 20
0.0
 11
1.0
 21
1.0
 12
-82.8180936914097856
 22
-51.4147895605352403
 13
0.0
 23
0.0
 14
1.0
 24
1.0
 15
0.0
 25
0.0
 16
0.0
 26
0.0
 36
96.5995694866707311
 17
3303.693115234375
 27
195.2615115758877096
 37
0.0
 40
1.905489969166708
 41
2.6486111111111108
 42
50.0
 43
0.0
 44
0.0
 50
0.0
 51
0.0
 71
     0
 72
   100
 73
     1
 74
     1
 75
     0
 76
     0
 77
     0
 78
     0
  0
ENDTAB
  0
TABLE
  2
LTYPE
 70
     2
  0
LTYPE
  2
CONTINUOUS
 70
     0
  3
Solid line
 72
    65
 73
     0
 40
0.0
  0
LTYPE
  2
PHANTOM2
 70
     0
  3
___ _ _ ___ _ _ ___ _ _ ___ _ _
 72
    65
 73
     6
 40
1.25
 49
0.625
 49
-0.125
 49
0.125
 49
-0.125
 49
0.125
 49
-0.125
  0
ENDTAB
  0
TABLE
  2
LAYER
 70
     2
  0
LAYER
  2
0
 70
     0
 62
   255
  6
CONTINUOUS
  0
LAYER
  2
DEFPOINTS
 70
     0
 62
     7
  6
CONTINUOUS
  0
ENDTAB
  0
TABLE
  2
STYLE
 70
     1
  0
STYLE
  2
STANDARD
 70
     0
 40
0.0
 41
0.8
 50
0.0
 71
     0
 42
0.2
  3
txt
  4

  0
ENDTAB
  0
TABLE
  2
VIEW
 70
     0
  0
ENDTAB
  0
TABLE
  2
UCS
 70
     0
  0
ENDTAB
  0
TABLE
  2
APPID
 70
     9
  0
APPID
  2
ACAD
 70
     0
  0
APPID
  2
ACAD_MLEADERVER
 70
     0
  0
APPID
  2
ACAD_EXEMPT_FROM_CAD_STANDARDS
 70
     0
  0
APPID
  2
ACAD_NAV_VCDISPLAY
 70
     0
  0
APPID
  2
ACAECLAYERSTANDARD
 70
     0
  0
APPID
  2
ACCMTRANSPARENCY
 70
     0
  0
APPID
  2
ACAD_DSTYLE_DIMJAG
 70
     0
  0
APPID
  2
ACAD_DSTYLE_DIMTALN
 70
     0
  0
APPID
  2
ACDBATTR
 70
     0
  0
ENDTAB
  0
TABLE
  2
DIMSTYLE
 70
     1
  0
DIMSTYLE
  2
STANDARD
 70
     0
  3

  4

  5

  6

  7

 40
1.0
 41
0.1875
 42
0.0625
 43
0.38
 44
0.125
 45
0.0
 46
0.0
 47
0.01
 48
0.01
140
0.15625
141
0.09
142
0.0
143
25.3999999999999986
144
1.0
145
0.0
146
1.0
147
0.09
 71
     1
 72
     0
 73
     1
 74
     1
 75
     0
 76
     0
 77
     0
 78
     4
170
     0
171
     2
172
     0
173
     0
174
     0
175
     0
176
     0
177
     0
178
     0
  0
ENDTAB
  0
ENDSEC
  0
SECTION
  2
BLOCKS
  0
BLOCK
  8
0
  2
$MODEL_SPACE
 70
     0
 10
0.0
 20
0.0
 30
0.0
  3
$MODEL_SPACE
  1

  0
ENDBLK
  5
21
  8
0
  0
BLOCK
 67
     1
  8
0
  2
$PAPER_SPACE
 70
     0
 10
0.0
 20
0.0
 30
0.0
  3
$PAPER_SPACE
  1

  0
ENDBLK
  5
1D
 67
     1
  8
0
  0
BLOCK
  8
0
  2
_FILLED
 70
     0
 10
0.0
 20
0.0
 30
0.0
  3
_FILLED
  1

  0
SOLID
  5
26CF5
  8
0
  6
BYBLOCK
 62
     0
 10
0.0
 20
0.0
 30
0.0
 11
-1.0
 21
0.1666666667
 31
0.0
 12
-1.0
 22
-0.1666666667
 32
0.0
 13
-1.0
 23
-0.1666666667
 33
0.0
  0
ENDBLK
  5
26CF6
  8
0
  6
BYBLOCK
 62
     0
  0
ENDSEC
  0
SECTION
  2
ENTITIES
  0
ATTDEF
  5
26D9D
  8
DEFPOINTS
 10
3221.7656134332078182
 20
143.8506757738196882
 30
0.0
 40
0.001
  1
K-14443BR
  3

  2
MODELNUMBER
 70
     0
1001
ACDBATTR
1070
     0
1070
     1
  0
ATTDEF
  5
26D9E
  8
DEFPOINTS
 10
3221.7656134332078182
 20
143.8490091071529946
 30
0.0
 40
0.001
  1
PURIST
  3

  2
TRADENAME
 70
     0
1001
ACDBATTR
1070
     0
1070
     1
  0
ATTDEF
  5
26D9F
  8
DEFPOINTS
 10
3221.7656134332078182
 20
143.8473424404863863
 30
0.0
 40
0.001
  1
ROBE HOOK
  3

  2
PRODUCT
 70
     0
1001
ACDBATTR
1070
     0
1070
     1
  0
LINE
  5
2778B
  8
0
 10
3221.7651015686528808
 20
144.791603905152499
 30
0.0
 11
3221.5288810962529169
 21
144.791603905152499
 31
0.0
  0
LINE
  5
2778C
  8
0
 10
3220.1312433009529741
 20
144.5356983933525044
 30
0.0
 11
3219.9737629860542256
 21
144.5356983933525044
 31
0.0
  0
LINE
  5
2778D
  8
0
 10
3219.9737629860542256
 20
143.157745637352491
 30
0.0
 11
3220.1312433009529741
 21
143.157745637352491
 31
0.0
  0
LINE
  5
2778E
  8
0
 10
3221.7651015686528808
 20
142.9018401255524964
 30
0.0
 11
3221.5288810962529169
 21
142.9018401255524964
 31
0.0
  0
LINE
  5
2778F
  8
0
 10
3221.7651015686528808
 20
142.9018401255524964
 30
0.0
 11
3221.7651015686528808
 21
144.791603905152499
 31
0.0
  0
LINE
  5
27790
  8
0
 10
3221.5091960568538525
 20
142.9215251649524987
 30
0.0
 11
3221.5091960568538525
 21
144.7719188657524967
 31
0.0
  0
LINE
  5
27791
  8
0
 10
3221.2139204663540113
 20
144.2010527239525004
 30
0.0
 11
3221.2139204663540113
 21
143.4923913066525074
 31
0.0
  0
LINE
  5
27792
  8
0
 10
3220.1312433009529741
 20
144.5356983933525044
 30
0.0
 11
3220.1312433009529741
 21
143.157745637352491
 31
0.0
  0
LINE
  5
27793
  8
0
 10
3219.9737629860542256
 20
144.5356983933525044
 30
0.0
 11
3219.9737629860542256
 21
143.157745637352491
 31
0.0
  0
ARC
  5
27794
  8
0
 10
3221.5288810960828414
 20
144.7719188658232099
 30
0.0
 40
0.0196850392292865
 50
89.9999995031031119
 51
180.0000002058189921
  0
ARC
  5
27795
  8
0
 10
3221.5288810962529169
 20
142.9215251649524987
 30
0.0
 40
0.0196850394000023
 50
180.0000000000048885
 51
270.0
  0
LINE
  5
27796
  8
0
 10
3220.1312433009529741
 20
143.4923913066525074
 30
0.0
 11
3220.8399044006350778
 21
143.4923913066525074
 31
0.0
  0
LINE
  5
27797
  8
0
 10
3221.0761254662538704
 20
143.4923913066525074
 30
0.0
 11
3221.2139204663540113
 21
143.4923913066525074
 31
0.0
  0
ARC
  5
27798
  8
0
 10
3220.9729026371878717
 20
143.1380446411106959
 30
0.0
 40
0.3784839366559078
 50
98.7968955181961377
 51
110.5728045649005935
  0
ARC
  5
27799
  8
0
 10
3220.9579712360541635
 20
143.2177346396308053
 30
0.0
 40
0.2974589547484789
 50
81.697864704349044
 51
98.3021352956509133
  0
ARC
  5
2779A
  8
0
 10
3220.9428182445722086
 20
143.1366074340533885
 30
0.0
 40
0.3799381256915915
 50
69.4597312647247236
 51
81.2032268825491457
  0
ARC
  5
2779B
  8
0
 10
3221.2336055056198347
 20
143.4991005257384131
 30
0.0
 40
0.0196850393651417
 50
180.0
 51
266.1774447867683193
  0
ARC
  5
2779C
  8
0
 10
3221.2139204577028977
 20
143.2044818206746015
 30
0.0
 40
0.2755905649182155
 50
27.4443878127634413
 51
86.1774447867682767
  0
ARC
  5
2779D
  8
0
 10
3220.9344060703101604
 20
143.0593204873754019
 30
0.0
 40
0.5905510472737613
 50
13.2669865283013504
 51
27.4443878127634413
  0
LINE
  5
2779E
  8
0
 10
3220.1312433009529741
 20
144.2010527239525004
 30
0.0
 11
3221.2139204663540113
 21
144.2010527239525004
 31
0.0
  0
ARC
  5
2779F
  8
0
 10
3221.2336055056130135
 20
144.1943435048661968
 30
0.0
 40
0.0196850393581258
 50
93.8225551655750252
 51
180.0
  0
ARC
  5
277A0
  8
0
 10
3221.2139204579661964
 20
144.4889622095745096
 30
0.0
 40
0.2755905645525669
 50
273.822555165575011
 51
332.5556122472247012
  0
ARC
  5
277A1
  8
0
 10
3220.9344060679159156
 20
144.6341235438817137
 30
0.0
 40
0.5905510497302535
 50
332.5556122472247012
 51
346.7330134728551911
  0
ENDSEC
  0
EOF
