  0
SECTION
  2
HEADER
  9
$ACADVER
  1
AC1009
  9
$INSBASE
 10
3221.7646018349541919
 20
151.3751508829824104
 30
0.0
  9
$EXTMIN
 10
3217.0979888740180286
 20
148.1435412860022041
 30
-0.0000000000112498
  9
$EXTMAX
 10
3226.2055802479990234
 20
151.3890102911813926
 30
0.0000000000002956
  9
$LIMMIN
 10
0.0
 20
0.0
  9
$LIMMAX
 10
11.6929133858000007
 20
8.2677165353999982
  9
$ORTHOMODE
 70
     0
  9
$REGENMODE
 70
     1
  9
$FILLMODE
 70
     1
  9
$QTEXTMODE
 70
     0
  9
$MIRRTEXT
 70
     0
  9
$DRAGMODE
 70
     2
  9
$LTSCALE
 40
0.6431102362
  9
$OSMODE
 70
  2039
  9
$ATTMODE
 70
     1
  9
$TEXTSIZE
 40
0.2
  9
$TRACEWID
 40
0.05
  9
$TEXTSTYLE
  7
STANDARD
  9
$CLAYER
  8
0
  9
$CELTYPE
  6
BYLAYER
  9
$CECOLOR
 62
   256
  9
$DIMSCALE
 40
1.0
  9
$DIMASZ
 40
0.1875
  9
$DIMEXO
 40
0.0625
  9
$DIMDLI
 40
0.4443307087
  9
$DIMRND
 40
0.0
  9
$DIMDLE
 40
0.0
  9
$DIMEXE
 40
0.125
  9
$DIMTP
 40
0.01
  9
$DIMTM
 40
0.01
  9
$DIMTXT
 40
2.0
  9
$DIMCEN
 40
0.1052362205
  9
$DIMTSZ
 40
0.0
  9
$DIMTOL
 70
     1
  9
$DIMLIM
 70
     0
  9
$DIMTIH
 70
     1
  9
$DIMTOH
 70
     1
  9
$DIMSE1
 70
     0
  9
$DIMSE2
 70
     0
  9
$DIMTAD
 70
     0
  9
$DIMZIN
 70
     0
  9
$DIMBLK
  1

  9
$DIMASO
 70
     1
  9
$DIMSHO
 70
     1
  9
$DIMPOST
  1
\X
  9
$DIMAPOST
  1

  9
$DIMALT
 70
     1
  9
$DIMALTD
 70
     2
  9
$DIMALTF
 40
25.3999999999999986
  9
$DIMLFAC
 40
1.0
  9
$DIMTOFL
 70
     0
  9
$DIMTVP
 40
0.0
  9
$DIMTIX
 70
     0
  9
$DIMSOXD
 70
     0
  9
$DIMSAH
 70
     0
  9
$DIMBLK1
  1

  9
$DIMBLK2
  1

  9
$DIMSTYLE
  2
STANDARD
  9
$DIMCLRD
 70
     0
  9
$DIMCLRE
 70
     0
  9
$DIMCLRT
 70
     0
  9
$DIMTFAC
 40
1.0
  9
$DIMGAP
 40
0.09
  9
$LUNITS
 70
     2
  9
$LUPREC
 70
     4
  9
$SKETCHINC
 40
0.1
  9
$FILLETRAD
 40
0.0
  9
$AUNITS
 70
     0
  9
$AUPREC
 70
     0
  9
$MENU
  1
.
  9
$ELEVATION
 40
0.0
  9
$PELEVATION
 40
0.0
  9
$THICKNESS
 40
0.0
  9
$LIMCHECK
 70
     0
  9
$BLIPMODE
 70
     0
  9
$CHAMFERA
 40
0.0
  9
$CHAMFERB
 40
0.0
  9
$SKPOLY
 70
     0
  9
$TDCREATE
 40
2458060.468368056230247
  9
$TDUPDATE
 40
2459199.4870370370335877
  9
$TDINDWG
 40
0.5967547454
  9
$TDUSRTIMER
 40
0.5967547454
  9
$USRTIMER
 70
     1
  9
$ANGBASE
 50
0.0
  9
$ANGDIR
 70
     0
  9
$PDMODE
 70
     0
  9
$PDSIZE
 40
0.3125
  9
$PLINEWID
 40
0.0
  9
$COORDS
 70
     1
  9
$SPLFRAME
 70
     0
  9
$SPLINETYPE
 70
     6
  9
$SPLINESEGS
 70
     8
  9
$ATTDIA
 70
     1
  9
$ATTREQ
 70
     1
  9
$HANDLING
 70
     1
  9
$HANDSEED
  5
27285
  9
$SURFTAB1
 70
     6
  9
$SURFTAB2
 70
     6
  9
$SURFTYPE
 70
     6
  9
$SURFU
 70
     6
  9
$SURFV
 70
     6
  9
$UCSNAME
  2

  9
$UCSORG
 10
0.0
 20
0.0
 30
0.0
  9
$UCSXDIR
 10
1.0
 20
0.0
 30
0.0
  9
$UCSYDIR
 10
0.0
 20
1.0
 30
0.0
  9
$PUCSNAME
  2

  9
$PUCSORG
 10
0.0
 20
0.0
 30
0.0
  9
$PUCSXDIR
 10
1.0
 20
0.0
 30
0.0
  9
$PUCSYDIR
 10
0.0
 20
1.0
 30
0.0
  9
$USERI1
 70
     0
  9
$USERI2
 70
     0
  9
$USERI3
 70
     0
  9
$USERI4
 70
     0
  9
$USERI5
 70
     0
  9
$USERR1
 40
0.0
  9
$USERR2
 40
0.0
  9
$USERR3
 40
0.0
  9
$USERR4
 40
0.0
  9
$USERR5
 40
0.0
  9
$WORLDVIEW
 70
     1
  9
$SHADEDGE
 70
     3
  9
$SHADEDIF
 70
    70
  9
$TILEMODE
 70
     1
  9
$MAXACTVP
 70
    64
  9
$PLIMCHECK
 70
     0
  9
$PEXTMIN
 10
1.0000000000000000E+20
 20
1.0000000000000000E+20
 30
1.0000000000000000E+20
  9
$PEXTMAX
 10
-1.0000000000000000E+20
 20
-1.0000000000000000E+20
 30
-1.0000000000000000E+20
  9
$PLIMMIN
 10
0.0
 20
0.0
  9
$PLIMMAX
 10
12.0
 20
9.0
  9
$UNITMODE
 70
     0
  9
$VISRETAIN
 70
     1
  9
$PLINEGEN
 70
     0
  9
$PSLTSCALE
 70
     1
  0
ENDSEC
  0
SECTION
  2
TABLES
  0
TABLE
  2
VPORT
 70
     1
  0
VPORT
  2
*ACTIVE
 70
     0
 10
0.0
 20
0.0
 11
1.0
 21
1.0
 12
-82.0413306733662466
 22
-45.4952357872959325
 13
0.0
 23
0.0
 14
1.0
 24
1.0
 15
0.0
 25
0.0
 16
0.0
 26
0.0
 36
96.5995694866707311
 17
3303.693115234375
 27
195.2615115758877096
 37
0.0
 40
3.449433114141315
 41
2.6486111111111108
 42
50.0
 43
0.0
 44
0.0
 50
0.0
 51
0.0
 71
     0
 72
   100
 73
     1
 74
     1
 75
     0
 76
     0
 77
     0
 78
     0
  0
ENDTAB
  0
TABLE
  2
LTYPE
 70
     2
  0
LTYPE
  2
CONTINUOUS
 70
     0
  3
Solid line
 72
    65
 73
     0
 40
0.0
  0
LTYPE
  2
PHANTOM2
 70
     0
  3
___ _ _ ___ _ _ ___ _ _ ___ _ _
 72
    65
 73
     6
 40
1.25
 49
0.625
 49
-0.125
 49
0.125
 49
-0.125
 49
0.125
 49
-0.125
  0
ENDTAB
  0
TABLE
  2
LAYER
 70
     2
  0
LAYER
  2
0
 70
     0
 62
   255
  6
CONTINUOUS
  0
LAYER
  2
DEFPOINTS
 70
     0
 62
     7
  6
CONTINUOUS
  0
ENDTAB
  0
TABLE
  2
STYLE
 70
     1
  0
STYLE
  2
STANDARD
 70
     0
 40
0.0
 41
0.8
 50
0.0
 71
     0
 42
0.2
  3
txt
  4

  0
ENDTAB
  0
TABLE
  2
VIEW
 70
     0
  0
ENDTAB
  0
TABLE
  2
UCS
 70
     0
  0
ENDTAB
  0
TABLE
  2
APPID
 70
     9
  0
APPID
  2
ACAD
 70
     0
  0
APPID
  2
ACAD_MLEADERVER
 70
     0
  0
APPID
  2
ACAD_EXEMPT_FROM_CAD_STANDARDS
 70
     0
  0
APPID
  2
ACAD_NAV_VCDISPLAY
 70
     0
  0
APPID
  2
ACAECLAYERSTANDARD
 70
     0
  0
APPID
  2
ACCMTRANSPARENCY
 70
     0
  0
APPID
  2
ACAD_DSTYLE_DIMJAG
 70
     0
  0
APPID
  2
ACAD_DSTYLE_DIMTALN
 70
     0
  0
APPID
  2
ACDBATTR
 70
     0
  0
ENDTAB
  0
TABLE
  2
DIMSTYLE
 70
     1
  0
DIMSTYLE
  2
STANDARD
 70
     0
  3

  4

  5

  6

  7

 40
1.0
 41
0.1875
 42
0.0625
 43
0.38
 44
0.125
 45
0.0
 46
0.0
 47
0.01
 48
0.01
140
0.15625
141
0.09
142
0.0
143
25.3999999999999986
144
1.0
145
0.0
146
1.0
147
0.09
 71
     1
 72
     0
 73
     1
 74
     1
 75
     0
 76
     0
 77
     0
 78
     4
170
     0
171
     2
172
     0
173
     0
174
     0
175
     0
176
     0
177
     0
178
     0
  0
ENDTAB
  0
ENDSEC
  0
SECTION
  2
BLOCKS
  0
BLOCK
  8
0
  2
$MODEL_SPACE
 70
     0
 10
0.0
 20
0.0
 30
0.0
  3
$MODEL_SPACE
  1

  0
ENDBLK
  5
21
  8
0
  0
BLOCK
 67
     1
  8
0
  2
$PAPER_SPACE
 70
     0
 10
0.0
 20
0.0
 30
0.0
  3
$PAPER_SPACE
  1

  0
ENDBLK
  5
1D
 67
     1
  8
0
  0
BLOCK
  8
0
  2
_FILLED
 70
     0
 10
0.0
 20
0.0
 30
0.0
  3
_FILLED
  1

  0
SOLID
  5
26CF5
  8
0
  6
BYBLOCK
 62
     0
 10
0.0
 20
0.0
 30
0.0
 11
-1.0
 21
0.1666666667
 31
0.0
 12
-1.0
 22
-0.1666666667
 32
0.0
 13
-1.0
 23
-0.1666666667
 33
0.0
  0
ENDBLK
  5
26CF6
  8
0
  6
BYBLOCK
 62
     0
  0
ENDSEC
  0
SECTION
  2
ENTITIES
  0
LINE
  5
26D4D
  8
0
 10
3220.8197199452038149
 20
151.3751508829824104
 30
0.0
 11
3222.7094837247050236
 21
151.3751508829824104
 31
0.0
  0
LINE
  5
26D4E
  8
0
 10
3220.8394049846037888
 20
151.1192453710823997
 30
0.0
 11
3222.6897986854041847
 21
151.1192453710823997
 31
0.0
  0
LINE
  5
26D4F
  8
0
 10
3222.7882238822039653
 20
148.1481994122823949
 30
0.0
 11
3220.7409797877039637
 21
148.1481994122823949
 31
0.0
  0
LINE
  5
26D50
  8
0
 10
3222.7882238822039653
 20
148.9356009870824096
 30
0.0
 11
3222.1189325436048421
 21
148.9356009870824096
 31
0.0
  0
LINE
  5
26D51
  8
0
 10
3221.4102711263039964
 20
148.9356009870824096
 30
0.0
 11
3220.7409797877039637
 21
148.9356009870824096
 31
0.0
  0
LINE
  5
26D52
  8
0
 10
3217.5822175637981672
 20
148.8173386155824005
 30
0.0
 11
3220.7409797877039637
 21
148.8173960281517054
 31
0.0
  0
LINE
  5
26D53
  8
0
 10
3222.7882238822039653
 20
148.8174332381520912
 30
0.0
 11
3225.8984575089039026
 21
148.8174897686824067
 31
0.0
  0
LINE
  5
26D54
  8
0
 10
3217.5822175637990767
 20
148.2664617837824039
 30
0.0
 11
3220.7409797877039637
 21
148.2664039981434883
 31
0.0
  0
LINE
  5
26D55
  8
0
 10
3222.7882238822039653
 20
148.2663665463508096
 30
0.0
 11
3225.8984575089039026
 21
148.2663096484824052
 31
0.0
  0
CIRCLE
  5
26D56
  8
0
 10
3217.5913734885048143
 20
148.5419001996824022
 30
0.0
 40
0.2755905512000005
  0
ARC
  5
26D57
  8
0
 10
3225.8984575089039026
 20
148.541899708582406
 30
0.0
 40
0.2755900601000007
 50
270.0
 51
90.0
  0
LINE
  5
26D59
  8
0
 10
3220.7409797877039637
 20
148.1481994122823949
 30
0.0
 11
3220.7409797877039637
 21
148.9356009870824096
 31
0.0
  0
LINE
  5
26D5A
  8
0
 10
3220.8197199452038149
 20
151.1389304104824021
 30
0.0
 11
3220.8197199452038149
 21
151.3751508829824104
 31
0.0
  0
LINE
  5
26D5C
  8
0
 10
3222.7882238822039653
 20
148.1481994122823949
 30
0.0
 11
3222.7882238822039653
 21
148.9356009870824096
 31
0.0
  0
LINE
  5
26D5D
  8
0
 10
3222.7094837247050236
 20
151.1389304104824021
 30
0.0
 11
3222.7094837247050236
 21
151.3751508829824104
 31
0.0
  0
CIRCLE
  5
26D5E
  8
0
 10
3217.5913734885048143
 20
148.5419001996824022
 30
0.0
 40
0.2460629921000001
  0
ARC
  5
26D5F
  8
0
 10
3222.6897986854041847
 20
151.1389304104824021
 30
0.0
 40
0.019685039399997
 50
270.0
 51
0.0000000000097707
  0
ARC
  5
26D60
  8
0
 10
3220.8394049846037888
 20
151.1389304104824021
 30
0.0
 40
0.0196850394000006
 50
180.0
 51
270.0
  0
ARC
  5
26D61
  8
0
 10
3220.9772002605259331
 20
150.5444552592049092
 30
0.0
 40
0.590551179933546
 50
62.5556137877881113
 51
76.7330118711391549
  0
ARC
  5
26D62
  8
0
 10
3221.1223616533798122
 20
150.8239697803639956
 30
0.0
 40
0.2755905514194231
 50
3.8225536514824392
 51
62.5556137877881113
  0
ARC
  5
26D63
  8
0
 10
3221.4169803448007769
 20
150.843654819302202
 30
0.0
 40
0.0196850386527179
 50
183.8225536514808027
 51
270.0
  0
LINE
  5
26D64
  8
0
 10
3221.4102711263039964
 20
150.823969780582388
 30
0.0
 11
3222.1189325436048421
 21
150.823969780582388
 31
0.0
  0
LINE
  5
26D65
  8
0
 10
3222.1189325436048421
 20
150.823969780582388
 30
0.0
 11
3222.1189325436048421
 21
148.9356009870824096
 31
0.0
  0
ARC
  5
26D66
  8
0
 10
3219.8674143644161632
 20
151.428430749865214
 30
0.0
 40
3.3590972503681318
 50
309.5738656063584244
 51
312.0882761963997041
  0
ARC
  5
26D67
  8
0
 10
3221.3739674746129822
 20
149.6056286434952085
 30
0.0
 40
0.9942907481714955
 50
299.278620723398717
 51
309.5738659971570996
  0
ARC
  5
26D68
  8
0
 10
3221.7641161559181455
 20
148.9119739643774949
 30
0.0
 40
0.1984471341348515
 50
238.9298762181327049
 51
298.9693387011342907
  0
ARC
  5
26D69
  8
0
 10
3222.2403942681771696
 20
149.7317503083118027
 30
0.0
 40
1.146515955348637
 50
227.4871678960114991
 51
239.6858135049486975
  0
ARC
  5
26D6A
  8
0
 10
3248.2696455208770203
 20
179.2388262363859894
 30
0.0
 40
40.4933507304331926
 50
228.4477071922553932
 51
228.5522923937211033
  0
LINE
  5
26D6B
  8
0
 10
3221.4102711263039964
 20
148.9356009870824096
 30
0.0
 11
3221.4102711263039964
 21
150.823969780582388
 31
0.0
  0
ARC
  5
26D6C
  8
0
 10
3222.1122233245041571
 20
150.8436548199823903
 30
0.0
 40
0.0196850394000017
 50
270.0
 51
356.177444403772995
  0
ARC
  5
26D6D
  8
0
 10
3222.4068420326530031
 20
150.8239697698818986
 30
0.0
 40
0.2755905681075573
 50
117.4443881644870942
 51
176.177444403772995
  0
ARC
  5
26D6E
  8
0
 10
3222.5520033527632222
 20
150.5444554120805947
 30
0.0
 40
0.5905510181214046
 50
103.2669861765836998
 51
117.4443881644870942
  0
ATTDEF
  5
26DA6
  8
DEFPOINTS
 10
3221.7656104103971302
 20
151.3791476092551136
 30
0.0
 40
0.001
  1
K-14441BR
  3

  2
MODELNUMBER
 70
     0
1001
ACDBATTR
1070
     0
1070
     1
  0
ATTDEF
  5
26DA7
  8
DEFPOINTS
 10
3221.7656104103971302
 20
151.3774809425883916
 30
0.0
 40
0.001
  1
PURIST
  3

  2
TRADENAME
 70
     0
1001
ACDBATTR
1070
     0
1070
     1
  0
ATTDEF
  5
26DA8
  8
DEFPOINTS
 10
3221.7656104103971302
 20
151.3758142759218117
 30
0.0
 40
0.001
  1
TOWEL RING
  3

  2
PRODUCT
 70
     0
1001
ACDBATTR
1070
     0
1070
     1
  0
ENDSEC
  0
EOF
