  0
SECTION
  2
HEADER
  9
$ACADVER
  1
AC1009
  9
$INSBASE
 10
3490.0152014909290301
 20
175.3122869392074108
 30
0.0
  9
$EXTMIN
 10
3485.1333117272301934
 20
174.3674050494074947
 30
0.0
  9
$EXTMAX
 10
3490.0267837008050265
 20
176.2571688290074974
 30
0.0
  9
$LIMMIN
 10
0.0
 20
0.0
  9
$LIMMAX
 10
11.6929133858000007
 20
8.2677165353999982
  9
$ORTHOMODE
 70
     0
  9
$REGENMODE
 70
     1
  9
$FILLMODE
 70
     1
  9
$QTEXTMODE
 70
     0
  9
$MIRRTEXT
 70
     0
  9
$DRAGMODE
 70
     2
  9
$LTSCALE
 40
0.6431102362
  9
$OSMODE
 70
  4095
  9
$ATTMODE
 70
     1
  9
$TEXTSIZE
 40
0.2
  9
$TRACEWID
 40
0.05
  9
$TEXTSTYLE
  7
STANDARD
  9
$CLAYER
  8
0
  9
$CELTYPE
  6
BYLAYER
  9
$CECOLOR
 62
   256
  9
$DIMSCALE
 40
1.0
  9
$DIMASZ
 40
0.1875
  9
$DIMEXO
 40
0.0625
  9
$DIMDLI
 40
0.4443307087
  9
$DIMRND
 40
0.0
  9
$DIMDLE
 40
0.0
  9
$DIMEXE
 40
0.125
  9
$DIMTP
 40
0.01
  9
$DIMTM
 40
0.01
  9
$DIMTXT
 40
2.0
  9
$DIMCEN
 40
0.1052362205
  9
$DIMTSZ
 40
0.0
  9
$DIMTOL
 70
     1
  9
$DIMLIM
 70
     0
  9
$DIMTIH
 70
     1
  9
$DIMTOH
 70
     1
  9
$DIMSE1
 70
     0
  9
$DIMSE2
 70
     0
  9
$DIMTAD
 70
     0
  9
$DIMZIN
 70
     0
  9
$DIMBLK
  1

  9
$DIMASO
 70
     1
  9
$DIMSHO
 70
     1
  9
$DIMPOST
  1
\X
  9
$DIMAPOST
  1

  9
$DIMALT
 70
     1
  9
$DIMALTD
 70
     2
  9
$DIMALTF
 40
25.3999999999999986
  9
$DIMLFAC
 40
1.0
  9
$DIMTOFL
 70
     0
  9
$DIMTVP
 40
0.0
  9
$DIMTIX
 70
     0
  9
$DIMSOXD
 70
     0
  9
$DIMSAH
 70
     0
  9
$DIMBLK1
  1

  9
$DIMBLK2
  1

  9
$DIMSTYLE
  2
STANDARD
  9
$DIMCLRD
 70
     0
  9
$DIMCLRE
 70
     0
  9
$DIMCLRT
 70
     0
  9
$DIMTFAC
 40
1.0
  9
$DIMGAP
 40
0.09
  9
$LUNITS
 70
     2
  9
$LUPREC
 70
     4
  9
$SKETCHINC
 40
0.1
  9
$FILLETRAD
 40
0.0
  9
$AUNITS
 70
     0
  9
$AUPREC
 70
     0
  9
$MENU
  1
.
  9
$ELEVATION
 40
0.0
  9
$PELEVATION
 40
0.0
  9
$THICKNESS
 40
0.0
  9
$LIMCHECK
 70
     0
  9
$BLIPMODE
 70
     0
  9
$CHAMFERA
 40
0.0
  9
$CHAMFERB
 40
0.0
  9
$SKPOLY
 70
     0
  9
$TDCREATE
 40
2458060.468368056230247
  9
$TDUPDATE
 40
2459145.6976620368659496
  9
$TDINDWG
 40
0.5410140046
  9
$TDUSRTIMER
 40
0.5410140046
  9
$USRTIMER
 70
     1
  9
$ANGBASE
 50
0.0
  9
$ANGDIR
 70
     0
  9
$PDMODE
 70
     0
  9
$PDSIZE
 40
0.3125
  9
$PLINEWID
 40
0.0
  9
$COORDS
 70
     1
  9
$SPLFRAME
 70
     0
  9
$SPLINETYPE
 70
     6
  9
$SPLINESEGS
 70
     8
  9
$ATTDIA
 70
     1
  9
$ATTREQ
 70
     1
  9
$HANDLING
 70
     1
  9
$HANDSEED
  5
B295
  9
$SURFTAB1
 70
     6
  9
$SURFTAB2
 70
     6
  9
$SURFTYPE
 70
     6
  9
$SURFU
 70
     6
  9
$SURFV
 70
     6
  9
$UCSNAME
  2

  9
$UCSORG
 10
0.0
 20
0.0
 30
0.0
  9
$UCSXDIR
 10
1.0
 20
0.0
 30
0.0
  9
$UCSYDIR
 10
0.0
 20
1.0
 30
0.0
  9
$PUCSNAME
  2

  9
$PUCSORG
 10
0.0
 20
0.0
 30
0.0
  9
$PUCSXDIR
 10
1.0
 20
0.0
 30
0.0
  9
$PUCSYDIR
 10
0.0
 20
1.0
 30
0.0
  9
$USERI1
 70
     0
  9
$USERI2
 70
     0
  9
$USERI3
 70
     0
  9
$USERI4
 70
     0
  9
$USERI5
 70
     0
  9
$USERR1
 40
0.0
  9
$USERR2
 40
0.0
  9
$USERR3
 40
0.0
  9
$USERR4
 40
0.0
  9
$USERR5
 40
0.0
  9
$WORLDVIEW
 70
     1
  9
$SHADEDGE
 70
     3
  9
$SHADEDIF
 70
    70
  9
$TILEMODE
 70
     1
  9
$MAXACTVP
 70
    64
  9
$PLIMCHECK
 70
     0
  9
$PEXTMIN
 10
1.0000000000000000E+20
 20
1.0000000000000000E+20
 30
1.0000000000000000E+20
  9
$PEXTMAX
 10
-1.0000000000000000E+20
 20
-1.0000000000000000E+20
 30
-1.0000000000000000E+20
  9
$PLIMMIN
 10
0.0
 20
0.0
  9
$PLIMMAX
 10
12.0
 20
9.0
  9
$UNITMODE
 70
     0
  9
$VISRETAIN
 70
     1
  9
$PLINEGEN
 70
     0
  9
$PSLTSCALE
 70
     1
  0
ENDSEC
  0
SECTION
  2
TABLES
  0
TABLE
  2
VPORT
 70
     1
  0
VPORT
  2
*ACTIVE
 70
     0
 10
0.0
 20
0.0
 11
1.0
 21
1.0
 12
0.0
 22
0.0
 13
0.0
 23
0.0
 14
1.0
 24
1.0
 15
0.0
 25
0.0
 16
0.0
 26
0.0
 36
19.2693935066339002
 17
3487.5800422411862201
 27
175.3122863769530966
 37
0.0
 40
5.2457037334625953
 41
2.888719512195121
 42
50.0
 43
0.0
 44
0.0
 50
0.0
 51
0.0
 71
     0
 72
   100
 73
     1
 74
     1
 75
     0
 76
     0
 77
     0
 78
     0
  0
ENDTAB
  0
TABLE
  2
LTYPE
 70
     2
  0
LTYPE
  2
CONTINUOUS
 70
     0
  3
Solid line
 72
    65
 73
     0
 40
0.0
  0
LTYPE
  2
PHANTOM2
 70
     0
  3
___ _ _ ___ _ _ ___ _ _ ___ _ _
 72
    65
 73
     6
 40
1.25
 49
0.625
 49
-0.125
 49
0.125
 49
-0.125
 49
0.125
 49
-0.125
  0
ENDTAB
  0
TABLE
  2
LAYER
 70
     2
  0
LAYER
  2
0
 70
     0
 62
   255
  6
CONTINUOUS
  0
LAYER
  2
DEFPOINTS
 70
     0
 62
     7
  6
CONTINUOUS
  0
ENDTAB
  0
TABLE
  2
STYLE
 70
     1
  0
STYLE
  2
STANDARD
 70
     0
 40
0.0
 41
0.8
 50
0.0
 71
     0
 42
0.2
  3
txt
  4

  0
ENDTAB
  0
TABLE
  2
VIEW
 70
     0
  0
ENDTAB
  0
TABLE
  2
UCS
 70
     0
  0
ENDTAB
  0
TABLE
  2
APPID
 70
     9
  0
APPID
  2
ACAD
 70
     0
  0
APPID
  2
ACAD_MLEADERVER
 70
     0
  0
APPID
  2
ACAD_EXEMPT_FROM_CAD_STANDARDS
 70
     0
  0
APPID
  2
ACAD_NAV_VCDISPLAY
 70
     0
  0
APPID
  2
ACAECLAYERSTANDARD
 70
     0
  0
APPID
  2
ACCMTRANSPARENCY
 70
     0
  0
APPID
  2
ACAD_DSTYLE_DIMJAG
 70
     0
  0
APPID
  2
ACAD_DSTYLE_DIMTALN
 70
     0
  0
APPID
  2
ACDBATTR
 70
     0
  0
ENDTAB
  0
TABLE
  2
DIMSTYLE
 70
     1
  0
DIMSTYLE
  2
STANDARD
 70
     0
  3

  4

  5

  6

  7

 40
1.0
 41
0.1875
 42
0.0625
 43
0.38
 44
0.125
 45
0.0
 46
0.0
 47
0.01
 48
0.01
140
0.15625
141
0.09
142
0.0
143
25.3999999999999986
144
1.0
145
0.0
146
1.0
147
0.09
 71
     1
 72
     0
 73
     1
 74
     1
 75
     0
 76
     0
 77
     0
 78
     4
170
     0
171
     2
172
     0
173
     0
174
     0
175
     0
176
     0
177
     0
178
     0
  0
ENDTAB
  0
ENDSEC
  0
SECTION
  2
BLOCKS
  0
BLOCK
  8
0
  2
$MODEL_SPACE
 70
     0
 10
0.0
 20
0.0
 30
0.0
  3
$MODEL_SPACE
  1

  0
ENDBLK
  5
21
  8
0
  0
BLOCK
 67
     1
  8
0
  2
$PAPER_SPACE
 70
     0
 10
0.0
 20
0.0
 30
0.0
  3
$PAPER_SPACE
  1

  0
ENDBLK
  5
1D
 67
     1
  8
0
  0
BLOCK
  8
0
  2
_FILLED
 70
     0
 10
0.0
 20
0.0
 30
0.0
  3
_FILLED
  1

  0
SOLID
  5
A5E5
  8
0
  6
BYBLOCK
 62
     0
 10
0.0
 20
0.0
 30
0.0
 11
-1.0
 21
0.1666666667
 31
0.0
 12
-1.0
 22
-0.1666666667
 32
0.0
 13
-1.0
 23
-0.1666666667
 33
0.0
  0
ENDBLK
  5
A5E6
  8
0
  6
BYBLOCK
 62
     0
  0
ENDSEC
  0
SECTION
  2
ENTITIES
  0
ATTDEF
  5
8DE4
  8
DEFPOINTS
 10
3490.0161170341361867
 20
175.3169945772039
 30
0.0
 40
0.001
  1
K-14440BR
  3

  2
MODELNUMBER
 70
     0
1001
ACDBATTR
1070
     0
1070
     1
  0
ATTDEF
  5
8DE5
  8
DEFPOINTS
 10
3490.0161170341361867
 20
175.3153279105372917
 30
0.0
 40
0.001
  1
PURIST
  3

  2
TRADENAME
 70
     0
1001
ACDBATTR
1070
     0
1070
     1
  0
ATTDEF
  5
8DE6
  8
DEFPOINTS
 10
3490.0161170341361867
 20
175.3136612438705981
 30
0.0
 40
0.001
  1
SHELF
  3

  2
PRODUCT
 70
     0
1001
ACDBATTR
1070
     0
1070
     1
  0
LINE
  5
A924
  8
0
 10
3489.7789810185299757
 20
176.2571688290074974
 30
0.0
 11
3490.0152014909290301
 21
176.2571688290074974
 31
0.0
  0
LINE
  5
A925
  8
0
 10
3489.7789810185299757
 20
174.3674050494074947
 30
0.0
 11
3490.0152014909290301
 21
174.3674050494074947
 31
0.0
  0
LINE
  5
A926
  8
0
 10
3488.0860676327301917
 20
175.6666176479074863
 30
0.0
 11
3489.4651000619578554
 21
175.6666176479074863
 31
0.0
  0
LINE
  5
A927
  8
0
 10
3488.0860676327301917
 20
174.9579562305073921
 30
0.0
 11
3488.2455166615300186
 21
174.9579562305073921
 31
0.0
  0
LINE
  5
A928
  8
0
 10
3488.5565398642288528
 20
174.9579562305073921
 30
0.0
 11
3489.091972640028871
 21
174.9579562305073921
 31
0.0
  0
LINE
  5
A929
  8
0
 10
3489.3242578557287743
 20
174.9579562305073921
 30
0.0
 11
3489.4651030674849608
 21
174.9579562305073921
 31
0.0
  0
LINE
  5
A92A
  8
0
 10
3485.1726818059291872
 20
175.4815782778075004
 30
0.0
 11
3488.7159888925289124
 21
175.4815782778075004
 31
0.0
  0
LINE
  5
A92B
  8
0
 10
3485.1726818059291872
 20
175.1666176479074863
 30
0.0
 11
3488.676618813829009
 21
175.1666176479074863
 31
0.0
  0
LINE
  5
A92C
  8
0
 10
3485.1726818059291872
 20
175.4422081990074958
 30
0.0
 11
3488.676618813829009
 21
175.4422081990074958
 31
0.0
  0
LINE
  5
A92D
  8
0
 10
3485.1726818059291872
 20
175.2059877266073897
 30
0.0
 11
3488.676618813829009
 21
175.2059877266073897
 31
0.0
  0
LINE
  5
A92E
  8
0
 10
3488.0860676327301917
 20
175.1429956006074917
 30
0.0
 11
3488.7159888925289124
 21
175.1429956006074917
 31
0.0
  0
LINE
  5
A92F
  8
0
 10
3488.2779967665292133
 20
175.1469326133075128
 30
0.0
 11
3488.5240597764291124
 21
175.1469326133075128
 31
0.0
  0
LINE
  5
A930
  8
0
 10
3488.263232984329079
 20
174.8910270967074894
 30
0.0
 11
3488.5366539418319007
 21
174.8910270967074894
 31
0.0
  0
ARC
  5
A931
  8
0
 10
3489.7789810185299757
 20
176.2374837896074951
 30
0.0
 40
0.0196850393999979
 50
90.0000000000260485
 51
180.0
  0
LINE
  5
A932
  8
0
 10
3489.7592959791290923
 20
176.2374837896074951
 30
0.0
 11
3489.7592959791290923
 21
174.3870900888074118
 31
0.0
  0
ARC
  5
A933
  8
0
 10
3489.7789810185299757
 20
174.3870900888074971
 30
0.0
 40
0.0196850393999988
 50
180.0000000000098055
 51
270.0
  0
LINE
  5
A934
  8
0
 10
3490.0152014909290301
 20
176.2571688290074974
 30
0.0
 11
3490.0152014909290301
 21
174.3674050494074947
 31
0.0
  0
LINE
  5
A935
  8
0
 10
3485.1726818059291872
 20
175.1666176479074863
 30
0.0
 11
3485.1333117272301934
 21
175.2059877266073897
 31
0.0
  0
LINE
  5
A936
  8
0
 10
3485.1333117272301934
 20
175.2059877266073897
 30
0.0
 11
3485.1333117272301934
 21
175.4422081990074958
 31
0.0
  0
LINE
  5
A937
  8
0
 10
3485.1333117272301934
 20
175.4422081990074958
 30
0.0
 11
3485.1726818059291872
 21
175.4815782778075004
 31
0.0
  0
LINE
  5
A938
  8
0
 10
3485.1529967665301228
 20
175.4618932384074128
 30
0.0
 11
3485.1726818059291872
 21
175.4422081990074958
 31
0.0
  0
LINE
  5
A939
  8
0
 10
3485.1726818059291872
 20
175.4422081990074958
 30
0.0
 11
3485.1726818059291872
 21
175.2059877266073897
 31
0.0
  0
LINE
  5
A93A
  8
0
 10
3485.1726818059291872
 20
175.2059877266073897
 30
0.0
 11
3485.1529967665301228
 21
175.1863026872073874
 31
0.0
  0
LINE
  5
A93B
  8
0
 10
3488.7159888925289124
 20
175.4815782778075004
 30
0.0
 11
3488.7159888925289124
 21
175.1429956006074917
 31
0.0
  0
LINE
  5
A93C
  8
0
 10
3488.676618813829009
 20
175.4815782778075004
 30
0.0
 11
3488.7159888925289124
 21
175.4422081990074958
 31
0.0
  0
LINE
  5
A93D
  8
0
 10
3488.6963038531289385
 20
175.4618932384074128
 30
0.0
 11
3488.676618813829009
 21
175.4422081990074958
 31
0.0
  0
LINE
  5
A93E
  8
0
 10
3488.676618813829009
 20
175.4422081990074958
 30
0.0
 11
3488.676618813829009
 21
175.2059877266073897
 31
0.0
  0
LINE
  5
A93F
  8
0
 10
3488.676618813829009
 20
175.2059877266073897
 30
0.0
 11
3488.6963038531789607
 21
175.1863026872574949
 31
0.0
  0
LINE
  5
A940
  8
0
 10
3488.7159888925289124
 20
175.2059877266073897
 30
0.0
 11
3488.676618813829009
 21
175.1666176479074863
 31
0.0
  0
LINE
  5
A941
  8
0
 10
3488.5043747382292167
 20
175.1666176479074863
 30
0.0
 11
3488.5240597764291124
 21
175.1469326133075128
 31
0.0
  0
LINE
  5
A942
  8
0
 10
3488.5240597764291124
 20
175.1469326133075128
 30
0.0
 11
3488.5240597764291124
 21
175.1429956006074917
 31
0.0
  0
LINE
  5
A943
  8
0
 10
3488.2976817895291788
 20
175.1666176504074883
 30
0.0
 11
3488.2779967665292133
 21
175.1469326133075128
 31
0.0
  0
LINE
  5
A944
  8
0
 10
3488.2779967665292133
 20
175.1469326133075128
 30
0.0
 11
3488.2779967665292133
 21
175.1429956006074917
 31
0.0
  0
LINE
  5
A945
  8
0
 10
3488.0860676327301917
 20
174.9579562305073921
 30
0.0
 11
3488.0860676327301917
 21
175.1429956006074917
 31
0.0
  0
LINE
  5
A946
  8
0
 10
3488.0860676327301917
 20
175.4815782778075004
 30
0.0
 11
3488.0860676327301917
 21
175.6666176479074863
 31
0.0
  0
ARC
  5
A947
  8
0
 10
3489.1845058661288022
 20
174.5248853644073961
 30
0.0
 40
0.5905511811002122
 50
13.2669881342993303
 51
27.4435976910356594
  0
ARC
  5
A948
  8
0
 10
3489.4640203886187919
 20
174.6700467577769871
 30
0.0
 40
0.275590551231083
 50
27.4426965563145586
 51
86.1774463948190288
  0
ARC
  5
A949
  8
0
 10
3489.4838495805020102
 20
174.9649958489609958
 30
0.0
 40
0.0200246842238259
 50
188.0126030872800129
 51
265.8289263720150188
  0
LINE
  5
A94A
  8
0
 10
3489.4640203886287964
 20
175.6623692886560946
 30
0.0
 11
3489.4640203886287964
 21
174.9622045897588123
 31
0.0
  0
ARC
  5
A94B
  8
0
 10
3489.4837996897799712
 20
175.659603972021813
 30
0.0
 40
0.019971673192502
 50
94.0386664028828676
 51
172.0411448332851023
  0
ARC
  5
A94C
  8
0
 10
3489.4639500515909276
 20
175.9545907351420908
 30
0.0
 40
0.2756822925971842
 50
273.8359306744666242
 51
332.5506179355309087
  0
ARC
  5
A94D
  8
0
 10
3489.1845058626458922
 20
176.0996885150572098
 30
0.0
 40
0.5905511847308565
 50
332.5556138610970152
 51
346.7330118442177991
  0
ARC
  5
A94E
  8
0
 10
3489.20811524787905
 20
174.6588809702180924
 30
0.0
 40
0.320835030312106
 50
68.7768636021193913
 51
111.2231363978805945
  0
ARC
  5
A94F
  8
0
 10
3488.4010282628801178
 20
174.6762839268762946
 30
0.0
 40
0.321750127874641
 50
61.0968608294835889
 51
118.9031391705156011
  0
LINE
  5
A950
  8
0
 10
3488.5563416704871997
 20
174.9580655625530028
 30
0.0
 11
3488.5325038225291792
 21
174.9442622109075103
 31
0.0
  0
ARC
  5
A951
  8
0
 10
3488.5360113336860195
 20
174.9398420299760062
 30
0.0
 40
0.0056427505687299
 50
128.4327764133848007
 51
231.856440981041402
  0
LINE
  5
A952
  8
0
 10
3488.5325261793009304
 20
174.9354042002086089
 30
0.0
 11
3488.5581221079291936
 21
174.9205842846074859
 31
0.0
  0
LINE
  5
A953
  8
0
 10
3488.5581221079291936
 20
174.9205842846074859
 30
0.0
 11
3488.558505067329861
 21
174.920139320107495
 31
0.0
  0
LINE
  5
A954
  8
0
 10
3488.558505067329861
 20
174.920139320107495
 30
0.0
 11
3488.5581106845288559
 21
174.9196985253074956
 31
0.0
  0
LINE
  5
A955
  8
0
 10
3488.5581106845288559
 20
174.9196985253074956
 30
0.0
 11
3488.5324821110789344
 21
174.9049269984074897
 31
0.0
  0
ARC
  5
A956
  8
0
 10
3488.5359835001668216
 20
174.9004907144143885
 30
0.0
 40
0.0056515786477485
 50
128.2826804424692
 51
233.9400708737576053
  0
LINE
  5
A957
  8
0
 10
3488.5326568050390961
 20
174.8959219683353865
 30
0.0
 11
3488.5394032171288927
 21
174.89201299050751
 31
0.0
  0
LINE
  5
A958
  8
0
 10
3488.5394032171288927
 20
174.89201299050751
 30
0.0
 11
3488.5395052576291164
 21
174.8917204382073862
 31
0.0
  0
ARC
  5
A959
  8
0
 10
3488.5358402480051154
 20
174.9005829363158
 30
0.0
 40
0.0095904206510051
 50
274.867079368363477
 51
292.4671186973191084
  0
LINE
  5
A95A
  8
0
 10
3488.2637720495617941
 20
174.96728886960571
 30
0.0
 11
3488.2695285442391651
 21
174.9639545993850902
 31
0.0
  0
ARC
  5
A95B
  8
0
 10
3488.2659653588129913
 20
174.9595042894144115
 30
0.0
 40
0.0057010129987494
 50
310.6137918041508783
 51
51.3171391940240014
  0
LINE
  5
A95C
  8
0
 10
3488.2696764729289498
 20
174.9551765670074985
 30
0.0
 11
3488.2440831664021061
 21
174.9403545719480917
 31
0.0
  0
LINE
  5
A95D
  8
0
 10
3488.2440831664021061
 20
174.9403545719480917
 30
0.0
 11
3488.2435508034291161
 21
174.9398353849074113
 31
0.0
  0
LINE
  5
A95E
  8
0
 10
3488.2435508034291161
 20
174.9398353849074113
 30
0.0
 11
3488.2439402512291053
 21
174.9393895913073891
 31
0.0
  0
LINE
  5
A95F
  8
0
 10
3488.2439402512291053
 20
174.9393895913073891
 30
0.0
 11
3488.2696917020789442
 21
174.9246043274573879
 31
0.0
  0
ARC
  5
A960
  8
0
 10
3488.2663182123801562
 20
174.9201846900604949
 30
0.0
 40
0.0055600024704527
 50
308.4858092259188993
 51
52.6456659157782525
  0
LINE
  5
A961
  8
0
 10
3488.2697783174789947
 20
174.9158325296575072
 30
0.0
 11
3488.250155087829171
 21
174.904467661707514
 31
0.0
  0
LINE
  5
A962
  8
0
 10
3488.250155087829171
 20
174.904467661707514
 30
0.0
 11
3488.2500698894291418
 21
174.9041945661074919
 31
0.0
  0
LINE
  5
A963
  8
0
 10
3488.2500698894291418
 20
174.9041945661074919
 30
0.0
 11
3488.263232984329079
 21
174.8910270967074894
 31
0.0
  0
LINE
  5
A964
  8
0
 10
3488.5563416704871997
 20
174.9580655625530028
 30
0.0
 11
3488.2439402512291053
 21
174.9393895913073891
 31
0.0
  0
LINE
  5
A965
  8
0
 10
3488.5581106845288559
 20
174.9196985253074956
 30
0.0
 11
3488.2501912345878736
 21
174.9044885962393892
 31
0.0
  0
LINE
  5
A966
  8
0
 10
3488.5303720930460258
 20
174.9396430350520006
 30
0.0
 11
3488.2718730928809237
 21
174.9204232903308025
 31
0.0
  0
LINE
  5
A967
  8
0
 10
3488.5304070145461992
 20
174.9014089460457058
 30
0.0
 11
3488.3140474773290407
 21
174.8910495184074989
 31
0.0
  0
LINE
  5
A968
  8
0
 10
3488.2699633522220211
 20
174.9554401046354997
 30
0.0
 11
3488.5272847019327855
 21
174.9722272599400128
 31
0.0
  0
ENDSEC
  0
EOF
