  0
SECTION
  2
HEADER
  9
$ACADVER
  1
AC1009
  9
$INSBASE
 10
3466.5304721754860111
 20
165.0402872915672958
 30
0.0
  9
$EXTMIN
 10
3455.270629655835819
 20
160.1583975277673062
 30
0.0
  9
$EXTMAX
 10
3477.7903146951362032
 20
165.0424072828299131
 30
0.0
  9
$LIMMIN
 10
0.0
 20
0.0
  9
$LIMMAX
 10
11.6929133858000007
 20
8.2677165353999982
  9
$ORTHOMODE
 70
     0
  9
$REGENMODE
 70
     1
  9
$FILLMODE
 70
     1
  9
$QTEXTMODE
 70
     0
  9
$MIRRTEXT
 70
     0
  9
$DRAGMODE
 70
     2
  9
$LTSCALE
 40
0.6431102362
  9
$OSMODE
 70
  4095
  9
$ATTMODE
 70
     1
  9
$TEXTSIZE
 40
0.2
  9
$TRACEWID
 40
0.05
  9
$TEXTSTYLE
  7
STANDARD
  9
$CLAYER
  8
0
  9
$CELTYPE
  6
BYLAYER
  9
$CECOLOR
 62
   256
  9
$DIMSCALE
 40
1.0
  9
$DIMASZ
 40
0.1875
  9
$DIMEXO
 40
0.0625
  9
$DIMDLI
 40
0.4443307087
  9
$DIMRND
 40
0.0
  9
$DIMDLE
 40
0.0
  9
$DIMEXE
 40
0.125
  9
$DIMTP
 40
0.01
  9
$DIMTM
 40
0.01
  9
$DIMTXT
 40
2.0
  9
$DIMCEN
 40
0.1052362205
  9
$DIMTSZ
 40
0.0
  9
$DIMTOL
 70
     1
  9
$DIMLIM
 70
     0
  9
$DIMTIH
 70
     1
  9
$DIMTOH
 70
     1
  9
$DIMSE1
 70
     0
  9
$DIMSE2
 70
     0
  9
$DIMTAD
 70
     0
  9
$DIMZIN
 70
     0
  9
$DIMBLK
  1

  9
$DIMASO
 70
     1
  9
$DIMSHO
 70
     1
  9
$DIMPOST
  1
\X
  9
$DIMAPOST
  1

  9
$DIMALT
 70
     1
  9
$DIMALTD
 70
     2
  9
$DIMALTF
 40
25.3999999999999986
  9
$DIMLFAC
 40
1.0
  9
$DIMTOFL
 70
     0
  9
$DIMTVP
 40
0.0
  9
$DIMTIX
 70
     0
  9
$DIMSOXD
 70
     0
  9
$DIMSAH
 70
     0
  9
$DIMBLK1
  1

  9
$DIMBLK2
  1

  9
$DIMSTYLE
  2
STANDARD
  9
$DIMCLRD
 70
     0
  9
$DIMCLRE
 70
     0
  9
$DIMCLRT
 70
     0
  9
$DIMTFAC
 40
1.0
  9
$DIMGAP
 40
0.09
  9
$LUNITS
 70
     2
  9
$LUPREC
 70
     4
  9
$SKETCHINC
 40
0.1
  9
$FILLETRAD
 40
0.0
  9
$AUNITS
 70
     0
  9
$AUPREC
 70
     0
  9
$MENU
  1
.
  9
$ELEVATION
 40
0.0
  9
$PELEVATION
 40
0.0
  9
$THICKNESS
 40
0.0
  9
$LIMCHECK
 70
     0
  9
$BLIPMODE
 70
     0
  9
$CHAMFERA
 40
0.0
  9
$CHAMFERB
 40
0.0
  9
$SKPOLY
 70
     0
  9
$TDCREATE
 40
2458060.468368056230247
  9
$TDUPDATE
 40
2459145.6978240739554167
  9
$TDINDWG
 40
0.5439538194
  9
$TDUSRTIMER
 40
0.5439538194
  9
$USRTIMER
 70
     1
  9
$ANGBASE
 50
0.0
  9
$ANGDIR
 70
     0
  9
$PDMODE
 70
     0
  9
$PDSIZE
 40
0.3125
  9
$PLINEWID
 40
0.0
  9
$COORDS
 70
     1
  9
$SPLFRAME
 70
     0
  9
$SPLINETYPE
 70
     6
  9
$SPLINESEGS
 70
     8
  9
$ATTDIA
 70
     1
  9
$ATTREQ
 70
     1
  9
$HANDLING
 70
     1
  9
$HANDSEED
  5
B23D
  9
$SURFTAB1
 70
     6
  9
$SURFTAB2
 70
     6
  9
$SURFTYPE
 70
     6
  9
$SURFU
 70
     6
  9
$SURFV
 70
     6
  9
$UCSNAME
  2

  9
$UCSORG
 10
0.0
 20
0.0
 30
0.0
  9
$UCSXDIR
 10
1.0
 20
0.0
 30
0.0
  9
$UCSYDIR
 10
0.0
 20
1.0
 30
0.0
  9
$PUCSNAME
  2

  9
$PUCSORG
 10
0.0
 20
0.0
 30
0.0
  9
$PUCSXDIR
 10
1.0
 20
0.0
 30
0.0
  9
$PUCSYDIR
 10
0.0
 20
1.0
 30
0.0
  9
$USERI1
 70
     0
  9
$USERI2
 70
     0
  9
$USERI3
 70
     0
  9
$USERI4
 70
     0
  9
$USERI5
 70
     0
  9
$USERR1
 40
0.0
  9
$USERR2
 40
0.0
  9
$USERR3
 40
0.0
  9
$USERR4
 40
0.0
  9
$USERR5
 40
0.0
  9
$WORLDVIEW
 70
     1
  9
$SHADEDGE
 70
     3
  9
$SHADEDIF
 70
    70
  9
$TILEMODE
 70
     1
  9
$MAXACTVP
 70
    64
  9
$PLIMCHECK
 70
     0
  9
$PEXTMIN
 10
1.0000000000000000E+20
 20
1.0000000000000000E+20
 30
1.0000000000000000E+20
  9
$PEXTMAX
 10
-1.0000000000000000E+20
 20
-1.0000000000000000E+20
 30
-1.0000000000000000E+20
  9
$PLIMMIN
 10
0.0
 20
0.0
  9
$PLIMMAX
 10
12.0
 20
9.0
  9
$UNITMODE
 70
     0
  9
$VISRETAIN
 70
     1
  9
$PLINEGEN
 70
     0
  9
$PSLTSCALE
 70
     1
  0
ENDSEC
  0
SECTION
  2
TABLES
  0
TABLE
  2
VPORT
 70
     1
  0
VPORT
  2
*ACTIVE
 70
     0
 10
0.0
 20
0.0
 11
1.0
 21
1.0
 12
0.0
 22
0.0
 13
0.0
 23
0.0
 14
1.0
 24
1.0
 15
0.0
 25
0.0
 16
0.0
 26
0.0
 36
84.6465009632860443
 17
3466.5303955078120453
 27
162.600404386043806
 37
0.0
 40
23.0433026329960811
 41
2.888719512195121
 42
50.0
 43
0.0
 44
0.0
 50
0.0
 51
0.0
 71
     0
 72
   100
 73
     1
 74
     1
 75
     0
 76
     0
 77
     0
 78
     0
  0
ENDTAB
  0
TABLE
  2
LTYPE
 70
     2
  0
LTYPE
  2
CONTINUOUS
 70
     0
  3
Solid line
 72
    65
 73
     0
 40
0.0
  0
LTYPE
  2
PHANTOM2
 70
     0
  3
___ _ _ ___ _ _ ___ _ _ ___ _ _
 72
    65
 73
     6
 40
1.25
 49
0.625
 49
-0.125
 49
0.125
 49
-0.125
 49
0.125
 49
-0.125
  0
ENDTAB
  0
TABLE
  2
LAYER
 70
     2
  0
LAYER
  2
0
 70
     0
 62
   255
  6
CONTINUOUS
  0
LAYER
  2
DEFPOINTS
 70
     0
 62
     7
  6
CONTINUOUS
  0
ENDTAB
  0
TABLE
  2
STYLE
 70
     1
  0
STYLE
  2
STANDARD
 70
     0
 40
0.0
 41
0.8
 50
0.0
 71
     0
 42
0.2
  3
txt
  4

  0
ENDTAB
  0
TABLE
  2
VIEW
 70
     0
  0
ENDTAB
  0
TABLE
  2
UCS
 70
     0
  0
ENDTAB
  0
TABLE
  2
APPID
 70
     9
  0
APPID
  2
ACAD
 70
     0
  0
APPID
  2
ACAD_MLEADERVER
 70
     0
  0
APPID
  2
ACAD_EXEMPT_FROM_CAD_STANDARDS
 70
     0
  0
APPID
  2
ACAD_NAV_VCDISPLAY
 70
     0
  0
APPID
  2
ACAECLAYERSTANDARD
 70
     0
  0
APPID
  2
ACCMTRANSPARENCY
 70
     0
  0
APPID
  2
ACAD_DSTYLE_DIMJAG
 70
     0
  0
APPID
  2
ACAD_DSTYLE_DIMTALN
 70
     0
  0
APPID
  2
ACDBATTR
 70
     0
  0
ENDTAB
  0
TABLE
  2
DIMSTYLE
 70
     1
  0
DIMSTYLE
  2
STANDARD
 70
     0
  3

  4

  5

  6

  7

 40
1.0
 41
0.1875
 42
0.0625
 43
0.38
 44
0.125
 45
0.0
 46
0.0
 47
0.01
 48
0.01
140
0.15625
141
0.09
142
0.0
143
25.3999999999999986
144
1.0
145
0.0
146
1.0
147
0.09
 71
     1
 72
     0
 73
     1
 74
     1
 75
     0
 76
     0
 77
     0
 78
     4
170
     0
171
     2
172
     0
173
     0
174
     0
175
     0
176
     0
177
     0
178
     0
  0
ENDTAB
  0
ENDSEC
  0
SECTION
  2
BLOCKS
  0
BLOCK
  8
0
  2
$MODEL_SPACE
 70
     0
 10
0.0
 20
0.0
 30
0.0
  3
$MODEL_SPACE
  1

  0
ENDBLK
  5
21
  8
0
  0
BLOCK
 67
     1
  8
0
  2
$PAPER_SPACE
 70
     0
 10
0.0
 20
0.0
 30
0.0
  3
$PAPER_SPACE
  1

  0
ENDBLK
  5
1D
 67
     1
  8
0
  0
BLOCK
  8
0
  2
_FILLED
 70
     0
 10
0.0
 20
0.0
 30
0.0
  3
_FILLED
  1

  0
SOLID
  5
A110
  8
0
  6
BYBLOCK
 62
     0
 10
0.0
 20
0.0
 30
0.0
 11
-1.0
 21
0.1666666667
 31
0.0
 12
-1.0
 22
-0.1666666667
 32
0.0
 13
-1.0
 23
-0.1666666667
 33
0.0
  0
ENDBLK
  5
A111
  8
0
  6
BYBLOCK
 62
     0
  0
ENDSEC
  0
SECTION
  2
ENTITIES
  0
ATTDEF
  5
8DE4
  8
DEFPOINTS
 10
3466.5325961206358443
 20
165.0414072828297947
 30
0.0
 40
0.001
  1
K-14440BR
  3

  2
MODELNUMBER
 70
     0
1001
ACDBATTR
1070
     0
1070
     1
  0
ATTDEF
  5
8DE5
  8
DEFPOINTS
 10
3466.5325961206358443
 20
165.0397406161631011
 30
0.0
 40
0.001
  1
PURIST
  3

  2
TRADENAME
 70
     0
1001
ACDBATTR
1070
     0
1070
     1
  0
ATTDEF
  5
8DE6
  8
DEFPOINTS
 10
3466.5325961206358443
 20
165.0380739494964075
 30
0.0
 40
0.001
  1
SHELF
  3

  2
PRODUCT
 70
     0
1001
ACDBATTR
1070
     0
1070
     1
  0
LINE
  5
AC25
  8
0
 10
3476.7273225692360938
 20
164.8040382658182921
 30
0.0
 11
3476.7273225692360938
 21
165.0402872915672958
 31
0.0
  0
LINE
  5
AC26
  8
0
 10
3474.8375587896362049
 20
164.8040668190672875
 30
0.0
 11
3474.8375587896362049
 21
165.0402872915672958
 31
0.0
  0
LINE
  5
AC27
  8
0
 10
3475.4281099707359317
 20
163.7410746931672918
 30
0.0
 11
3475.4281099707359317
 21
164.4901888680446973
 31
0.0
  0
LINE
  5
AC28
  8
0
 10
3476.1367713881359123
 20
163.7410746931672918
 30
0.0
 11
3476.1367713881359123
 21
164.4901888680622051
 31
0.0
  0
LINE
  5
AC29
  8
0
 10
3458.2233855613358173
 20
164.8040668102919142
 30
0.0
 11
3458.2233855613358173
 21
165.0402872915672958
 31
0.0
  0
LINE
  5
AC2A
  8
0
 10
3456.3336217817359284
 20
164.804066812819201
 30
0.0
 11
3456.3336217817359284
 21
165.0402872915672958
 31
0.0
  0
LINE
  5
AC2B
  8
0
 10
3456.9241729628361099
 20
163.7410746931672918
 30
0.0
 11
3456.9241729628361099
 21
164.4901888680645925
 31
0.0
  0
LINE
  5
AC2C
  8
0
 10
3457.6328343802360905
 20
163.7410746931672918
 30
0.0
 11
3457.6328343802360905
 21
164.490188425821799
 31
0.0
  0
LINE
  5
AC2D
  8
0
 10
3477.7903146951362032
 20
160.1977676064672949
 30
0.0
 11
3477.7903146951362032
 21
163.7017046143672871
 31
0.0
  0
LINE
  5
AC2E
  8
0
 10
3455.270629655835819
 20
160.1977676064672949
 30
0.0
 11
3455.270629655835819
 21
163.7017046143672871
 31
0.0
  0
LINE
  5
AC2F
  8
0
 10
3477.7903146951362032
 20
160.1977676064672949
 30
0.0
 11
3477.7509446164358451
 21
160.1583975277673062
 31
0.0
  0
LINE
  5
AC30
  8
0
 10
3477.7509446164358451
 20
160.1583975277673062
 30
0.0
 11
3455.3099997345361771
 21
160.1583975277673062
 31
0.0
  0
LINE
  5
AC31
  8
0
 10
3455.3099997345361771
 20
160.1583975277673062
 30
0.0
 11
3455.270629655835819
 21
160.1977676064672949
 31
0.0
  0
LINE
  5
AC32
  8
0
 10
3455.270629655835819
 20
163.7017046143672871
 30
0.0
 11
3455.3099997345361771
 21
163.7410746931672918
 31
0.0
  0
LINE
  5
AC33
  8
0
 10
3455.3099997345361771
 20
163.7410746931672918
 30
0.0
 11
3475.4711679794349948
 21
163.7410746931672918
 31
0.0
  0
LINE
  5
AC34
  8
0
 10
3476.0937133794359397
 20
163.7410746931672918
 30
0.0
 11
3477.7509446164358451
 21
163.7410746931672918
 31
0.0
  0
LINE
  5
AC35
  8
0
 10
3477.7509446164358451
 20
163.7410746931672918
 30
0.0
 11
3477.7903146951362032
 21
163.7017046143672871
 31
0.0
  0
LINE
  5
AC36
  8
0
 10
3474.8375587896362049
 20
165.0402872915672958
 30
0.0
 11
3476.7273225692360938
 21
165.0402872915672958
 31
0.0
  0
LINE
  5
AC37
  8
0
 10
3458.2233855613358173
 20
165.0402872915672958
 30
0.0
 11
3456.3336217817359284
 21
165.0402872915672958
 31
0.0
  0
ARC
  5
AC38
  8
0
 10
3474.8572438290361788
 20
164.8040668190672875
 30
0.0
 40
0.0196850394000006
 50
180.0000000000098055
 51
270.0
  0
LINE
  5
AC39
  8
0
 10
3458.2037005219372077
 20
164.7843817797673012
 30
0.0
 11
3456.3523461870381652
 21
164.7843817797673012
 31
0.0
  0
LINE
  5
AC3A
  8
0
 10
3474.8572438290361788
 20
164.7843817797673012
 30
0.0
 11
3476.7076375151568755
 21
164.7843817797673012
 31
0.0
  0
ARC
  5
AC3B
  8
0
 10
3476.707637515326951
 20
164.8040668544354048
 30
0.0
 40
0.019685074668061
 50
269.9999995025560224
 51
359.9167893616237279
  0
ARC
  5
AC3C
  8
0
 10
3474.9950391937200038
 20
164.2095919072584991
 30
0.0
 40
0.5905509265833641
 50
62.5556095249445576
 51
76.7330149234836512
  0
ARC
  5
AC3D
  8
0
 10
3475.1402004839578694
 20
164.4891061799814054
 30
0.0
 40
0.2755905658406978
 50
3.8225553121250542
 51
62.5556095249445576
  0
ARC
  5
AC3E
  8
0
 10
3475.43514958932019
 20
164.5089353811831927
 30
0.0
 40
0.0200246843838008
 50
184.1710740330044871
 51
261.9873965986612916
  0
LINE
  5
AC3F
  8
0
 10
3475.4323583299869824
 20
164.4891061891673019
 30
0.0
 11
3476.1325230288848616
 21
164.4891061891673019
 31
0.0
  0
ARC
  5
AC40
  8
0
 10
3476.5698422542359367
 20
164.2095916667672952
 30
0.0
 40
0.5905511811000376
 50
103.2134434278906951
 51
117.4443823756370051
  0
ARC
  5
AC41
  8
0
 10
3476.4246808609618711
 20
164.4891061891254083
 30
0.0
 40
0.2755905513277329
 50
117.4443780281544036
 51
176.1774463915631941
  0
ARC
  5
AC42
  8
0
 10
3476.1297317694570665
 20
164.5089353812512059
 30
0.0
 40
0.0200246844642324
 50
278.0126036422252014
 51
355.8289257889485953
  0
LINE
  5
AC43
  8
0
 10
3476.0937133794359397
 20
163.1111534332673045
 30
0.0
 11
3475.4711679794349948
 21
163.1111534332673045
 31
0.0
  0
LINE
  5
AC44
  8
0
 10
3457.5897763715361179
 20
163.1111534332673045
 30
0.0
 11
3456.9672309715360825
 21
163.1111534332673045
 31
0.0
  0
LINE
  5
AC45
  8
0
 10
3476.0937133794359397
 20
163.1111534332673045
 30
0.0
 11
3476.0937133794359397
 21
163.7410746931672918
 31
0.0
  0
LINE
  5
AC46
  8
0
 10
3475.4711679794349948
 20
163.1111534332673045
 30
0.0
 11
3475.4711679794349948
 21
163.7410746931672918
 31
0.0
  0
ARC
  5
AC47
  8
0
 10
3456.3533504711867863
 20
164.8040848995185002
 30
0.0
 40
0.0197286977417175
 50
180.0525271261853106
 51
267.0821123639104258
  0
ARC
  5
AC48
  8
0
 10
3458.2037451081628205
 20
164.8040222328203015
 30
0.0
 40
0.0196405037611069
 50
269.8699318072831943
 51
0.1300426507690655
  0
LINE
  5
AC49
  8
0
 10
3457.6285860209841303
 20
164.4891061891673019
 30
0.0
 11
3456.9284213220880702
 21
164.4891061891673019
 31
0.0
  0
ARC
  5
AC4A
  8
0
 10
3457.6257970115470926
 20
164.508934209417788
 30
0.0
 40
0.0200232105492426
 50
278.006695623235828
 51
356.7584335617526108
  0
ARC
  5
AC4B
  8
0
 10
3457.9207438529360843
 20
164.4891061891673019
 30
0.0
 40
0.2755905511999947
 50
117.4443861963631974
 51
176.1101233066690099
  0
ARC
  5
AC4C
  8
0
 10
3458.0659052457199323
 20
164.209591668811612
 30
0.0
 40
0.5905511789690401
 50
103.2134434150437983
 51
117.4443862347339973
  0
ARC
  5
AC4D
  8
0
 10
3456.4911020967360855
 20
164.2095916667674089
 30
0.0
 40
0.5905511810999404
 50
62.5556138061664981
 51
76.7865565721093049
  0
ARC
  5
AC4E
  8
0
 10
3456.6362634900610828
 20
164.489106189181598
 30
0.0
 40
0.2755905512543632
 50
3.8225535977374818
 51
62.5556137940073285
  0
ARC
  5
AC4F
  8
0
 10
3456.9312125815358741
 20
164.5089353812911099
 30
0.0
 40
0.0200246845067128
 50
184.1710743168540887
 51
261.9873963148075973
  0
LINE
  5
AC50
  8
0
 10
3457.5897763715361179
 20
163.1111534332673045
 30
0.0
 11
3457.5897763715361179
 21
163.7410746931672918
 31
0.0
  0
LINE
  5
AC51
  8
0
 10
3456.9672309715360825
 20
163.1111534332673045
 30
0.0
 11
3456.9672309715360825
 21
163.7410746931672918
 31
0.0
  0
LINE
  5
AC52
  8
0
 10
3455.3099997345361771
 20
163.7017046143672871
 30
0.0
 11
3456.9672309715360825
 21
163.7017046143672871
 31
0.0
  0
LINE
  5
AC53
  8
0
 10
3457.5897763715361179
 20
163.7017046143672871
 30
0.0
 11
3475.4711679794349948
 21
163.7017046143672871
 31
0.0
  0
LINE
  5
AC54
  8
0
 10
3476.0937133794359397
 20
163.7017046143672871
 30
0.0
 11
3477.7509446164358451
 21
163.7017046143672871
 31
0.0
  0
LINE
  5
AC55
  8
0
 10
3477.7509446164358451
 20
160.1977676064672949
 30
0.0
 11
3455.3099997345361771
 21
160.1977676064672949
 31
0.0
  0
LINE
  5
AC56
  8
0
 10
3477.7509446164358451
 20
163.7017046143672871
 30
0.0
 11
3477.7509446164358451
 21
160.1977676064672949
 31
0.0
  0
LINE
  5
AC57
  8
0
 10
3455.3099997345361771
 20
160.1977676064672949
 30
0.0
 11
3455.3099997345361771
 21
163.7017046143672871
 31
0.0
  0
LINE
  5
AC58
  8
0
 10
3455.3099997345361771
 20
163.7017046143672871
 30
0.0
 11
3455.2903146951862254
 21
163.7213896537672895
 31
0.0
  0
LINE
  5
AC59
  8
0
 10
3477.7509446164358451
 20
163.7017046143672871
 30
0.0
 11
3477.770629655835819
 21
163.7213896537172957
 31
0.0
  0
LINE
  5
AC5A
  8
0
 10
3477.7509446164358451
 20
160.1977676064672949
 30
0.0
 11
3477.770629655835819
 21
160.1780825671673085
 31
0.0
  0
LINE
  5
AC5B
  8
0
 10
3455.3099997345361771
 20
160.1977676064672949
 30
0.0
 11
3455.2903146951862254
 21
160.1780825671172863
 31
0.0
  0
ENDSEC
  0
EOF
