  0
SECTION
  2
HEADER
  9
$ACADVER
  1
AC1009
  9
$INSBASE
 10
3474.401617252845881
 20
166.3487779406744949
 30
0.0
  9
$EXTMIN
 10
3463.1417747331961436
 20
165.4038960508744935
 30
0.0
  9
$EXTMAX
 10
3485.6614597724960731
 20
167.2936598304744962
 30
0.0
  9
$LIMMIN
 10
0.0
 20
0.0
  9
$LIMMAX
 10
11.6929133858000007
 20
8.2677165353999982
  9
$ORTHOMODE
 70
     0
  9
$REGENMODE
 70
     1
  9
$FILLMODE
 70
     1
  9
$QTEXTMODE
 70
     0
  9
$MIRRTEXT
 70
     0
  9
$DRAGMODE
 70
     2
  9
$LTSCALE
 40
0.6431102362
  9
$OSMODE
 70
  4095
  9
$ATTMODE
 70
     1
  9
$TEXTSIZE
 40
0.2
  9
$TRACEWID
 40
0.05
  9
$TEXTSTYLE
  7
STANDARD
  9
$CLAYER
  8
0
  9
$CELTYPE
  6
BYLAYER
  9
$CECOLOR
 62
   256
  9
$DIMSCALE
 40
1.0
  9
$DIMASZ
 40
0.1875
  9
$DIMEXO
 40
0.0625
  9
$DIMDLI
 40
0.4443307087
  9
$DIMRND
 40
0.0
  9
$DIMDLE
 40
0.0
  9
$DIMEXE
 40
0.125
  9
$DIMTP
 40
0.01
  9
$DIMTM
 40
0.01
  9
$DIMTXT
 40
2.0
  9
$DIMCEN
 40
0.1052362205
  9
$DIMTSZ
 40
0.0
  9
$DIMTOL
 70
     1
  9
$DIMLIM
 70
     0
  9
$DIMTIH
 70
     1
  9
$DIMTOH
 70
     1
  9
$DIMSE1
 70
     0
  9
$DIMSE2
 70
     0
  9
$DIMTAD
 70
     0
  9
$DIMZIN
 70
     0
  9
$DIMBLK
  1

  9
$DIMASO
 70
     1
  9
$DIMSHO
 70
     1
  9
$DIMPOST
  1
\X
  9
$DIMAPOST
  1

  9
$DIMALT
 70
     1
  9
$DIMALTD
 70
     2
  9
$DIMALTF
 40
25.3999999999999986
  9
$DIMLFAC
 40
1.0
  9
$DIMTOFL
 70
     0
  9
$DIMTVP
 40
0.0
  9
$DIMTIX
 70
     0
  9
$DIMSOXD
 70
     0
  9
$DIMSAH
 70
     0
  9
$DIMBLK1
  1

  9
$DIMBLK2
  1

  9
$DIMSTYLE
  2
STANDARD
  9
$DIMCLRD
 70
     0
  9
$DIMCLRE
 70
     0
  9
$DIMCLRT
 70
     0
  9
$DIMTFAC
 40
1.0
  9
$DIMGAP
 40
0.09
  9
$LUNITS
 70
     2
  9
$LUPREC
 70
     4
  9
$SKETCHINC
 40
0.1
  9
$FILLETRAD
 40
0.0
  9
$AUNITS
 70
     0
  9
$AUPREC
 70
     0
  9
$MENU
  1
.
  9
$ELEVATION
 40
0.0
  9
$PELEVATION
 40
0.0
  9
$THICKNESS
 40
0.0
  9
$LIMCHECK
 70
     0
  9
$BLIPMODE
 70
     0
  9
$CHAMFERA
 40
0.0
  9
$CHAMFERB
 40
0.0
  9
$SKPOLY
 70
     0
  9
$TDCREATE
 40
2458060.468368056230247
  9
$TDUPDATE
 40
2459145.6977314809337258
  9
$TDINDWG
 40
0.5440116898
  9
$TDUSRTIMER
 40
0.5440116898
  9
$USRTIMER
 70
     1
  9
$ANGBASE
 50
0.0
  9
$ANGDIR
 70
     0
  9
$PDMODE
 70
     0
  9
$PDSIZE
 40
0.3125
  9
$PLINEWID
 40
0.0
  9
$COORDS
 70
     1
  9
$SPLFRAME
 70
     0
  9
$SPLINETYPE
 70
     6
  9
$SPLINESEGS
 70
     8
  9
$ATTDIA
 70
     1
  9
$ATTREQ
 70
     1
  9
$HANDLING
 70
     1
  9
$HANDSEED
  5
B248
  9
$SURFTAB1
 70
     6
  9
$SURFTAB2
 70
     6
  9
$SURFTYPE
 70
     6
  9
$SURFU
 70
     6
  9
$SURFV
 70
     6
  9
$UCSNAME
  2

  9
$UCSORG
 10
0.0
 20
0.0
 30
0.0
  9
$UCSXDIR
 10
1.0
 20
0.0
 30
0.0
  9
$UCSYDIR
 10
0.0
 20
1.0
 30
0.0
  9
$PUCSNAME
  2

  9
$PUCSORG
 10
0.0
 20
0.0
 30
0.0
  9
$PUCSXDIR
 10
1.0
 20
0.0
 30
0.0
  9
$PUCSYDIR
 10
0.0
 20
1.0
 30
0.0
  9
$USERI1
 70
     0
  9
$USERI2
 70
     0
  9
$USERI3
 70
     0
  9
$USERI4
 70
     0
  9
$USERI5
 70
     0
  9
$USERR1
 40
0.0
  9
$USERR2
 40
0.0
  9
$USERR3
 40
0.0
  9
$USERR4
 40
0.0
  9
$USERR5
 40
0.0
  9
$WORLDVIEW
 70
     1
  9
$SHADEDGE
 70
     3
  9
$SHADEDIF
 70
    70
  9
$TILEMODE
 70
     1
  9
$MAXACTVP
 70
    64
  9
$PLIMCHECK
 70
     0
  9
$PEXTMIN
 10
1.0000000000000000E+20
 20
1.0000000000000000E+20
 30
1.0000000000000000E+20
  9
$PEXTMAX
 10
-1.0000000000000000E+20
 20
-1.0000000000000000E+20
 30
-1.0000000000000000E+20
  9
$PLIMMIN
 10
0.0
 20
0.0
  9
$PLIMMAX
 10
12.0
 20
9.0
  9
$UNITMODE
 70
     0
  9
$VISRETAIN
 70
     1
  9
$PLINEGEN
 70
     0
  9
$PSLTSCALE
 70
     1
  0
ENDSEC
  0
SECTION
  2
TABLES
  0
TABLE
  2
VPORT
 70
     1
  0
VPORT
  2
*ACTIVE
 70
     0
 10
0.0
 20
0.0
 11
1.0
 21
1.0
 12
0.0
 22
0.0
 13
0.0
 23
0.0
 14
1.0
 24
1.0
 15
0.0
 25
0.0
 16
0.0
 26
0.0
 36
83.0107188943111254
 17
3474.401611328125
 27
166.3488464355467897
 37
0.0
 40
22.59799395717301
 41
2.888719512195121
 42
50.0
 43
0.0
 44
0.0
 50
0.0
 51
0.0
 71
     0
 72
   100
 73
     1
 74
     1
 75
     0
 76
     0
 77
     0
 78
     0
  0
ENDTAB
  0
TABLE
  2
LTYPE
 70
     2
  0
LTYPE
  2
CONTINUOUS
 70
     0
  3
Solid line
 72
    65
 73
     0
 40
0.0
  0
LTYPE
  2
PHANTOM2
 70
     0
  3
___ _ _ ___ _ _ ___ _ _ ___ _ _
 72
    65
 73
     6
 40
1.25
 49
0.625
 49
-0.125
 49
0.125
 49
-0.125
 49
0.125
 49
-0.125
  0
ENDTAB
  0
TABLE
  2
LAYER
 70
     2
  0
LAYER
  2
0
 70
     0
 62
   255
  6
CONTINUOUS
  0
LAYER
  2
DEFPOINTS
 70
     0
 62
     7
  6
CONTINUOUS
  0
ENDTAB
  0
TABLE
  2
STYLE
 70
     1
  0
STYLE
  2
STANDARD
 70
     0
 40
0.0
 41
0.8
 50
0.0
 71
     0
 42
0.2
  3
txt
  4

  0
ENDTAB
  0
TABLE
  2
VIEW
 70
     0
  0
ENDTAB
  0
TABLE
  2
UCS
 70
     0
  0
ENDTAB
  0
TABLE
  2
APPID
 70
     9
  0
APPID
  2
ACAD
 70
     0
  0
APPID
  2
ACAD_MLEADERVER
 70
     0
  0
APPID
  2
ACAD_EXEMPT_FROM_CAD_STANDARDS
 70
     0
  0
APPID
  2
ACAD_NAV_VCDISPLAY
 70
     0
  0
APPID
  2
ACAECLAYERSTANDARD
 70
     0
  0
APPID
  2
ACCMTRANSPARENCY
 70
     0
  0
APPID
  2
ACAD_DSTYLE_DIMJAG
 70
     0
  0
APPID
  2
ACAD_DSTYLE_DIMTALN
 70
     0
  0
APPID
  2
ACDBATTR
 70
     0
  0
ENDTAB
  0
TABLE
  2
DIMSTYLE
 70
     1
  0
DIMSTYLE
  2
STANDARD
 70
     0
  3

  4

  5

  6

  7

 40
1.0
 41
0.1875
 42
0.0625
 43
0.38
 44
0.125
 45
0.0
 46
0.0
 47
0.01
 48
0.01
140
0.15625
141
0.09
142
0.0
143
25.3999999999999986
144
1.0
145
0.0
146
1.0
147
0.09
 71
     1
 72
     0
 73
     1
 74
     1
 75
     0
 76
     0
 77
     0
 78
     4
170
     0
171
     2
172
     0
173
     0
174
     0
175
     0
176
     0
177
     0
178
     0
  0
ENDTAB
  0
ENDSEC
  0
SECTION
  2
BLOCKS
  0
BLOCK
  8
0
  2
$MODEL_SPACE
 70
     0
 10
0.0
 20
0.0
 30
0.0
  3
$MODEL_SPACE
  1

  0
ENDBLK
  5
21
  8
0
  0
BLOCK
 67
     1
  8
0
  2
$PAPER_SPACE
 70
     0
 10
0.0
 20
0.0
 30
0.0
  3
$PAPER_SPACE
  1

  0
ENDBLK
  5
1D
 67
     1
  8
0
  0
BLOCK
  8
0
  2
_FILLED
 70
     0
 10
0.0
 20
0.0
 30
0.0
  3
_FILLED
  1

  0
SOLID
  5
A110
  8
0
  6
BYBLOCK
 62
     0
 10
0.0
 20
0.0
 30
0.0
 11
-1.0
 21
0.1666666667
 31
0.0
 12
-1.0
 22
-0.1666666667
 32
0.0
 13
-1.0
 23
-0.1666666667
 33
0.0
  0
ENDBLK
  5
A111
  8
0
  6
BYBLOCK
 62
     0
  0
ENDSEC
  0
SECTION
  2
ENTITIES
  0
ATTDEF
  5
8DE4
  8
DEFPOINTS
 10
3474.4011297461538561
 20
166.3464995385639043
 30
0.0
 40
0.001
  1
K-14440BR
  3

  2
MODELNUMBER
 70
     0
1001
ACDBATTR
1070
     0
1070
     1
  0
ATTDEF
  5
8DE5
  8
DEFPOINTS
 10
3474.4011297461538561
 20
166.3448328718972959
 30
0.0
 40
0.001
  1
PURIST
  3

  2
TRADENAME
 70
     0
1001
ACDBATTR
1070
     0
1070
     1
  0
ATTDEF
  5
8DE6
  8
DEFPOINTS
 10
3474.4011297461538561
 20
166.3431662052306024
 30
0.0
 40
0.001
  1
SHELF
  3

  2
PRODUCT
 70
     0
1001
ACDBATTR
1070
     0
1070
     1
  0
ARC
  5
ACB8
  8
0
 10
3465.1496487488961975
 20
166.3487779406744949
 30
0.0
 40
0.9448818897999995
 50
10.3212242679630606
 51
169.678775732036911
  0
ARC
  5
ACB9
  8
0
 10
3465.1496487488961975
 20
166.3487779406744949
 30
0.0
 40
0.9448818897999995
 50
188.8684688586652101
 51
351.1315311413347899
  0
ARC
  5
ACBA
  8
0
 10
3483.6535857567960193
 20
166.3487779406744949
 30
0.0
 40
0.9448818898000004
 50
10.3212242679630606
 51
169.678775732036911
  0
ARC
  5
ACBB
  8
0
 10
3483.6535857567960193
 20
166.3487779406744949
 30
0.0
 40
0.9448818898000004
 50
188.8684688586652101
 51
351.1315311413347899
  0
ARC
  5
ACBC
  8
0
 10
3465.1496487488961975
 20
166.3487779406744949
 30
0.0
 40
0.3543307087
 50
204.274652184931
 51
335.7253478150689716
  0
ARC
  5
ACBD
  8
0
 10
3465.1496487488961975
 20
166.3487779406744949
 30
0.0
 40
0.3543307087
 50
28.5403654846691595
 51
151.459634515330805
  0
ARC
  5
ACBE
  8
0
 10
3483.6535857567960193
 20
166.3487779406744949
 30
0.0
 40
0.3543307087
 50
204.274652184931
 51
335.7253478150689716
  0
ARC
  5
ACBF
  8
0
 10
3483.6535857567960193
 20
166.3487779406744949
 30
0.0
 40
0.3543307087
 50
28.5403654846691595
 51
151.459634515330805
  0
LINE
  5
ACC0
  8
0
 10
3485.6220896937961697
 20
166.5180692792744992
 30
0.0
 11
3463.181144811896047
 21
166.5180692792744992
 31
0.0
  0
LINE
  5
ACC1
  8
0
 10
3485.6220896937961697
 20
166.2031086493745136
 30
0.0
 11
3463.181144811896047
 21
166.2031086493745136
 31
0.0
  0
LINE
  5
ACC2
  8
0
 10
3485.6220896937961697
 20
166.2031086493745136
 30
0.0
 11
3485.6614597724960731
 21
166.2424787280743885
 31
0.0
  0
LINE
  5
ACC3
  8
0
 10
3485.6614597724960731
 20
166.2424787280743885
 30
0.0
 11
3485.6614597724960731
 21
166.4786992004744093
 31
0.0
  0
LINE
  5
ACC4
  8
0
 10
3485.6614597724960731
 20
166.4786992004744093
 30
0.0
 11
3485.6220896937961697
 21
166.5180692792744992
 31
0.0
  0
LINE
  5
ACC5
  8
0
 10
3463.181144811896047
 20
166.5180692792744992
 30
0.0
 11
3463.1417747331961436
 21
166.4786992004744093
 31
0.0
  0
LINE
  5
ACC6
  8
0
 10
3463.1417747331961436
 20
166.4786992004744093
 30
0.0
 11
3463.1417747331961436
 21
166.2424787280743885
 31
0.0
  0
LINE
  5
ACC7
  8
0
 10
3463.1417747331961436
 20
166.2424787280743885
 30
0.0
 11
3463.181144811896047
 21
166.2031086493745136
 31
0.0
  0
LINE
  5
ACC8
  8
0
 10
3485.6220896937961697
 20
166.4786992004744093
 30
0.0
 11
3463.181144811896047
 21
166.4786992004744093
 31
0.0
  0
LINE
  5
ACC9
  8
0
 10
3485.6220896937961697
 20
166.2424787280743885
 30
0.0
 11
3463.181144811896047
 21
166.2424787280743885
 31
0.0
  0
LINE
  5
ACCA
  8
0
 10
3485.6417747331461214
 20
166.4983842398744116
 30
0.0
 11
3485.6220896937961697
 21
166.4786992004744093
 31
0.0
  0
LINE
  5
ACCB
  8
0
 10
3485.6220896937961697
 20
166.4786992004744093
 30
0.0
 11
3485.6220896937961697
 21
166.2424787280743885
 31
0.0
  0
LINE
  5
ACCC
  8
0
 10
3485.6220896937961697
 20
166.2424787280743885
 30
0.0
 11
3485.6417747331961436
 21
166.2227936886743862
 31
0.0
  0
LINE
  5
ACCD
  8
0
 10
3463.1614597725210842
 20
166.4983842398495142
 30
0.0
 11
3463.181144811896047
 21
166.4786992004744093
 31
0.0
  0
LINE
  5
ACCE
  8
0
 10
3463.181144811896047
 20
166.4786992004744093
 30
0.0
 11
3463.181144811896047
 21
166.2424787280743885
 31
0.0
  0
LINE
  5
ACCF
  8
0
 10
3463.181144811896047
 20
166.2424787280743885
 30
0.0
 11
3463.1614597724960731
 21
166.2227936886743862
 31
0.0
  0
LINE
  5
ACD0
  8
0
 10
3483.9648584568558363
 20
166.1794866020744905
 30
0.0
 11
3483.3423130567362023
 21
166.1794866020744905
 31
0.0
  0
LINE
  5
ACD1
  8
0
 10
3465.4609214489560145
 20
166.1794866020744905
 30
0.0
 11
3464.8383760488359258
 21
166.1794866020744905
 31
0.0
  0
LINE
  5
ACD2
  8
0
 10
3483.7766172704950804
 20
166.1834236147745116
 30
0.0
 11
3483.5305542429960042
 21
166.1834236147745116
 31
0.0
  0
LINE
  5
ACD3
  8
0
 10
3465.2726802449960815
 20
166.1834236147745116
 30
0.0
 11
3465.0266172527958588
 21
166.1834236147745116
 31
0.0
  0
LINE
  5
ACD4
  8
0
 10
3483.7569322323961387
 20
166.2031086493745136
 30
0.0
 11
3483.7766172704950804
 21
166.1834236147745116
 31
0.0
  0
LINE
  5
ACD5
  8
0
 10
3483.7766172704950804
 20
166.1834236147745116
 30
0.0
 11
3483.7766172704950804
 21
166.1794866020744905
 31
0.0
  0
LINE
  5
ACD6
  8
0
 10
3483.5502392836961008
 20
166.2031086518744871
 30
0.0
 11
3483.5305542429960042
 21
166.1834236147745116
 31
0.0
  0
LINE
  5
ACD7
  8
0
 10
3483.5305542429960042
 20
166.1834236147745116
 30
0.0
 11
3483.5305542429960042
 21
166.1794866020744905
 31
0.0
  0
LINE
  5
ACD8
  8
0
 10
3465.2536645159962063
 20
166.2031086493745136
 30
0.0
 11
3465.2726802449960815
 21
166.1834236147745116
 31
0.0
  0
LINE
  5
ACD9
  8
0
 10
3465.2726802449960815
 20
166.1834236147745116
 30
0.0
 11
3465.2726802449960815
 21
166.1794866020744905
 31
0.0
  0
LINE
  5
ACDA
  8
0
 10
3465.0456329817961887
 20
166.2031086493745136
 30
0.0
 11
3465.0266172527958588
 21
166.1834236147745116
 31
0.0
  0
LINE
  5
ACDB
  8
0
 10
3465.0266172527958588
 20
166.1834236147745116
 30
0.0
 11
3465.0266172527958588
 21
166.1794866020744905
 31
0.0
  0
LINE
  5
ACDC
  8
0
 10
3483.7829310435959087
 20
165.9275180981744882
 30
0.0
 11
3483.515790478496001
 21
165.9275180981744882
 31
0.0
  0
LINE
  5
ACDD
  8
0
 10
3465.2874440271962158
 20
165.9275180981744882
 30
0.0
 11
3465.0203034620958533
 21
165.9275180981744882
 31
0.0
  0
ARC
  5
ACDE
  8
0
 10
3483.7880955357290986
 20
165.9273512903600931
 30
0.0
 40
0.0051671852920528
 50
126.5499826655234017
 51
178.1500480422155022
  0
LINE
  5
ACDF
  8
0
 10
3483.7850183538298552
 20
165.9315022848678041
 30
0.0
 11
3483.808691111106782
 21
165.9452040596463007
 31
0.0
  0
ARC
  5
ACE0
  8
0
 10
3483.5346214937771947
 20
166.3209062567113961
 30
0.0
 40
0.4650444022064565
 50
306.1102398514225911
 51
306.324713874883912
  0
ARC
  5
ACE1
  8
0
 10
3483.8026638753749467
 20
165.9543791097341909
 30
0.0
 40
0.0110270216717479
 50
312.372726304985008
 51
317.627265679578727
  0
LINE
  5
ACE2
  8
0
 10
3483.8108104095122144
 20
165.9469474554556996
 30
0.0
 11
3483.8107302928960962
 21
165.9472031344745062
 31
0.0
  0
LINE
  5
ACE3
  8
0
 10
3483.8107302928960962
 20
165.9472031344745062
 30
0.0
 11
3483.7850308663178112
 21
165.9620501140715021
 31
0.0
  0
ARC
  5
ACE4
  8
0
 10
3483.7885447991639012
 20
165.9664754227634944
 30
0.0
 40
0.0056507593352719
 50
129.1554728914262
 51
231.5485369476778885
  0
LINE
  5
ACE5
  8
0
 10
3483.7849767578959472
 20
165.9708572217745086
 30
0.0
 11
3483.8106720662958651
 21
165.9857333420744112
 31
0.0
  0
ARC
  5
ACE6
  8
0
 10
3483.8101839154851405
 20
165.9866828993181969
 30
0.0
 40
0.0010676848099789
 50
297.2065633473694106
 51
318.2197942397256156
  0
ARC
  5
ACE7
  8
0
 10
3483.8107535996259685
 20
165.9861738969464966
 30
0.0
 40
0.0003037323013683
 50
318.2197942395367818
 51
20.0554172375443613
  0
ARC
  5
ACE8
  8
0
 10
3483.8100673631101927
 20
165.9854519347881023
 30
0.0
 40
0.00127529864477
 50
40.3748903352408988
 51
64.400248259443913
  0
LINE
  5
ACE9
  8
0
 10
3483.8106183964951015
 20
165.9866020429745106
 30
0.0
 11
3483.7850218849807789
 21
166.0014289205124101
 31
0.0
  0
ARC
  5
ACEA
  8
0
 10
3483.7884946010940439
 20
166.0058492098337979
 30
0.0
 40
0.0056212734220213
 50
128.3973623075580974
 51
231.8457256524081913
  0
LINE
  5
ACEB
  8
0
 10
3483.7850031623961513
 20
166.0102547257745016
 30
0.0
 11
3483.8106552171961994
 21
166.0251160966743953
 31
0.0
  0
ARC
  5
ACEC
  8
0
 10
3483.8102733097289274
 20
166.0259055242551085
 30
0.0
 40
0.0008769547283268
 50
295.8164741297509863
 51
326.2813704910814749
  0
ARC
  5
ACED
  8
0
 10
3483.8107656557572227
 20
166.0255582527643128
 30
0.0
 40
0.0002750981036931
 50
329.5202278691405127
 51
38.2857184453281718
  0
ARC
  5
ACEE
  8
0
 10
3483.8102679728749536
 20
166.02509679910969
 30
0.0
 40
0.0009531762973304
 50
41.5245758231736986
 51
68.3584740924550545
  0
ARC
  5
ACEF
  8
0
 10
3488.9861931295768045
 20
174.9705263295981865
 30
0.0
 40
10.3339934962236892
 50
239.913989380621814
 51
239.9450745839905892
  0
LINE
  5
ACF0
  8
0
 10
3483.5207314670337837
 20
166.0202966035791974
 30
0.0
 11
3483.4968526707248202
 21
166.0064651923765098
 31
0.0
  0
ARC
  5
ACF1
  8
0
 10
3483.4975919438161327
 20
166.0044888024193028
 30
0.0
 40
0.0021101284238864
 50
110.5084225892213965
 51
128.3888349925470038
  0
ARC
  5
ACF2
  8
0
 10
3483.4965396303241505
 20
166.0058551617873945
 30
0.0
 40
0.0003864012045762
 50
131.902892171730997
 51
202.7242940736599905
  0
ARC
  5
ACF3
  8
0
 10
3483.4971295413988628
 20
166.006477236074204
 30
0.0
 40
0.0012208531653566
 50
219.1833482050610087
 51
241.8250463583715089
  0
ARC
  5
ACF4
  8
0
 10
3344.2115466465520512
 20
-74.4908032871977639
 30
0.0
 40
277.9185803765332139
 50
59.9163349846865501
 51
59.9224317927179868
  0
ARC
  5
ACF5
  8
0
 10
3483.519006067814189
 20
165.9861571260734934
 30
0.0
 40
0.0054213189308716
 50
305.5729169890249182
 51
54.6411831198532312
  0
ARC
  5
ACF6
  8
0
 10
1558.8351495889069156
 20
3488.730803437564191
 30
0.0
 40
3839.9324702211820295
 50
300.080928999360026
 51
300.0813691835285226
  0
ARC
  5
ACF7
  8
0
 10
3483.4972072610139548
 20
165.9657043649210948
 30
0.0
 40
0.0013818870430602
 50
114.589381193850798
 51
134.0045847211507066
  0
ARC
  5
ACF8
  8
0
 10
3483.4964705742590922
 20
165.9664477976776027
 30
0.0
 40
0.0003356276832839
 50
131.7142831577380093
 51
183.6949440093667931
  0
ARC
  5
ACF9
  8
0
 10
3483.4967292093820106
 20
165.9666257268829952
 30
0.0
 40
0.0006262133521833
 50
198.5828075399543877
 51
248.4580994350289131
  0
ARC
  5
ACFA
  8
0
 10
3484.6851545927038387
 20
168.0041224488896887
 30
0.0
 40
2.3593787877392911
 50
239.7482659702056935
 51
240.4712292471681963
  0
ARC
  5
ACFB
  8
0
 10
3483.5187247568269413
 20
165.9468103442804932
 30
0.0
 40
0.0056733324976697
 50
311.4176908253839997
 51
50.8076248358892926
  0
ARC
  5
ACFC
  8
0
 10
3495.3518022040148026
 20
145.3933800664293869
 30
0.0
 40
23.7107895173168295
 50
119.9272830199017932
 51
119.9649522861353006
  0
ARC
  5
ACFD
  8
0
 10
3483.5036322122527963
 20
165.9367506092050064
 30
0.0
 40
0.0056922715883283
 50
336.3118470812424903
 51
339.6834085585639968
  0
LINE
  5
ACFE
  8
0
 10
3483.5088448853957743
 20
165.9344636910745123
 30
0.0
 11
3483.515790478496001
 21
165.9275180981744882
 31
0.0
  0
LINE
  5
ACFF
  8
0
 10
3483.810810375895926
 20
165.9469474385743979
 30
0.0
 11
3483.5224779127270267
 21
165.9425558734058086
 31
0.0
  0
LINE
  5
AD00
  8
0
 10
3483.4961349465761486
 20
165.9664477976776027
 30
0.0
 11
3483.7828940398289888
 21
165.9664754227634944
 31
0.0
  0
LINE
  5
AD01
  8
0
 10
3483.8110573319281684
 20
165.9861738969464966
 30
0.0
 11
3483.5244273867460834
 21
165.9861571260734934
 31
0.0
  0
LINE
  5
AD02
  8
0
 10
3483.7828733276719504
 20
166.0058492098337979
 30
0.0
 11
3483.7427524989889207
 21
166.0058500426924013
 31
0.0
  0
LINE
  5
AD03
  8
0
 10
3483.564404777162963
 20
166.0058537449700111
 30
0.0
 11
3483.4961532291199546
 21
166.0058551617873945
 31
0.0
  0
ARC
  5
AD04
  8
0
 10
3465.0151389699622086
 20
165.9273512903600931
 30
0.0
 40
0.0051671852920528
 50
1.8499519577845129
 51
53.4500173344755822
  0
LINE
  5
AD05
  8
0
 10
3465.0182161518619068
 20
165.9315022848678041
 30
0.0
 11
3464.9945433945840705
 21
165.9452040596463007
 31
0.0
  0
ARC
  5
AD06
  8
0
 10
3465.2686130119150221
 20
166.3209062567113961
 30
0.0
 40
0.4650444022064565
 50
233.6752861251162017
 51
233.8897601485774089
  0
ARC
  5
AD07
  8
0
 10
3465.0005706303159059
 20
165.9543791097341909
 30
0.0
 40
0.0110270216717479
 50
222.3727343204213014
 51
227.627273695014992
  0
LINE
  5
AD08
  8
0
 10
3464.9924240961790929
 20
165.9469474554556996
 30
0.0
 11
3464.9925042127961206
 21
165.9472031344745062
 31
0.0
  0
LINE
  5
AD09
  8
0
 10
3464.9925042127961206
 20
165.9472031344745062
 30
0.0
 11
3465.0182036393730414
 21
165.9620501140715021
 31
0.0
  0
ARC
  5
AD0A
  8
0
 10
3465.0146897065278608
 20
165.9664754227634944
 30
0.0
 40
0.0056507593352719
 50
308.4514630523221967
 51
50.8445271085737787
  0
LINE
  5
AD0B
  8
0
 10
3465.0182577477958148
 20
165.9708572217745086
 30
0.0
 11
3464.9925624393958969
 21
165.9857333420744112
 31
0.0
  0
ARC
  5
AD0C
  8
0
 10
3464.9930505902070763
 20
165.9866828993181969
 30
0.0
 40
0.0010676848099789
 50
221.7802057602744128
 51
242.7934366526305894
  0
ARC
  5
AD0D
  8
0
 10
3464.9924809060657935
 20
165.9861738969464966
 30
0.0
 40
0.0003037323013683
 50
159.9445827624556102
 51
221.7802057604631898
  0
ARC
  5
AD0E
  8
0
 10
3464.9931671425820241
 20
165.9854519347881023
 30
0.0
 40
0.00127529864477
 50
115.5997517405561013
 51
139.6251096647590941
  0
LINE
  5
AD0F
  8
0
 10
3464.9926161091962058
 20
165.9866020429745106
 30
0.0
 11
3465.0182126207109832
 21
166.0014289205124101
 31
0.0
  0
ARC
  5
AD10
  8
0
 10
3465.0147399045981729
 20
166.0058492098337979
 30
0.0
 40
0.0056212734220213
 50
308.154274347591695
 51
51.6026376924418386
  0
LINE
  5
AD11
  8
0
 10
3465.0182313432960655
 20
166.0102547257745016
 30
0.0
 11
3464.9925792884960174
 21
166.0251160966743953
 31
0.0
  0
ARC
  5
AD12
  8
0
 10
3464.9929611959628346
 20
166.0259055242551085
 30
0.0
 40
0.0008769547283268
 50
213.7186295089184966
 51
244.1835258702489
  0
ARC
  5
AD13
  8
0
 10
3464.9924688499340846
 20
166.0255582527643128
 30
0.0
 40
0.0002750981036931
 50
141.7142815546717998
 51
210.4797721308594873
  0
ARC
  5
AD14
  8
0
 10
3464.9929665328168085
 20
166.02509679910969
 30
0.0
 40
0.0009531762973304
 50
111.6415259075449029
 51
138.4754241768262943
  0
ARC
  5
AD15
  8
0
 10
3459.8170413761149575
 20
174.9705263295981865
 30
0.0
 40
10.3339934962236892
 50
300.0549254160094961
 51
300.0860106193782144
  0
LINE
  5
AD16
  8
0
 10
3465.2825030386570688
 20
166.0202966035791974
 30
0.0
 11
3465.3063818349660323
 21
166.0064651923765098
 31
0.0
  0
ARC
  5
AD17
  8
0
 10
3465.3056425618760841
 20
166.0044888024193028
 30
0.0
 40
0.0021101284238864
 50
51.6111650074530317
 51
69.4915774107785609
  0
ARC
  5
AD18
  8
0
 10
3465.3066948753680663
 20
166.0058551617873945
 30
0.0
 40
0.0003864012045762
 50
337.275705926339981
 51
48.0971078282689675
  0
ARC
  5
AD19
  8
0
 10
3465.3061049642919897
 20
166.006477236074204
 30
0.0
 40
0.0012208531653566
 50
298.1749536416284059
 51
320.8166517949389913
  0
ARC
  5
AD1A
  8
0
 10
3604.5916878591401655
 20
-74.4908032871977639
 30
0.0
 40
277.9185803765332139
 50
120.077568207281999
 51
120.0836650153134002
  0
ARC
  5
AD1B
  8
0
 10
3465.2842284378771183
 20
165.9861571260734934
 30
0.0
 40
0.0054213189308716
 50
125.3588168801468044
 51
234.4270830109751103
  0
ARC
  5
AD1C
  8
0
 10
5389.9680849167843917
 20
3488.730803437564191
 30
0.0
 40
3839.9324702211820295
 50
239.9186308164713921
 51
239.9190710006400025
  0
ARC
  5
AD1D
  8
0
 10
3465.3060272446778072
 20
165.9657043649210948
 30
0.0
 40
0.0013818870430602
 50
45.9954152788492223
 51
65.4106188061492304
  0
ARC
  5
AD1E
  8
0
 10
3465.306763931432215
 20
165.9664477976776027
 30
0.0
 40
0.0003356276832839
 50
356.3050559906332069
 51
48.2857168422619694
  0
ARC
  5
AD1F
  8
0
 10
3465.3065052963088419
 20
165.9666257268829952
 30
0.0
 40
0.0006262133521833
 50
291.5419005649711153
 51
341.4171924600456123
  0
ARC
  5
AD20
  8
0
 10
3464.1180799129879233
 20
168.0041224488896887
 30
0.0
 40
2.3593787877392911
 50
299.5287707528318037
 51
300.2517340297943065
  0
ARC
  5
AD21
  8
0
 10
3465.2845097488639112
 20
165.9468103442804932
 30
0.0
 40
0.0056733324976697
 50
129.1923751641107003
 51
228.5823091746160003
  0
ARC
  5
AD22
  8
0
 10
3453.45143230167605
 20
145.3933800664293869
 30
0.0
 40
23.7107895173168295
 50
60.035047713864671
 51
60.0727169800981571
  0
ARC
  5
AD23
  8
0
 10
3465.2996022934389657
 20
165.9367506092050064
 30
0.0
 40
0.0056922715883283
 50
200.3165914414360032
 51
203.688152918757396
  0
LINE
  5
AD24
  8
0
 10
3465.2943896202959877
 20
165.9344636910745123
 30
0.0
 11
3465.2874440271962158
 21
165.9275180981744882
 31
0.0
  0
LINE
  5
AD25
  8
0
 10
3464.9924241297949266
 20
165.9469474385743979
 30
0.0
 11
3465.2807565929651901
 21
165.9425558734058086
 31
0.0
  0
LINE
  5
AD26
  8
0
 10
3465.3070995591160681
 20
165.9664477976776027
 30
0.0
 11
3465.0203404658627733
 21
165.9664754227634944
 31
0.0
  0
LINE
  5
AD27
  8
0
 10
3464.9921771737640483
 20
165.9861738969464966
 30
0.0
 11
3465.2788071189452239
 21
165.9861571260734934
 31
0.0
  0
LINE
  5
AD28
  8
0
 10
3465.0203611780198116
 20
166.0058492098337979
 30
0.0
 11
3465.0604820067019318
 21
166.0058500426924013
 31
0.0
  0
LINE
  5
AD29
  8
0
 10
3465.238829728528799
 20
166.0058537449700111
 30
0.0
 11
3465.3070812765718074
 21
166.0058551617873945
 31
0.0
  0
ENDSEC
  0
EOF
