  0
SECTION
  2
HEADER
  9
$ACADVER
  1
AC1009
  9
$INSBASE
 10
295.2673809311781952
 20
1.5060934954148479
 30
0.0
  9
$EXTMIN
 10
290.7769662972826268
 20
1.5052948411382869
 30
-0.0000000000112498
  9
$EXTMAX
 10
296.6619480528282793
 20
9.2950592347130367
 30
0.0000000000002956
  9
$LIMMIN
 10
0.0
 20
0.0
  9
$LIMMAX
 10
22.0
 20
17.0
  9
$ORTHOMODE
 70
     0
  9
$REGENMODE
 70
     1
  9
$FILLMODE
 70
     1
  9
$QTEXTMODE
 70
     0
  9
$MIRRTEXT
 70
     0
  9
$DRAGMODE
 70
     2
  9
$LTSCALE
 40
1.2099999999999991
  9
$OSMODE
 70
     7
  9
$ATTMODE
 70
     1
  9
$TEXTSIZE
 40
0.2
  9
$TRACEWID
 40
0.05
  9
$TEXTSTYLE
  7
STANDARD
  9
$CLAYER
  8
0
  9
$CELTYPE
  6
BYLAYER
  9
$CECOLOR
 62
   256
  9
$DIMSCALE
 40
1.0
  9
$DIMASZ
 40
0.1875
  9
$DIMEXO
 40
0.0625
  9
$DIMDLI
 40
0.38
  9
$DIMRND
 40
0.0
  9
$DIMDLE
 40
0.0
  9
$DIMEXE
 40
0.125
  9
$DIMTP
 40
1.5
  9
$DIMTM
 40
1.5
  9
$DIMTXT
 40
1.5
  9
$DIMCEN
 40
0.09
  9
$DIMTSZ
 40
0.0
  9
$DIMTOL
 70
     0
  9
$DIMLIM
 70
     0
  9
$DIMTIH
 70
     1
  9
$DIMTOH
 70
     1
  9
$DIMSE1
 70
     0
  9
$DIMSE2
 70
     0
  9
$DIMTAD
 70
     0
  9
$DIMZIN
 70
     4
  9
$DIMBLK
  1

  9
$DIMASO
 70
     1
  9
$DIMSHO
 70
     1
  9
$DIMPOST
  1

  9
$DIMAPOST
  1

  9
$DIMALT
 70
     0
  9
$DIMALTD
 70
     2
  9
$DIMALTF
 40
25.3999999999999986
  9
$DIMLFAC
 40
1.0
  9
$DIMTOFL
 70
     0
  9
$DIMTVP
 40
0.0
  9
$DIMTIX
 70
     0
  9
$DIMSOXD
 70
     0
  9
$DIMSAH
 70
     0
  9
$DIMBLK1
  1

  9
$DIMBLK2
  1

  9
$DIMSTYLE
  2
STANDARD
  9
$DIMCLRD
 70
     0
  9
$DIMCLRE
 70
     0
  9
$DIMCLRT
 70
     0
  9
$DIMTFAC
 40
1.0
  9
$DIMGAP
 40
0.09
  9
$LUNITS
 70
     2
  9
$LUPREC
 70
     4
  9
$SKETCHINC
 40
0.1
  9
$FILLETRAD
 40
0.0
  9
$AUNITS
 70
     0
  9
$AUPREC
 70
     0
  9
$MENU
  1
.
  9
$ELEVATION
 40
0.0
  9
$PELEVATION
 40
0.0
  9
$THICKNESS
 40
0.0
  9
$LIMCHECK
 70
     0
  9
$BLIPMODE
 70
     0
  9
$CHAMFERA
 40
0.0
  9
$CHAMFERB
 40
0.0
  9
$SKPOLY
 70
     0
  9
$TDCREATE
 40
2457827.4934837957844138
  9
$TDUPDATE
 40
2459544.5677199079655111
  9
$TDINDWG
 40
0.3871315972
  9
$TDUSRTIMER
 40
0.3871315972
  9
$USRTIMER
 70
     1
  9
$ANGBASE
 50
0.0
  9
$ANGDIR
 70
     0
  9
$PDMODE
 70
     0
  9
$PDSIZE
 40
0.3125
  9
$PLINEWID
 40
0.0
  9
$COORDS
 70
     1
  9
$SPLFRAME
 70
     0
  9
$SPLINETYPE
 70
     6
  9
$SPLINESEGS
 70
     8
  9
$ATTDIA
 70
     1
  9
$ATTREQ
 70
     1
  9
$HANDLING
 70
     1
  9
$HANDSEED
  5
7B2E
  9
$SURFTAB1
 70
     6
  9
$SURFTAB2
 70
     6
  9
$SURFTYPE
 70
     6
  9
$SURFU
 70
     6
  9
$SURFV
 70
     6
  9
$UCSNAME
  2

  9
$UCSORG
 10
0.0
 20
0.0
 30
0.0
  9
$UCSXDIR
 10
1.0
 20
0.0
 30
0.0
  9
$UCSYDIR
 10
0.0
 20
1.0
 30
0.0
  9
$PUCSNAME
  2

  9
$PUCSORG
 10
0.0
 20
0.0
 30
0.0
  9
$PUCSXDIR
 10
1.0
 20
0.0
 30
0.0
  9
$PUCSYDIR
 10
0.0
 20
1.0
 30
0.0
  9
$USERI1
 70
     0
  9
$USERI2
 70
     0
  9
$USERI3
 70
     0
  9
$USERI4
 70
     0
  9
$USERI5
 70
     0
  9
$USERR1
 40
0.0
  9
$USERR2
 40
0.0
  9
$USERR3
 40
0.0
  9
$USERR4
 40
0.0
  9
$USERR5
 40
0.0
  9
$WORLDVIEW
 70
     1
  9
$SHADEDGE
 70
     3
  9
$SHADEDIF
 70
    70
  9
$TILEMODE
 70
     1
  9
$MAXACTVP
 70
    48
  9
$PLIMCHECK
 70
     0
  9
$PEXTMIN
 10
1.0000000000000000E+20
 20
1.0000000000000000E+20
 30
1.0000000000000000E+20
  9
$PEXTMAX
 10
-1.0000000000000000E+20
 20
-1.0000000000000000E+20
 30
-1.0000000000000000E+20
  9
$PLIMMIN
 10
0.0
 20
0.0
  9
$PLIMMAX
 10
12.0
 20
9.0
  9
$UNITMODE
 70
     0
  9
$VISRETAIN
 70
     1
  9
$PLINEGEN
 70
     0
  9
$PSLTSCALE
 70
     1
  0
ENDSEC
  0
SECTION
  2
TABLES
  0
TABLE
  2
VPORT
 70
     1
  0
VPORT
  2
*ACTIVE
 70
     0
 10
0.0
 20
0.0
 11
1.0
 21
1.0
 12
82.7405295627507371
 22
-1.802272147634898
 13
0.0
 23
0.0
 14
1.0
 24
1.0
 15
0.0
 25
0.0
 16
-0.0000000000000284
 26
0.0
 36
157.2215818301446859
 17
210.9789276123046875
 27
7.2024491855605604
 37
0.0
 40
7.845538362979819
 41
2.2831541218637992
 42
50.0
 43
0.0
 44
0.0
 50
0.0
 51
0.0
 71
     0
 72
   100
 73
     1
 74
     1
 75
     0
 76
     0
 77
     0
 78
     0
  0
ENDTAB
  0
TABLE
  2
LTYPE
 70
     3
  0
LTYPE
  2
CONTINUOUS
 70
     0
  3
Solid line
 72
    65
 73
     0
 40
0.0
  0
LTYPE
  2
PHANTOM2
 70
     0
  3
___ _ _ ___ _ _ ___ _ _ ___ _ _
 72
    65
 73
     6
 40
1.25
 49
0.625
 49
-0.125
 49
0.125
 49
-0.125
 49
0.125
 49
-0.125
  0
ENDTAB
  0
TABLE
  2
LAYER
 70
     2
  0
LAYER
  2
0
 70
     0
 62
     7
  6
CONTINUOUS
  0
LAYER
  2
DEFPOINTS
 70
     0
 62
     7
  6
CONTINUOUS
  0
ENDTAB
  0
TABLE
  2
STYLE
 70
     1
  0
STYLE
  2
STANDARD
 70
     0
 40
0.0
 41
0.8
 50
0.0
 71
     0
 42
0.2
  3
txt
  4

  0
ENDTAB
  0
TABLE
  2
VIEW
 70
     0
  0
ENDTAB
  0
TABLE
  2
UCS
 70
     0
  0
ENDTAB
  0
TABLE
  2
APPID
 70
     9
  0
APPID
  2
ACAD
 70
     0
  0
APPID
  2
ACAD_MLEADERVER
 70
     0
  0
APPID
  2
ACAD_EXEMPT_FROM_CAD_STANDARDS
 70
     0
  0
APPID
  2
ACAD_NAV_VCDISPLAY
 70
     0
  0
APPID
  2
ACADANNOMONITORALERTICONDI
 70
     0
  0
APPID
  2
ACAD_DSTYLE_DIMJAG
 70
     0
  0
APPID
  2
ACAD_DSTYLE_DIMTALN
 70
     0
  0
APPID
  2
ACDBATTR
 70
     0
  0
APPID
  2
DCO15
 70
     0
  0
ENDTAB
  0
TABLE
  2
DIMSTYLE
 70
     2
  0
DIMSTYLE
  2
STANDARD
 70
     0
  3

  4

  5

  6

  7

 40
1.0
 41
0.1875
 42
0.0625
 43
0.38
 44
0.125
 45
0.0
 46
0.0
 47
1.5
 48
1.5
140
1.5
141
0.09
142
0.0
143
25.3999999999999986
144
1.0
145
0.0
146
1.0
147
0.09
 71
     0
 72
     0
 73
     1
 74
     1
 75
     0
 76
     0
 77
     0
 78
     4
170
     0
171
     2
172
     0
173
     0
174
     0
175
     0
176
     0
177
     0
178
     0
  0
ENDTAB
  0
ENDSEC
  0
SECTION
  2
BLOCKS
  0
BLOCK
  8
0
  2
$MODEL_SPACE
 70
     0
 10
0.0
 20
0.0
 30
0.0
  3
$MODEL_SPACE
  1

  0
ENDBLK
  5
21
  8
0
  0
BLOCK
 67
     1
  8
0
  2
$PAPER_SPACE
 70
     0
 10
0.0
 20
0.0
 30
0.0
  3
$PAPER_SPACE
  1

  0
ENDBLK
  5
1D
 67
     1
  8
0
  0
ENDSEC
  0
SECTION
  2
ENTITIES
  0
ATTDEF
  5
4EF9
  8
DEFPOINTS
 10
295.2674286592156818
 20
1.5094847728366481
 30
0.0
 40
0.001
  1
K-14434BR-4A
  3

  2
MODELNUMBER
 70
     0
1001
ACDBATTR
1070
     0
1070
     1
  0
ATTDEF
  5
4EFA
  8
DEFPOINTS
 10
295.2674286592156818
 20
1.5078181061699689
 30
0.0
 40
0.001
  1
PURIST
  3

  2
TRADENAME
 70
     0
1001
ACDBATTR
1070
     0
1070
     1
  0
ATTDEF
  5
4EFB
  8
DEFPOINTS
 10
295.2674286592156818
 20
1.5061514395032889
 30
0.0
 40
0.001
  1
BIDET FAUCET
  3

  2
PRODUCT
 70
     0
1001
ACDBATTR
1070
     0
1070
     1
  0
LINE
  5
78EB
  8
0
 10
296.3573809311779996
 20
1.5060934954148479
 30
0.0
 11
294.1773809311783907
 21
1.5060934954148479
 31
0.0
  0
LINE
  5
78ED
  8
0
 10
294.1773809311781065
 20
1.6760934954148481
 30
0.0
 11
296.357380931178227
 21
1.6760934954148481
 31
0.0
  0
LINE
  5
78EE
  8
0
 10
294.357380931178227
 20
6.9610934954148496
 30
0.0
 11
296.1773809311782202
 21
6.9610934954148496
 31
0.0
  0
ARC
  5
78EF
  8
0
 10
295.2418144528550101
 20
7.1498182893017503
 30
0.0
 40
0.1202620097652891
 50
270.0296274764166924
 51
293.9891011713900184
  0
LINE
  5
78F0
  8
0
 10
295.2418766399782157
 20
7.0295562956148494
 30
0.0
 11
294.3861907459781833
 21
7.0251911898148487
 31
0.0
  0
ARC
  5
78F1
  8
0
 10
294.3921152671777008
 20
7.0583771940249633
 30
0.0
 40
0.033710693064335
 50
177.1995815709450142
 51
259.8779233911120059
  0
LINE
  5
78F2
  8
0
 10
294.3584448320781917
 20
7.0600241995148494
 30
0.0
 11
294.3844834686781837
 21
7.8056731904148497
 31
0.0
  0
LINE
  5
78F3
  8
0
 10
294.4144651934926173
 20
7.8346262055148488
 30
0.0
 11
296.120296668863773
 21
7.8346262055148488
 31
0.0
  0
ARC
  5
78F4
  8
0
 10
294.4144651934926173
 20
7.8046262055109441
 30
0.0
 40
0.0300000000039056
 50
90.0000000274620646
 51
177.9999999948493894
  0
ARC
  5
78F5
  8
0
 10
294.6931623355782222
 20
8.1709292855148519
 30
0.0
 40
0.3500000000000035
 50
286.0021380727995961
 51
359.000001580799676
  0
LINE
  5
78F6
  8
0
 10
295.0431090290513794
 20
8.1648209529168874
 30
0.0
 11
295.047037922978177
 21
8.3899071365148501
 31
0.0
  0
LINE
  5
78F7
  8
0
 10
295.067035972678184
 20
8.4095580623148471
 30
0.0
 11
295.4677258896780927
 21
8.4095580623148471
 31
0.0
  0
ARC
  5
78F8
  8
0
 10
295.0670348503809919
 20
8.3895580888506593
 30
0.0
 40
0.0199999734956778
 50
89.9967848513137341
 51
179.0000000057015086
  0
ARC
  5
78F9
  8
0
 10
295.0673861177713206
 20
8.4295601845408523
 30
0.0
 40
0.0200051867057079
 50
180.0060781533886995
 51
268.9971170577916837
  0
LINE
  5
78FA
  8
0
 10
295.0473809311782247
 20
8.4295580623422666
 30
0.0
 11
295.0473809311782247
 21
8.4495580623148498
 31
0.0
  0
LINE
  5
78FB
  8
0
 10
295.0431090290513794
 20
8.1648209529148499
 30
0.0
 11
295.491652833305011
 21
8.1648209529148499
 31
0.0
  0
LINE
  5
78FC
  8
0
 10
294.5523809311782202
 20
7.0210934954158786
 30
0.0
 11
294.5523809311782202
 21
7.0260389749032859
 31
0.0
  0
ARC
  5
78FD
  8
0
 10
294.4923809311756031
 20
7.0210934954158786
 30
0.0
 40
0.0600000000024919
 50
269.9996001416799913
 51
359.9999999990160973
  0
ARC
  5
78FE
  8
0
 10
294.1773809311781065
 20
1.6460934954148521
 30
0.0
 40
0.0299999999999973
 50
89.9999999999902229
 51
180.0000000000050022
  0
LINE
  5
78FF
  8
0
 10
294.1473809311781906
 20
1.536093495414945
 30
0.0
 11
294.1473809311781906
 21
1.6460934954148521
 31
0.0
  0
ARC
  5
7900
  8
0
 10
294.1773809311782202
 20
1.5360934954149139
 30
0.0
 40
0.0300000000000864
 50
180.0000000001242029
 51
270.0000000003257128
  0
ARC
  5
7901
  8
0
 10
294.1773809311781065
 20
1.856093495414848
 30
0.0
 40
0.1799999999999994
 50
270.0
 51
0.0000000000001527
  0
LINE
  5
7902
  8
0
 10
294.357380931178227
 20
1.856093495414848
 30
0.0
 11
294.357380931178227
 21
4.7020934954148528
 31
0.0
  0
LINE
  5
7903
  8
0
 10
294.357380931178227
 20
5.5200934954148462
 30
0.0
 11
294.357380931178227
 21
6.9610934954148496
 31
0.0
  0
LINE
  5
7904
  8
0
 10
296.1661899947840766
 20
7.3500245521802787
 30
0.0
 11
296.1634126234068276
 21
7.429558062196846
 31
0.0
  0
LINE
  5
7905
  8
0
 10
296.150841146357493
 20
7.7895580621937617
 30
0.0
 11
296.1502783936780929
 21
7.8056731904148497
 31
0.0
  0
ARC
  5
7906
  8
0
 10
296.120296668863773
 20
7.8046262055109441
 30
0.0
 40
0.0300000000039056
 50
2.0000000051506279
 51
89.9999999725379354
  0
ARC
  5
7907
  8
0
 10
295.8415995267781113
 20
8.1709292855148519
 30
0.0
 40
0.3500000000000035
 50
180.9999984192002103
 51
253.9978619272002902
  0
LINE
  5
7908
  8
0
 10
295.4916528333048973
 20
8.1648209529168874
 30
0.0
 11
295.4877239393780997
 21
8.3899071365148501
 31
0.0
  0
ARC
  5
7909
  8
0
 10
295.4677270119752848
 20
8.3895580888506593
 30
0.0
 40
0.0199999734956778
 50
0.9999999942985212
 51
90.0032151486862944
  0
ARC
  5
790A
  8
0
 10
295.4673757445850129
 20
8.4295601845408523
 30
0.0
 40
0.0200051867057079
 50
271.0028829422083163
 51
359.9939218466111015
  0
LINE
  5
790B
  8
0
 10
295.4873809311782225
 20
8.4295580623422666
 30
0.0
 11
295.4873809311782225
 21
8.4495580623148463
 31
0.0
  0
ARC
  5
790C
  8
0
 10
296.0423809311806735
 20
7.0210934954158786
 30
0.0
 40
0.0600000000024919
 50
180.0000000009837891
 51
270.0003998583200087
  0
ARC
  5
790D
  8
0
 10
296.357380931178227
 20
1.6460934954148521
 30
0.0
 40
0.0299999999999973
 50
359.9999999999948841
 51
90.0000000000097771
  0
LINE
  5
790E
  8
0
 10
296.3873809311781997
 20
1.536093495414945
 30
0.0
 11
296.3873809311781997
 21
1.6460934954148521
 31
0.0
  0
ARC
  5
790F
  8
0
 10
296.3573809311779996
 20
1.536093495414945
 30
0.0
 40
0.0300000000002356
 50
270.0
 51
359.9999999998167937
  0
ARC
  5
7910
  8
0
 10
296.357380931178227
 20
1.856093495414848
 30
0.0
 40
0.1799999999999994
 50
179.999999999999801
 51
270.0
  0
LINE
  5
7911
  8
0
 10
296.1773809311782202
 20
1.856093495414848
 30
0.0
 11
296.1773809311782202
 21
2.7560934954148131
 31
0.0
  0
LINE
  5
7912
  8
0
 10
296.1773809311782202
 20
4.8810934954148797
 30
0.0
 11
296.1773809311782202
 21
6.9610934954148496
 31
0.0
  0
LINE
  5
7913
  8
0
 10
296.1365810962781779
 20
7.3192839315148488
 30
0.0
 11
295.9446257376782228
 21
7.3195525569148501
 31
0.0
  0
LINE
  5
7914
  8
0
 10
295.8957664340782117
 20
7.3093333137148484
 30
0.0
 11
295.2907085195781747
 21
7.0399441739148498
 31
0.0
  0
LINE
  5
7915
  8
0
 10
295.9723518469781993
 20
7.2910934954148479
 30
0.0
 11
295.854799131425807
 21
7.2910934954148479
 31
0.0
  0
LINE
  5
7916
  8
0
 10
295.9723518469781993
 20
7.2910934954148479
 30
0.0
 11
295.982380931178227
 21
7.2810639021148482
 31
0.0
  0
LINE
  5
7917
  8
0
 10
295.982380931178227
 20
7.2810639021148482
 30
0.0
 11
295.982380931178227
 21
7.0210934954158786
 31
0.0
  0
ARC
  5
7918
  8
0
 10
295.9441640615701772
 20
7.1998494592525262
 30
0.0
 40
0.1197039879652501
 50
89.7790202438726936
 51
113.8479519982059998
  0
ARC
  5
7919
  8
0
 10
296.1362213714584186
 20
7.3492601437886833
 30
0.0
 40
0.0299783706066856
 50
270.6875359864347956
 51
1.4611246259506669
  0
LINE
  5
791A
  8
0
 10
296.1544496996781959
 20
4.6780934946149344
 30
0.0
 11
296.1544496996781959
 21
2.9590934957148578
 31
0.0
  0
ARC
  5
791B
  8
0
 10
297.0822668214045734
 20
4.6760808426202436
 30
0.0
 40
0.9278193046799096
 50
167.2344677477761081
 51
179.8757122698613102
  0
ARC
  5
791C
  8
0
 10
297.0823113826215263
 20
2.9611111819266291
 30
0.0
 40
0.9278638767255309
 50
180.1245926243344115
 51
192.7652273895087944
  0
LINE
  5
791D
  8
0
 10
296.1544496996781959
 20
3.1465934954148489
 30
0.0
 11
296.6573809311781815
 21
3.1465934954148489
 31
0.0
  0
LINE
  5
791E
  8
0
 10
296.6573809311781815
 20
3.1465934954148489
 30
0.0
 11
296.6573809311781815
 21
2.7715934954148489
 31
0.0
  0
LINE
  5
791F
  8
0
 10
296.6573809311781815
 20
2.7715934954148489
 30
0.0
 11
296.1740083383509159
 21
2.7715934954148489
 31
0.0
  0
LINE
  5
7920
  8
0
 10
294.6423809311781952
 20
8.8545580623148492
 30
0.0
 11
292.0273809313384277
 21
8.8545580623148492
 31
0.0
  0
LINE
  5
7921
  8
0
 10
294.6423809311781952
 20
9.2945580623148487
 30
0.0
 11
292.0273809313384277
 21
9.2945580623148487
 31
0.0
  0
ARC
  5
7922
  8
0
 10
294.6423809311781952
 20
8.4495580623148463
 30
0.0
 40
0.8450000000000033
 50
0.0000000000002036
 51
90.0
  0
ARC
  5
7923
  8
0
 10
294.6423809311781952
 20
8.4495580623148498
 30
0.0
 40
0.4050000000000003
 50
0.0
 51
90.0
  0
LINE
  5
7924
  8
0
 10
294.3593812245626964
 20
5.5160934954148502
 30
0.0
 11
292.9780297869028232
 21
5.5160934954148502
 31
0.0
  0
LINE
  5
7925
  8
0
 10
294.3593812245626964
 20
4.7060934954148488
 30
0.0
 11
292.9780297868747994
 21
4.7060934954148488
 31
0.0
  0
ARC
  5
7926
  8
0
 10
293.5445004678305736
 20
5.111093495414849
 30
0.0
 40
0.9099756302738194
 50
333.2907907449719005
 51
26.7092092550280391
  0
ARC
  5
7927
  8
0
 10
292.9780297869028232
 20
3.7750934943809091
 30
0.0
 40
1.741000001033941
 50
90.0000000041036827
 51
117.4999999890584945
  0
LINE
  5
7928
  8
0
 10
292.1741254510782255
 20
5.3193793560148492
 30
0.0
 11
291.9523727427750828
 21
5.2039422027132298
 31
0.0
  0
LINE
  5
7929
  8
0
 10
292.3268508681782123
 20
4.484576417014849
 30
0.0
 11
291.9519109941782062
 21
5.2048292135148504
 31
0.0
  0
LINE
  5
792A
  8
0
 10
291.9519109941782062
 20
5.2048292135148504
 30
0.0
 11
291.8986903441781919
 21
5.1771242967148501
 31
0.0
  0
LINE
  5
792B
  8
0
 10
291.8986903441781919
 20
5.1771242967148501
 30
0.0
 11
292.273630218178198
 21
4.4568715002148478
 31
0.0
  0
LINE
  5
792C
  8
0
 10
291.9147148508782266
 20
5.0448252290148492
 30
0.0
 11
291.9562934836720274
 21
5.066469695311655
 31
0.0
  0
LINE
  5
792D
  8
0
 10
291.9147148508782266
 20
5.0448252290148492
 30
0.0
 11
292.1744484458782267
 21
4.545881635414851
 31
0.0
  0
LINE
  5
792E
  8
0
 10
291.986863071718119
 20
4.906229786335607
 30
0.0
 11
291.9037058060782215
 21
4.8629408538148491
 31
0.0
  0
LINE
  5
792F
  8
0
 10
291.9037058060782215
 20
4.8629408538148491
 30
0.0
 11
291.8681322757194039
 21
4.8741571449018313
 31
0.0
  0
LINE
  5
7930
  8
0
 10
292.0227446254781967
 20
4.5771495844148493
 30
0.0
 11
291.8533143234781733
 21
4.902622166314849
 31
0.0
  0
ARC
  5
7931
  8
0
 10
291.7147810024366095
 20
4.6250493751655251
 30
0.0
 40
0.3102227190668575
 50
63.476755197614871
 51
74.6316766594946017
  0
LINE
  5
7932
  8
0
 10
291.9037058060782215
 20
4.8629408538148491
 30
0.0
 11
292.0191429593782004
 21
4.6411881455148487
 31
0.0
  0
LINE
  5
7933
  8
0
 10
292.0177553178781977
 20
4.5001067323148494
 30
0.0
 11
291.7873427595782232
 21
4.9427251387148479
 31
0.0
  0
ARC
  5
7934
  8
0
 10
291.6205847231148027
 20
4.8559163991136991
 30
0.0
 40
0.1879999999900984
 50
27.5000001091007604
 51
117.5000000181978947
  0
LINE
  5
7935
  8
0
 10
291.5337759837781846
 20
5.0226744357148494
 30
0.0
 11
291.1186549138781743
 21
4.8065760847148491
 31
0.0
  0
LINE
  5
7936
  8
0
 10
291.1186549138781743
 20
4.8065760847148491
 30
0.0
 11
291.5226849504782081
 21
4.0304416057148478
 31
0.0
  0
LINE
  5
7937
  8
0
 10
291.4228773699782096
 20
4.0207618909148488
 30
0.0
 11
291.0534784793782137
 21
4.7303705575148491
 31
0.0
  0
LINE
  5
7938
  8
0
 10
291.0534784793782137
 20
4.7303705575148491
 30
0.0
 11
290.8618841394780929
 21
4.6306328570148496
 31
0.0
  0
ARC
  5
7939
  8
0
 10
290.9395195177049231
 20
4.4595938915571143
 30
0.0
 40
0.1878339150879182
 50
114.4135179436985936
 51
144.0256802248605084
  0
LINE
  5
793A
  8
0
 10
290.7875092190781743
 20
4.5699317761148492
 30
0.0
 11
291.1388999137781752
 21
3.8949165321148498
 31
0.0
  0
LINE
  5
793B
  8
0
 10
291.0650221948342278
 20
4.7081952864439929
 30
0.0
 11
291.1093727363783046
 21
4.7312827172146408
 31
0.0
  0
ARC
  5
793C
  8
0
 10
292.9780297868747994
 20
3.7750934946135639
 30
0.0
 40
0.9310000008012853
 50
90.0000000059470864
 51
117.4999999864559044
  0
LINE
  5
793D
  8
0
 10
292.5481418277781813
 20
4.6009005811148489
 30
0.0
 11
292.3263891195812789
 21
4.4854634278164642
 31
0.0
  0
LINE
  5
793E
  8
0
 10
292.3268508681782123
 20
4.484576417014849
 30
0.0
 11
292.273630218178198
 21
4.4568715002148478
 31
0.0
  0
LINE
  5
793F
  8
0
 10
292.1744484458782267
 20
4.545881635414851
 30
0.0
 11
292.2160270786843057
 21
4.5675261016180437
 31
0.0
  0
LINE
  5
7940
  8
0
 10
292.1023002250781815
 20
4.6844770780148499
 30
0.0
 11
292.0191429593782004
 21
4.6411881455148487
 31
0.0
  0
LINE
  5
7941
  8
0
 10
292.0191429593782004
 20
4.6411881455148487
 30
0.0
 11
292.0079266683873129
 21
4.6056146151438169
 31
0.0
  0
ARC
  5
7942
  8
0
 10
291.7159504056626815
 20
4.6229015630799486
 30
0.0
 40
0.3101869385773644
 50
340.3629851647623923
 51
351.5180355000886721
  0
ARC
  5
7943
  8
0
 10
291.8509972811136777
 20
4.4132979933324723
 30
0.0
 40
0.1879999999714124
 50
297.4999999963876007
 51
27.4999998994643704
  0
LINE
  5
7944
  8
0
 10
291.9378060203781047
 20
4.246539956714849
 30
0.0
 11
291.5226849504782081
 21
4.0304416057148478
 31
0.0
  0
LINE
  5
7945
  8
0
 10
291.4556841962624958
 20
4.0660245924450971
 30
0.0
 11
291.4113336546254232
 21
4.0429371617873917
 31
0.0
  0
LINE
  5
7946
  8
0
 10
291.4228773699782096
 20
4.0207618909148488
 30
0.0
 11
291.2312830300782025
 21
3.9210241905148489
 31
0.0
  0
ARC
  5
7947
  8
0
 10
291.1357059354244825
 20
4.0827232898407848
 30
0.0
 40
0.1878339153221599
 50
270.9743197832647752
 51
300.5864820225378935
  0
LINE
  5
7948
  8
0
 10
292.0173809311781952
 20
9.2845601905412707
 30
0.0
 11
292.0173809311781952
 21
8.8645559340884201
 31
0.0
  0
ARC
  5
7949
  8
0
 10
292.0273809313384277
 20
9.2845580619280632
 30
0.0
 40
0.0100000003867837
 50
90.0000009180743774
 51
179.9878039450690039
  0
ARC
  5
794A
  8
0
 10
292.0273809313384277
 20
8.8645580627016312
 30
0.0
 40
0.0100000003867858
 50
180.0121960549462017
 51
269.9999990819126197
  0
LINE
  5
794B
  8
0
 10
291.1093727363781909
 20
4.7312827172148486
 30
0.0
 11
291.4556841962781846
 21
4.0660245924148484
 31
0.0
  0
LINE
  5
794C
  8
0
 10
291.4556841962781846
 20
4.0660245924148484
 30
0.0
 11
291.4894031824782132
 21
4.0553930369148476
 31
0.0
  0
LINE
  5
794D
  8
0
 10
291.4894031824782132
 20
4.0553930369148476
 30
0.0
 11
291.5053693774980275
 21
4.063704511925156
 31
0.0
  0
LINE
  5
794E
  8
0
 10
291.4894031824782132
 20
4.0553930369148476
 30
0.0
 11
291.1200042918782174
 21
4.7650017034148489
 31
0.0
  0
LINE
  5
794F
  8
0
 10
291.1200042918782174
 20
4.7650017034148489
 30
0.0
 11
291.1093727363781909
 21
4.7312827172148486
 31
0.0
  0
LINE
  5
7950
  8
0
 10
291.1200042918782174
 20
4.7650017034148489
 30
0.0
 11
291.1359704868992822
 21
4.7733131784258616
 31
0.0
  0
ARC
  5
7951
  8
0
 10
296.1453607928658016
 20
7.759558062279817
 30
0.0
 40
0.0200000000350311
 50
12.19663807514479
 51
79.1063731739870803
  0
ARC
  5
7952
  8
0
 10
296.1453607928658016
 20
7.4595580623498794
 30
0.0
 40
0.0200000000350311
 50
315.6946581080929946
 51
347.80336192485521
  0
ARC
  5
7953
  8
0
 10
295.4513867299780827
 20
7.6095580623148482
 30
0.0
 40
0.730000000000006
 50
347.8033527456997831
 51
12.1966472543001405
  0
ARC
  5
7954
  8
0
 10
297.0294351274492897
 20
7.6400197373381591
 30
0.0
 40
0.8912289796742559
 50
170.3407144972393041
 51
193.6592854973459907
  0
LINE
  5
7955
  8
0
 10
296.1413163038782272
 20
7.7144109292219021
 30
0.0
 11
296.1413163038782272
 21
7.5656285454544081
 31
0.0
  0
LINE
  5
7A66
  8
0
 10
294.357380931178227
 20
1.856093495414848
 30
0.0
 11
296.1773809311782202
 21
1.856093495414848
 31
0.0
  0
ENDSEC
  0
EOF
