  0
SECTION
  2
HEADER
  9
$ACADVER
  1
AC1009
  9
$INSBASE
 10
265.8264889190720055
 20
-9.7683444222975453
 30
0.0
  9
$EXTMIN
 10
257.2851090358302031
 20
-9.7697050175133953
 30
-0.0015258207003583
  9
$EXTMAX
 10
265.8446467292571924
 20
-2.2683221202446751
 30
0.0000000349246037
  9
$LIMMIN
 10
0.0
 20
0.0
  9
$LIMMAX
 10
22.0
 20
17.0
  9
$ORTHOMODE
 70
     0
  9
$REGENMODE
 70
     1
  9
$FILLMODE
 70
     1
  9
$QTEXTMODE
 70
     0
  9
$MIRRTEXT
 70
     0
  9
$DRAGMODE
 70
     2
  9
$LTSCALE
 40
1.2099999999999991
  9
$OSMODE
 70
     7
  9
$ATTMODE
 70
     1
  9
$TEXTSIZE
 40
0.2
  9
$TRACEWID
 40
0.05
  9
$TEXTSTYLE
  7
STANDARD
  9
$CLAYER
  8
0
  9
$CELTYPE
  6
BYLAYER
  9
$CECOLOR
 62
   256
  9
$DIMSCALE
 40
1.0
  9
$DIMASZ
 40
0.1875
  9
$DIMEXO
 40
0.0625
  9
$DIMDLI
 40
0.38
  9
$DIMRND
 40
0.0
  9
$DIMDLE
 40
0.0
  9
$DIMEXE
 40
0.125
  9
$DIMTP
 40
1.5
  9
$DIMTM
 40
1.5
  9
$DIMTXT
 40
1.5
  9
$DIMCEN
 40
0.09
  9
$DIMTSZ
 40
0.0
  9
$DIMTOL
 70
     0
  9
$DIMLIM
 70
     0
  9
$DIMTIH
 70
     1
  9
$DIMTOH
 70
     1
  9
$DIMSE1
 70
     0
  9
$DIMSE2
 70
     0
  9
$DIMTAD
 70
     0
  9
$DIMZIN
 70
     4
  9
$DIMBLK
  1

  9
$DIMASO
 70
     1
  9
$DIMSHO
 70
     1
  9
$DIMPOST
  1

  9
$DIMAPOST
  1

  9
$DIMALT
 70
     0
  9
$DIMALTD
 70
     2
  9
$DIMALTF
 40
25.3999999999999986
  9
$DIMLFAC
 40
1.0
  9
$DIMTOFL
 70
     0
  9
$DIMTVP
 40
0.0
  9
$DIMTIX
 70
     0
  9
$DIMSOXD
 70
     0
  9
$DIMSAH
 70
     0
  9
$DIMBLK1
  1

  9
$DIMBLK2
  1

  9
$DIMSTYLE
  2
STANDARD
  9
$DIMCLRD
 70
     0
  9
$DIMCLRE
 70
     0
  9
$DIMCLRT
 70
     0
  9
$DIMTFAC
 40
1.0
  9
$DIMGAP
 40
0.09
  9
$LUNITS
 70
     2
  9
$LUPREC
 70
     4
  9
$SKETCHINC
 40
0.1
  9
$FILLETRAD
 40
0.0
  9
$AUNITS
 70
     0
  9
$AUPREC
 70
     0
  9
$MENU
  1
.
  9
$ELEVATION
 40
0.0
  9
$PELEVATION
 40
0.0
  9
$THICKNESS
 40
0.0
  9
$LIMCHECK
 70
     0
  9
$BLIPMODE
 70
     0
  9
$CHAMFERA
 40
0.0
  9
$CHAMFERB
 40
0.0
  9
$SKPOLY
 70
     0
  9
$TDCREATE
 40
2457827.4934837957844138
  9
$TDUPDATE
 40
2459423.0473726848140359
  9
$TDINDWG
 40
0.3627103009
  9
$TDUSRTIMER
 40
0.3627103009
  9
$USRTIMER
 70
     1
  9
$ANGBASE
 50
0.0
  9
$ANGDIR
 70
     0
  9
$PDMODE
 70
     0
  9
$PDSIZE
 40
0.3125
  9
$PLINEWID
 40
0.0
  9
$COORDS
 70
     1
  9
$SPLFRAME
 70
     0
  9
$SPLINETYPE
 70
     6
  9
$SPLINESEGS
 70
     8
  9
$ATTDIA
 70
     1
  9
$ATTREQ
 70
     1
  9
$HANDLING
 70
     1
  9
$HANDSEED
  5
5783
  9
$SURFTAB1
 70
     6
  9
$SURFTAB2
 70
     6
  9
$SURFTYPE
 70
     6
  9
$SURFU
 70
     6
  9
$SURFV
 70
     6
  9
$UCSNAME
  2

  9
$UCSORG
 10
0.0
 20
0.0
 30
0.0
  9
$UCSXDIR
 10
1.0
 20
0.0
 30
0.0
  9
$UCSYDIR
 10
0.0
 20
1.0
 30
0.0
  9
$PUCSNAME
  2

  9
$PUCSORG
 10
0.0
 20
0.0
 30
0.0
  9
$PUCSXDIR
 10
1.0
 20
0.0
 30
0.0
  9
$PUCSYDIR
 10
0.0
 20
1.0
 30
0.0
  9
$USERI1
 70
     0
  9
$USERI2
 70
     0
  9
$USERI3
 70
     0
  9
$USERI4
 70
     0
  9
$USERI5
 70
     0
  9
$USERR1
 40
0.0
  9
$USERR2
 40
0.0
  9
$USERR3
 40
0.0
  9
$USERR4
 40
0.0
  9
$USERR5
 40
0.0
  9
$WORLDVIEW
 70
     1
  9
$SHADEDGE
 70
     3
  9
$SHADEDIF
 70
    70
  9
$TILEMODE
 70
     1
  9
$MAXACTVP
 70
    48
  9
$PLIMCHECK
 70
     0
  9
$PEXTMIN
 10
1.0000000000000000E+20
 20
1.0000000000000000E+20
 30
1.0000000000000000E+20
  9
$PEXTMAX
 10
-1.0000000000000000E+20
 20
-1.0000000000000000E+20
 30
-1.0000000000000000E+20
  9
$PLIMMIN
 10
0.0
 20
0.0
  9
$PLIMMAX
 10
12.0
 20
9.0
  9
$UNITMODE
 70
     0
  9
$VISRETAIN
 70
     1
  9
$PLINEGEN
 70
     0
  9
$PSLTSCALE
 70
     1
  0
ENDSEC
  0
SECTION
  2
TABLES
  0
TABLE
  2
VPORT
 70
     1
  0
VPORT
  2
*ACTIVE
 70
     0
 10
0.0
 20
0.0
 11
1.0
 21
1.0
 12
50.5859502702389818
 22
-13.2214627544395906
 13
0.0
 23
0.0
 14
1.0
 24
1.0
 15
0.0
 25
0.0
 16
-0.0000000000000284
 26
0.0
 36
157.2215818301446859
 17
210.9789276123046875
 27
7.2024491855605604
 37
0.0
 40
7.5562042095508293
 41
2.23170731707317
 42
50.0
 43
0.0
 44
0.0
 50
0.0
 51
0.0
 71
     0
 72
   100
 73
     1
 74
     1
 75
     0
 76
     0
 77
     0
 78
     0
  0
ENDTAB
  0
TABLE
  2
LTYPE
 70
     2
  0
LTYPE
  2
CONTINUOUS
 70
     0
  3
Solid line
 72
    65
 73
     0
 40
0.0
  0
LTYPE
  2
PHANTOM2
 70
     0
  3
___ _ _ ___ _ _ ___ _ _ ___ _ _
 72
    65
 73
     6
 40
1.25
 49
0.625
 49
-0.125
 49
0.125
 49
-0.125
 49
0.125
 49
-0.125
  0
ENDTAB
  0
TABLE
  2
LAYER
 70
     2
  0
LAYER
  2
0
 70
     0
 62
     7
  6
CONTINUOUS
  0
LAYER
  2
DEFPOINTS
 70
     0
 62
     7
  6
CONTINUOUS
  0
ENDTAB
  0
TABLE
  2
STYLE
 70
     1
  0
STYLE
  2
STANDARD
 70
     0
 40
0.0
 41
0.8
 50
0.0
 71
     0
 42
0.2
  3
txt
  4

  0
ENDTAB
  0
TABLE
  2
VIEW
 70
     0
  0
ENDTAB
  0
TABLE
  2
UCS
 70
     0
  0
ENDTAB
  0
TABLE
  2
APPID
 70
     9
  0
APPID
  2
ACAD
 70
     0
  0
APPID
  2
ACAD_MLEADERVER
 70
     0
  0
APPID
  2
ACAD_EXEMPT_FROM_CAD_STANDARDS
 70
     0
  0
APPID
  2
ACAD_NAV_VCDISPLAY
 70
     0
  0
APPID
  2
ACADANNOMONITORALERTICONDI
 70
     0
  0
APPID
  2
ACAD_DSTYLE_DIMJAG
 70
     0
  0
APPID
  2
ACAD_DSTYLE_DIMTALN
 70
     0
  0
APPID
  2
ACDBATTR
 70
     0
  0
APPID
  2
DCO15
 70
     0
  0
ENDTAB
  0
TABLE
  2
DIMSTYLE
 70
     1
  0
DIMSTYLE
  2
STANDARD
 70
     0
  3

  4

  5

  6

  7

 40
1.0
 41
0.1875
 42
0.0625
 43
0.38
 44
0.125
 45
0.0
 46
0.0
 47
1.5
 48
1.5
140
1.5
141
0.09
142
0.0
143
25.3999999999999986
144
1.0
145
0.0
146
1.0
147
0.09
 71
     0
 72
     0
 73
     1
 74
     1
 75
     0
 76
     0
 77
     0
 78
     4
170
     0
171
     2
172
     0
173
     0
174
     0
175
     0
176
     0
177
     0
178
     0
  0
ENDTAB
  0
ENDSEC
  0
SECTION
  2
BLOCKS
  0
BLOCK
  8
0
  2
$MODEL_SPACE
 70
     0
 10
0.0
 20
0.0
 30
0.0
  3
$MODEL_SPACE
  1

  0
ENDBLK
  5
21
  8
0
  0
BLOCK
 67
     1
  8
0
  2
$PAPER_SPACE
 70
     0
 10
0.0
 20
0.0
 30
0.0
  3
$PAPER_SPACE
  1

  0
ENDBLK
  5
1D
 67
     1
  8
0
  0
ENDSEC
  0
SECTION
  2
ENTITIES
  0
ATTDEF
  5
4EF9
  8
DEFPOINTS
 10
265.826486125422889
 20
-9.7650074480361191
 30
0.0
 40
0.001
  1
K-14426BR
  3

  2
MODELNUMBER
 70
     0
1001
ACDBATTR
1070
     0
1070
     1
  0
ATTDEF
  5
4EFA
  8
DEFPOINTS
 10
265.826486125422889
 20
-9.7666741147027984
 30
0.0
 40
0.001
  1
PURIST
  3

  2
TRADENAME
 70
     0
1001
ACDBATTR
1070
     0
1070
     1
  0
ATTDEF
  5
4EFB
  8
DEFPOINTS
 10
265.826486125422889
 20
-9.7683407813694778
 30
0.0
 40
0.001
  1
BATH SPOUT
  3

  2
PRODUCT
 70
     0
1001
ACDBATTR
1070
     0
1070
     1
  0
LINE
  5
565A
  8
0
 10
259.797281185225188
 20
-3.6433444222975448
 30
0.0
 11
264.9272811850719904
 21
-3.6433444222975448
 31
0.0
  0
LINE
  5
565B
  8
0
 10
259.797281185241502
 20
-4.8933444222975453
 30
0.0
 11
264.9272811850719904
 21
-4.8933444222975453
 31
0.0
  0
LINE
  5
565C
  8
0
 10
257.6149887368720215
 20
-5.003012126697544
 30
0.0
 11
257.2937859325720069
 21
-5.4617372714975438
 31
0.0
  0
LINE
  5
565D
  8
0
 10
257.2937859325720069
 20
-5.4617372714975438
 30
0.0
 11
257.2962416886720121
 21
-5.475664556297545
 31
0.0
  0
LINE
  5
565E
  8
0
 10
257.2962416886720121
 20
-5.475664556297545
 30
0.0
 11
258.2956071826719722
 21
-6.1754278086975454
 31
0.0
  0
LINE
  5
565F
  8
0
 10
258.2956071826719722
 20
-6.1754278086975454
 30
0.0
 11
258.3095344674720195
 21
-6.1729720525975447
 31
0.0
  0
LINE
  5
5660
  8
0
 10
258.3095344674720195
 20
-6.1729720525975447
 30
0.0
 11
258.6307372717719772
 21
-5.714246907797544
 31
0.0
  0
LINE
  5
5661
  8
0
 10
257.2937859325720069
 20
-5.4617372714975438
 30
0.0
 11
258.3095344674720195
 21
-6.1729720525975447
 31
0.0
  0
LINE
  5
5662
  8
0
 10
258.6348330320719811
 20
-5.7171147899975452
 30
0.0
 11
257.6108929766720053
 21
-5.0001442444975437
 31
0.0
  0
LINE
  5
5663
  8
0
 10
257.6108929766720053
 20
-5.0001442444975437
 30
0.0
 11
257.8517950799720211
 21
-4.6561003858975436
 31
0.0
  0
LINE
  5
5664
  8
0
 10
258.6348330320719811
 20
-5.7171147899975452
 30
0.0
 11
258.8757351352720093
 21
-5.3730709313975451
 31
0.0
  0
ARC
  5
5665
  8
0
 10
259.797281185241502
 20
-6.0183444225818672
 30
0.0
 40
1.125000000284321
 50
90.0000000035434766
 51
144.9999999921473091
  0
ARC
  5
5666
  8
0
 10
259.797281185225188
 20
-6.0183444225151908
 30
0.0
 40
2.375000000217645
 50
90.000000001283226
 51
144.9999999953157896
  0
LINE
  5
5667
  8
0
 10
265.8264889190720055
 20
-2.2842138505975451
 30
0.0
 11
265.8264889190720055
 21
-6.2524749939975406
 31
0.0
  0
LINE
  5
5668
  8
0
 10
265.5664889190720146
 20
-2.2683444222975448
 30
0.0
 11
265.7364889190719737
 21
-2.2683444222975448
 31
0.0
  0
LINE
  5
5669
  8
0
 10
265.7364889190719737
 20
-2.2683444222975448
 30
0.0
 11
265.8264889190720055
 21
-2.2842138505975451
 31
0.0
  0
LINE
  5
566A
  8
0
 10
265.4864889190719737
 20
-2.34834442229754
 30
0.0
 11
265.4864889190719737
 21
-6.1883444222975497
 31
0.0
  0
ARC
  5
566B
  8
0
 10
265.5664889190720146
 20
-2.34834442229754
 30
0.0
 40
0.0799999999999943
 50
89.9999999999967457
 51
180.0000000000040075
  0
ARC
  5
566C
  8
0
 10
263.5283744998571933
 20
-2.7636631742579629
 30
0.0
 40
2.0000000135973739
 50
340.0628612775856254
 51
348.2533008914539892
  0
ARC
  5
566D
  8
0
 10
265.1264889192991063
 20
-3.3433444226215938
 30
0.0
 40
0.2999999996759438
 50
269.9999999566117026
 51
340.0628612775851138
  0
LINE
  5
566E
  8
0
 10
265.1264889192991063
 20
-3.6433444222975409
 30
0.0
 11
264.963488919072006
 21
-3.6433444222975409
 31
0.0
  0
LINE
  5
566F
  8
0
 10
264.9272811850719904
 20
-3.6433444222975409
 30
0.0
 11
264.9272811850719904
 21
-4.8933444222975409
 31
0.0
  0
ARC
  5
5670
  8
0
 10
264.963488919072006
 20
-3.6833444222975329
 30
0.0
 40
0.0399999999999903
 50
89.9999999999902229
 51
154.8493365875079064
  0
LINE
  5
5671
  8
0
 10
265.7364889190719737
 20
-2.2683444222975448
 30
0.0
 11
265.7364889190719737
 21
-6.2683444222975453
 31
0.0
  0
LINE
  5
5673
  8
0
 10
265.5664889190720146
 20
-6.2683444222975453
 30
0.0
 11
265.7364889190719737
 21
-6.2683444222975453
 31
0.0
  0
LINE
  5
5674
  8
0
 10
265.7364889190719737
 20
-6.2683444222975453
 30
0.0
 11
265.8264889190720055
 21
-6.2524749939975406
 31
0.0
  0
ARC
  5
5675
  8
0
 10
265.5664889190720146
 20
-6.1883444222975497
 30
0.0
 40
0.0799999999999943
 50
179.9999999999959073
 51
270.0000000000032969
  0
ARC
  5
5676
  8
0
 10
263.5283744998571933
 20
-5.7730256703371232
 30
0.0
 40
2.0000000135973739
 50
11.7466991085458901
 51
19.9371387224141614
  0
ARC
  5
5677
  8
0
 10
265.1264889192991063
 20
-5.1933444219734879
 30
0.0
 40
0.2999999996759438
 50
19.9371387224149217
 51
90.0000000433882548
  0
LINE
  5
5678
  8
0
 10
265.1264889192991063
 20
-4.8933444222975409
 30
0.0
 11
264.963488919072006
 21
-4.8933444222975409
 31
0.0
  0
ARC
  5
5679
  8
0
 10
264.963488919072006
 20
-4.8533444222975533
 30
0.0
 40
0.0399999999999903
 50
205.1506634124920083
 51
270.0000000000097771
  0
LINE
  5
567A
  8
0
 10
265.1264889190720169
 20
-3.6433444222975409
 30
0.0
 11
265.1264889190720169
 21
-4.8933444222975409
 31
0.0
  0
ENDSEC
  0
EOF
