  0
SECTION
  2
HEADER
  9
$ACADVER
  1
AC1009
  9
$INSBASE
 10
3435.7935170937248586
 20
183.0850146956321112
 30
0.0
  9
$EXTMIN
 10
3427.0396875228248064
 20
181.9265157935165007
 30
0.0
  9
$EXTMAX
 10
3435.8059175330017752
 20
184.0750146956320918
 30
0.0
  9
$LIMMIN
 10
0.0
 20
0.0
  9
$LIMMAX
 10
11.6929133858000007
 20
8.2677165353999982
  9
$ORTHOMODE
 70
     0
  9
$REGENMODE
 70
     1
  9
$FILLMODE
 70
     1
  9
$QTEXTMODE
 70
     0
  9
$MIRRTEXT
 70
     0
  9
$DRAGMODE
 70
     2
  9
$LTSCALE
 40
0.6431102362
  9
$OSMODE
 70
  4095
  9
$ATTMODE
 70
     1
  9
$TEXTSIZE
 40
0.2
  9
$TRACEWID
 40
0.05
  9
$TEXTSTYLE
  7
STANDARD
  9
$CLAYER
  8
0
  9
$CELTYPE
  6
BYLAYER
  9
$CECOLOR
 62
   256
  9
$DIMSCALE
 40
1.0
  9
$DIMASZ
 40
0.1875
  9
$DIMEXO
 40
0.0625
  9
$DIMDLI
 40
0.4443307087
  9
$DIMRND
 40
0.0
  9
$DIMDLE
 40
0.0
  9
$DIMEXE
 40
0.125
  9
$DIMTP
 40
0.01
  9
$DIMTM
 40
0.01
  9
$DIMTXT
 40
2.0
  9
$DIMCEN
 40
0.1052362205
  9
$DIMTSZ
 40
0.0
  9
$DIMTOL
 70
     1
  9
$DIMLIM
 70
     0
  9
$DIMTIH
 70
     1
  9
$DIMTOH
 70
     1
  9
$DIMSE1
 70
     0
  9
$DIMSE2
 70
     0
  9
$DIMTAD
 70
     0
  9
$DIMZIN
 70
     0
  9
$DIMBLK
  1

  9
$DIMASO
 70
     1
  9
$DIMSHO
 70
     1
  9
$DIMPOST
  1
\X
  9
$DIMAPOST
  1

  9
$DIMALT
 70
     1
  9
$DIMALTD
 70
     2
  9
$DIMALTF
 40
25.3999999999999986
  9
$DIMLFAC
 40
1.0
  9
$DIMTOFL
 70
     0
  9
$DIMTVP
 40
0.0
  9
$DIMTIX
 70
     0
  9
$DIMSOXD
 70
     0
  9
$DIMSAH
 70
     0
  9
$DIMBLK1
  1

  9
$DIMBLK2
  1

  9
$DIMSTYLE
  2
STANDARD
  9
$DIMCLRD
 70
     0
  9
$DIMCLRE
 70
     0
  9
$DIMCLRT
 70
     0
  9
$DIMTFAC
 40
1.0
  9
$DIMGAP
 40
0.09
  9
$LUNITS
 70
     2
  9
$LUPREC
 70
     4
  9
$SKETCHINC
 40
0.1
  9
$FILLETRAD
 40
0.0
  9
$AUNITS
 70
     0
  9
$AUPREC
 70
     0
  9
$MENU
  1
.
  9
$ELEVATION
 40
0.0
  9
$PELEVATION
 40
0.0
  9
$THICKNESS
 40
0.0
  9
$LIMCHECK
 70
     0
  9
$BLIPMODE
 70
     0
  9
$CHAMFERA
 40
0.0
  9
$CHAMFERB
 40
0.0
  9
$SKPOLY
 70
     0
  9
$TDCREATE
 40
2458060.468368056230247
  9
$TDUPDATE
 40
2459121.7478703698143363
  9
$TDINDWG
 40
0.5412686343000001
  9
$TDUSRTIMER
 40
0.5412686343000001
  9
$USRTIMER
 70
     1
  9
$ANGBASE
 50
0.0
  9
$ANGDIR
 70
     0
  9
$PDMODE
 70
     0
  9
$PDSIZE
 40
0.3125
  9
$PLINEWID
 40
0.0
  9
$COORDS
 70
     1
  9
$SPLFRAME
 70
     0
  9
$SPLINETYPE
 70
     6
  9
$SPLINESEGS
 70
     8
  9
$ATTDIA
 70
     1
  9
$ATTREQ
 70
     1
  9
$HANDLING
 70
     1
  9
$HANDSEED
  5
BCE3
  9
$SURFTAB1
 70
     6
  9
$SURFTAB2
 70
     6
  9
$SURFTYPE
 70
     6
  9
$SURFU
 70
     6
  9
$SURFV
 70
     6
  9
$UCSNAME
  2

  9
$UCSORG
 10
0.0
 20
0.0
 30
0.0
  9
$UCSXDIR
 10
1.0
 20
0.0
 30
0.0
  9
$UCSYDIR
 10
0.0
 20
1.0
 30
0.0
  9
$PUCSNAME
  2

  9
$PUCSORG
 10
0.0
 20
0.0
 30
0.0
  9
$PUCSXDIR
 10
1.0
 20
0.0
 30
0.0
  9
$PUCSYDIR
 10
0.0
 20
1.0
 30
0.0
  9
$USERI1
 70
     0
  9
$USERI2
 70
     0
  9
$USERI3
 70
     0
  9
$USERI4
 70
     0
  9
$USERI5
 70
     0
  9
$USERR1
 40
0.0
  9
$USERR2
 40
0.0
  9
$USERR3
 40
0.0
  9
$USERR4
 40
0.0
  9
$USERR5
 40
0.0
  9
$WORLDVIEW
 70
     1
  9
$SHADEDGE
 70
     3
  9
$SHADEDIF
 70
    70
  9
$TILEMODE
 70
     1
  9
$MAXACTVP
 70
    64
  9
$PLIMCHECK
 70
     0
  9
$PEXTMIN
 10
1.0000000000000000E+20
 20
1.0000000000000000E+20
 30
1.0000000000000000E+20
  9
$PEXTMAX
 10
-1.0000000000000000E+20
 20
-1.0000000000000000E+20
 30
-1.0000000000000000E+20
  9
$PLIMMIN
 10
0.0
 20
0.0
  9
$PLIMMAX
 10
12.0
 20
9.0
  9
$UNITMODE
 70
     0
  9
$VISRETAIN
 70
     1
  9
$PLINEGEN
 70
     0
  9
$PSLTSCALE
 70
     1
  0
ENDSEC
  0
SECTION
  2
TABLES
  0
TABLE
  2
VPORT
 70
     1
  0
VPORT
  2
*ACTIVE
 70
     0
 10
0.0
 20
0.0
 11
1.0
 21
1.0
 12
0.0
 22
0.0
 13
0.0
 23
0.0
 14
1.0
 24
1.0
 15
0.0
 25
0.0
 16
0.0
 26
0.0
 36
24.4167667300983595
 17
3431.4228025279130634
 27
183.0007652445742963
 37
0.0
 40
9.0299537053652745
 41
1.9968652037617549
 42
50.0
 43
0.0
 44
0.0
 50
0.0
 51
0.0
 71
     0
 72
   100
 73
     1
 74
     1
 75
     0
 76
     0
 77
     0
 78
     0
  0
ENDTAB
  0
TABLE
  2
LTYPE
 70
     2
  0
LTYPE
  2
CONTINUOUS
 70
     0
  3
Solid line
 72
    65
 73
     0
 40
0.0
  0
LTYPE
  2
PHANTOM2
 70
     0
  3
___ _ _ ___ _ _ ___ _ _ ___ _ _
 72
    65
 73
     6
 40
1.25
 49
0.625
 49
-0.125
 49
0.125
 49
-0.125
 49
0.125
 49
-0.125
  0
ENDTAB
  0
TABLE
  2
LAYER
 70
     2
  0
LAYER
  2
0
 70
     0
 62
   255
  6
CONTINUOUS
  0
LAYER
  2
DEFPOINTS
 70
     0
 62
     7
  6
CONTINUOUS
  0
ENDTAB
  0
TABLE
  2
STYLE
 70
     1
  0
STYLE
  2
STANDARD
 70
     0
 40
0.0
 41
0.8
 50
0.0
 71
     0
 42
0.2
  3
txt
  4

  0
ENDTAB
  0
TABLE
  2
VIEW
 70
     0
  0
ENDTAB
  0
TABLE
  2
UCS
 70
     0
  0
ENDTAB
  0
TABLE
  2
APPID
 70
     9
  0
APPID
  2
ACAD
 70
     0
  0
APPID
  2
ACAD_MLEADERVER
 70
     0
  0
APPID
  2
ACAD_EXEMPT_FROM_CAD_STANDARDS
 70
     0
  0
APPID
  2
ACAD_NAV_VCDISPLAY
 70
     0
  0
APPID
  2
ACAECLAYERSTANDARD
 70
     0
  0
APPID
  2
ACCMTRANSPARENCY
 70
     0
  0
APPID
  2
ACAD_DSTYLE_DIMJAG
 70
     0
  0
APPID
  2
ACAD_DSTYLE_DIMTALN
 70
     0
  0
APPID
  2
ACDBATTR
 70
     0
  0
ENDTAB
  0
TABLE
  2
DIMSTYLE
 70
     1
  0
DIMSTYLE
  2
STANDARD
 70
     0
  3

  4

  5

  6

  7

 40
1.0
 41
0.1875
 42
0.0625
 43
0.38
 44
0.125
 45
0.0
 46
0.0
 47
0.01
 48
0.01
140
0.15625
141
0.09
142
0.0
143
25.3999999999999986
144
1.0
145
0.0
146
1.0
147
0.09
 71
     1
 72
     0
 73
     1
 74
     1
 75
     0
 76
     0
 77
     0
 78
     4
170
     0
171
     2
172
     0
173
     0
174
     0
175
     0
176
     0
177
     0
178
     0
  0
ENDTAB
  0
ENDSEC
  0
SECTION
  2
BLOCKS
  0
BLOCK
  8
0
  2
$MODEL_SPACE
 70
     0
 10
0.0
 20
0.0
 30
0.0
  3
$MODEL_SPACE
  1

  0
ENDBLK
  5
21
  8
0
  0
BLOCK
 67
     1
  8
0
  2
$PAPER_SPACE
 70
     0
 10
0.0
 20
0.0
 30
0.0
  3
$PAPER_SPACE
  1

  0
ENDBLK
  5
1D
 67
     1
  8
0
  0
BLOCK
  8
0
  2
_FILLED
 70
     0
 10
0.0
 20
0.0
 30
0.0
  3
_FILLED
  1

  0
SOLID
  5
A467
  8
0
  6
BYBLOCK
 62
     0
 10
0.0
 20
0.0
 30
0.0
 11
-1.0
 21
0.1666666667
 31
0.0
 12
-1.0
 22
-0.1666666667
 32
0.0
 13
-1.0
 23
-0.1666666667
 33
0.0
  0
ENDBLK
  5
A468
  8
0
  6
BYBLOCK
 62
     0
  0
ENDSEC
  0
SECTION
  2
ENTITIES
  0
ATTDEF
  5
9F01
  8
DEFPOINTS
 10
3435.7952508663338449
 20
183.0860368594580905
 30
0.0
 40
0.001
  1
K-14415BR-4ND
  3

  2
MODELNUMBER
 70
     0
1001
ACDBATTR
1070
     0
1070
     1
  0
ATTDEF
  5
9F02
  8
DEFPOINTS
 10
3435.7952508663338449
 20
183.0843701927913969
 30
0.0
 40
0.001
  1
PURIST
  3

  2
TRADENAME
 70
     0
1001
ACDBATTR
1070
     0
1070
     1
  0
ATTDEF
  5
9F03
  8
DEFPOINTS
 10
3435.7952508663338449
 20
183.0827035261247033
 30
0.0
 40
0.001
  1
BATHROOM SINK FAUCET
  3

  2
PRODUCT
 70
     0
1001
ACDBATTR
1070
     0
1070
     1
  0
LINE
  5
BBE8
  8
0
 10
3435.7935170937248586
 20
182.0950146956321021
 30
0.0
 11
3435.7935170937248586
 21
184.0750146956320918
 31
0.0
  0
LINE
  5
BBE9
  8
0
 10
3435.7935170937248586
 20
184.0750146956320918
 30
0.0
 11
3435.6135170937250223
 21
184.0750146956320918
 31
0.0
  0
ARC
  5
BBEA
  8
0
 10
3435.3335170937248222
 20
182.2600147985025103
 30
0.0
 40
0.2799999999999985
 50
0.0
 51
90.0
  0
LINE
  5
BBEB
  8
0
 10
3435.3335170937248222
 20
182.5400147985025114
 30
0.0
 11
3433.8115170937248877
 21
182.5400147985025114
 31
0.0
  0
LINE
  5
BBEC
  8
0
 10
3433.8035170937250768
 20
182.5400147985025114
 30
0.0
 11
3433.783517093725095
 21
182.5400147985025114
 31
0.0
  0
ARC
  5
BBED
  8
0
 10
3433.7735170938140072
 20
182.5506272489662081
 30
0.0
 40
0.0099999999111908
 50
271.000000277139975
 51
0.0000002081509686
  0
LINE
  5
BBEE
  8
0
 10
3433.7736916179251239
 20
182.5406287715314022
 30
0.0
 11
3433.7385170937259318
 21
182.5400147985025114
 31
0.0
  0
LINE
  5
BBEF
  8
0
 10
3433.7385170937259318
 20
182.5400147985025114
 30
0.0
 11
3433.7033425694521611
 21
182.540628772054589
 31
0.0
  0
ARC
  5
BBF0
  8
0
 10
3433.7035170934977941
 20
182.550627248779108
 30
0.0
 40
0.009999999772633
 50
179.9999987198247879
 51
269.0000000861755893
  0
LINE
  5
BBF1
  8
0
 10
3433.6935170937249495
 20
182.5506272490025026
 30
0.0
 11
3433.693517105664796
 21
183.0850147985024989
 31
0.0
  0
ARC
  5
BBF2
  8
0
 10
3433.4435170937249495
 20
182.6215653715024985
 30
0.0
 40
0.2500000000000178
 50
0.0000000000016284
 51
44.8750000000028422
  0
ARC
  5
BBF3
  8
0
 10
3433.4435170937249495
 20
182.6215653715024985
 30
0.0
 40
0.2499999999999867
 50
44.8750000000028422
 51
89.7499999819260239
  0
LINE
  5
BBF4
  8
0
 10
3433.4446079211252254
 20
182.8715629916823104
 30
0.0
 11
3432.699893324023833
 21
182.8748124429654922
 31
0.0
  0
LINE
  5
BBF5
  8
0
 10
3433.6773475854570279
 20
182.7100147985026126
 30
0.0
 11
3428.5670604008250848
 21
182.7100147985024989
 31
0.0
  0
ARC
  5
BBF6
  8
0
 10
3428.5670604008250848
 20
182.0100147985025103
 30
0.0
 40
0.700000000000003
 50
90.0
 51
145.0000000029743887
  0
LINE
  5
BBF7
  8
0
 10
3427.993653969801926
 20
182.4115183039185979
 30
0.0
 11
3427.8904102112678629
 21
182.2640709359428115
 31
0.0
  0
LINE
  5
BBF8
  8
0
 10
3427.8834821305499645
 20
182.2541766112742891
 30
0.0
 11
3427.6540515560050153
 21
181.9265157935165007
 31
0.0
  0
LINE
  5
BBF9
  8
0
 10
3427.6540515560050153
 20
181.9265157935165007
 30
0.0
 11
3427.0396875228248064
 21
182.3566981208024913
 31
0.0
  0
LINE
  5
BBFA
  8
0
 10
3427.0396875228248064
 20
182.3566981208024913
 30
0.0
 11
3427.2691180973088194
 21
182.6843589384941993
 31
0.0
  0
LINE
  5
BBFB
  8
0
 10
3427.2760461779321304
 20
182.6942532630276048
 30
0.0
 11
3427.379289936538953
 21
182.8417006311161117
 31
0.0
  0
ARC
  5
BBFC
  8
0
 10
3428.5670600918201671
 20
182.0100151508544002
 30
0.0
 40
1.449999544777766
 50
89.9999877899008567
 51
145.0000044061933124
  0
LINE
  5
BBFD
  8
0
 10
3427.8904102113251611
 20
182.2640709359025095
 30
0.0
 11
3427.2760461779789694
 21
182.6942532629944935
 31
0.0
  0
LINE
  5
BBFE
  8
0
 10
3427.2691180973251903
 20
182.6843589385024984
 30
0.0
 11
3427.8834821305499645
 21
182.2541766112742891
 31
0.0
  0
LINE
  5
BBFF
  8
0
 10
3427.853132547336827
 20
182.2754276182195099
 30
0.0
 11
3427.8571927459252038
 21
182.2812261827025111
 31
0.0
  0
LINE
  5
BC00
  8
0
 10
3427.8571927459252038
 20
182.2812261827025111
 30
0.0
 11
3427.303527875853888
 21
182.6689064913313132
 31
0.0
  0
LINE
  5
BC01
  8
0
 10
3427.303527875853888
 20
182.6689064913313132
 30
0.0
 11
3427.2994676805728886
 21
182.6631079315328066
 31
0.0
  0
LINE
  5
BC02
  8
0
 10
3427.305125222335846
 20
182.6677880173043889
 30
0.0
 11
3427.307993107801849
 21
182.6718837822172077
 31
0.0
  0
LINE
  5
BC03
  8
0
 10
3427.8555953994250558
 20
182.2823446567024916
 30
0.0
 11
3427.8584632815709483
 21
182.2864404169253021
 31
0.0
  0
ARC
  5
BC04
  8
0
 10
3435.3335170937248222
 20
183.9100147985024876
 30
0.0
 40
0.2799999999999985
 50
270.0
 51
0.0
  0
LINE
  5
BC05
  8
0
 10
3435.3335170937248222
 20
183.6300147985024864
 30
0.0
 11
3433.8115170937248877
 21
183.6300147985024864
 31
0.0
  0
LINE
  5
BC06
  8
0
 10
3433.8115170937248877
 20
183.6300078617024951
 30
0.0
 11
3433.8115170937248877
 21
182.5400147985025114
 31
0.0
  0
LINE
  5
BC07
  8
0
 10
3433.8035170937250768
 20
182.5400147985025114
 30
0.0
 11
3433.8035170937250768
 21
183.6300147985024864
 31
0.0
  0
LINE
  5
BC08
  8
0
 10
3433.8035170937250768
 20
183.6300147985024864
 30
0.0
 11
3433.783517093725095
 21
183.6300147985024864
 31
0.0
  0
LINE
  5
BC09
  8
0
 10
3433.783517093725095
 20
183.6300147985024864
 30
0.0
 11
3433.783517093725095
 21
182.5400147985025114
 31
0.0
  0
LINE
  5
BC0A
  8
0
 10
3433.7736916180001572
 20
182.5406287721054923
 30
0.0
 11
3433.7736916178250794
 21
183.6294008249024898
 31
0.0
  0
ARC
  5
BC0B
  8
0
 10
3433.7735170938140072
 20
183.6194023480387898
 30
0.0
 40
0.0099999999111908
 50
359.9999997918490067
 51
88.999999722859954
  0
LINE
  5
BC0C
  8
0
 10
3433.7736916179251239
 20
183.6294008254735957
 30
0.0
 11
3433.7385170937259318
 21
183.6300147985024864
 31
0.0
  0
LINE
  5
BC0D
  8
0
 10
3433.7385170937259318
 20
183.6300147985024864
 30
0.0
 11
3433.7033425694521611
 21
183.6294008249504088
 31
0.0
  0
ARC
  5
BC0E
  8
0
 10
3433.7035170934977941
 20
183.6194023482258899
 30
0.0
 40
0.009999999772633
 50
90.9999999138244249
 51
180.0000012801752121
  0
LINE
  5
BC0F
  8
0
 10
3433.6935170937249495
 20
183.6194023480024953
 30
0.0
 11
3433.693517105664796
 21
183.0850147985024989
 31
0.0
  0
ARC
  5
BC10
  8
0
 10
3433.4435170848419148
 20
183.5484642314171992
 30
0.0
 40
0.2500000104684159
 50
315.1250004758524028
 51
359.9999986444490219
  0
ARC
  5
BC11
  8
0
 10
3433.4435170937249495
 20
183.5484642255024994
 30
0.0
 40
0.2499999999999867
 50
270.2500000180739903
 51
315.1249999999972147
  0
LINE
  5
BC12
  8
0
 10
3433.4446079211252254
 20
183.2984666053226874
 30
0.0
 11
3432.6998930575491613
 21
183.2952171528766883
 31
0.0
  0
LINE
  5
BC13
  8
0
 10
3435.3335170937248222
 20
183.6300147985024864
 30
0.0
 11
3435.3335170937248222
 21
182.5400147985025114
 31
0.0
  0
LINE
  5
BC14
  8
0
 10
3433.6773475466161472
 20
183.4600146956321112
 30
0.0
 11
3428.5670604008250848
 21
183.4600146956321112
 31
0.0
  0
LINE
  5
BC15
  8
0
 10
3435.6135170937250223
 20
184.0750146956320918
 30
0.0
 11
3435.6135170937250223
 21
182.0950146956321021
 31
0.0
  0
LINE
  5
BC17
  8
0
 10
3433.8035170937250768
 20
183.5650146956321009
 30
0.0
 11
3433.8115170937248877
 21
183.5650146956321009
 31
0.0
  0
LINE
  5
BC18
  8
0
 10
3433.8035170937250768
 20
182.605014695632093
 30
0.0
 11
3433.8115170937248877
 21
182.605014695632093
 31
0.0
  0
LINE
  5
BC19
  8
0
 10
3435.7935170937248586
 20
182.0950146956321021
 30
0.0
 11
3435.6135170937250223
 21
182.0950146956321021
 31
0.0
  0
CIRCLE
  5
BC1A
  8
0
 10
3432.5385170937252042
 20
183.0850146956321112
 30
0.0
 40
0.2349468024999997
  0
CIRCLE
  5
BC1B
  8
0
 10
3432.5385170937252042
 20
183.0850146956321112
 30
0.0
 40
0.2650042919119162
  0
ENDSEC
  0
EOF
