  0
SECTION
  2
HEADER
  9
$ACADVER
  1
AC1009
  9
$INSBASE
 10
3430.886052479267164
 20
178.4312968881272923
 30
0.0
  9
$EXTMIN
 10
3424.7690446052661173
 20
177.2727979860115965
 30
0.0
  9
$EXTMAX
 10
3437.0030603532682107
 20
179.4212968881273014
 30
0.0
  9
$LIMMIN
 10
0.0
 20
0.0
  9
$LIMMAX
 10
11.6929133858000007
 20
8.2677165353999982
  9
$ORTHOMODE
 70
     0
  9
$REGENMODE
 70
     1
  9
$FILLMODE
 70
     1
  9
$QTEXTMODE
 70
     0
  9
$MIRRTEXT
 70
     0
  9
$DRAGMODE
 70
     2
  9
$LTSCALE
 40
0.6431102362
  9
$OSMODE
 70
  4095
  9
$ATTMODE
 70
     1
  9
$TEXTSIZE
 40
0.2
  9
$TRACEWID
 40
0.05
  9
$TEXTSTYLE
  7
STANDARD
  9
$CLAYER
  8
0
  9
$CELTYPE
  6
BYLAYER
  9
$CECOLOR
 62
   256
  9
$DIMSCALE
 40
1.0
  9
$DIMASZ
 40
0.1875
  9
$DIMEXO
 40
0.0625
  9
$DIMDLI
 40
0.4443307087
  9
$DIMRND
 40
0.0
  9
$DIMDLE
 40
0.0
  9
$DIMEXE
 40
0.125
  9
$DIMTP
 40
0.01
  9
$DIMTM
 40
0.01
  9
$DIMTXT
 40
2.0
  9
$DIMCEN
 40
0.1052362205
  9
$DIMTSZ
 40
0.0
  9
$DIMTOL
 70
     1
  9
$DIMLIM
 70
     0
  9
$DIMTIH
 70
     1
  9
$DIMTOH
 70
     1
  9
$DIMSE1
 70
     0
  9
$DIMSE2
 70
     0
  9
$DIMTAD
 70
     0
  9
$DIMZIN
 70
     0
  9
$DIMBLK
  1

  9
$DIMASO
 70
     1
  9
$DIMSHO
 70
     1
  9
$DIMPOST
  1
\X
  9
$DIMAPOST
  1

  9
$DIMALT
 70
     1
  9
$DIMALTD
 70
     2
  9
$DIMALTF
 40
25.3999999999999986
  9
$DIMLFAC
 40
1.0
  9
$DIMTOFL
 70
     0
  9
$DIMTVP
 40
0.0
  9
$DIMTIX
 70
     0
  9
$DIMSOXD
 70
     0
  9
$DIMSAH
 70
     0
  9
$DIMBLK1
  1

  9
$DIMBLK2
  1

  9
$DIMSTYLE
  2
STANDARD
  9
$DIMCLRD
 70
     0
  9
$DIMCLRE
 70
     0
  9
$DIMCLRT
 70
     0
  9
$DIMTFAC
 40
1.0
  9
$DIMGAP
 40
0.09
  9
$LUNITS
 70
     2
  9
$LUPREC
 70
     4
  9
$SKETCHINC
 40
0.1
  9
$FILLETRAD
 40
0.0
  9
$AUNITS
 70
     0
  9
$AUPREC
 70
     0
  9
$MENU
  1
.
  9
$ELEVATION
 40
0.0
  9
$PELEVATION
 40
0.0
  9
$THICKNESS
 40
0.0
  9
$LIMCHECK
 70
     0
  9
$BLIPMODE
 70
     0
  9
$CHAMFERA
 40
0.0
  9
$CHAMFERB
 40
0.0
  9
$SKPOLY
 70
     0
  9
$TDCREATE
 40
2458060.468368056230247
  9
$TDUPDATE
 40
2459121.7480555549263954
  9
$TDINDWG
 40
0.5755163194
  9
$TDUSRTIMER
 40
0.5755163194
  9
$USRTIMER
 70
     1
  9
$ANGBASE
 50
0.0
  9
$ANGDIR
 70
     0
  9
$PDMODE
 70
     0
  9
$PDSIZE
 40
0.3125
  9
$PLINEWID
 40
0.0
  9
$COORDS
 70
     1
  9
$SPLFRAME
 70
     0
  9
$SPLINETYPE
 70
     6
  9
$SPLINESEGS
 70
     8
  9
$ATTDIA
 70
     1
  9
$ATTREQ
 70
     1
  9
$HANDLING
 70
     1
  9
$HANDSEED
  5
BC31
  9
$SURFTAB1
 70
     6
  9
$SURFTAB2
 70
     6
  9
$SURFTYPE
 70
     6
  9
$SURFU
 70
     6
  9
$SURFV
 70
     6
  9
$UCSNAME
  2

  9
$UCSORG
 10
0.0
 20
0.0
 30
0.0
  9
$UCSXDIR
 10
1.0
 20
0.0
 30
0.0
  9
$UCSYDIR
 10
0.0
 20
1.0
 30
0.0
  9
$PUCSNAME
  2

  9
$PUCSORG
 10
0.0
 20
0.0
 30
0.0
  9
$PUCSXDIR
 10
1.0
 20
0.0
 30
0.0
  9
$PUCSYDIR
 10
0.0
 20
1.0
 30
0.0
  9
$USERI1
 70
     0
  9
$USERI2
 70
     0
  9
$USERI3
 70
     0
  9
$USERI4
 70
     0
  9
$USERI5
 70
     0
  9
$USERR1
 40
0.0
  9
$USERR2
 40
0.0
  9
$USERR3
 40
0.0
  9
$USERR4
 40
0.0
  9
$USERR5
 40
0.0
  9
$WORLDVIEW
 70
     1
  9
$SHADEDGE
 70
     3
  9
$SHADEDIF
 70
    70
  9
$TILEMODE
 70
     1
  9
$MAXACTVP
 70
    64
  9
$PLIMCHECK
 70
     0
  9
$PEXTMIN
 10
1.0000000000000000E+20
 20
1.0000000000000000E+20
 30
1.0000000000000000E+20
  9
$PEXTMAX
 10
-1.0000000000000000E+20
 20
-1.0000000000000000E+20
 30
-1.0000000000000000E+20
  9
$PLIMMIN
 10
0.0
 20
0.0
  9
$PLIMMAX
 10
12.0
 20
9.0
  9
$UNITMODE
 70
     0
  9
$VISRETAIN
 70
     1
  9
$PLINEGEN
 70
     0
  9
$PSLTSCALE
 70
     1
  0
ENDSEC
  0
SECTION
  2
TABLES
  0
TABLE
  2
VPORT
 70
     1
  0
VPORT
  2
*ACTIVE
 70
     0
 10
0.0
 20
0.0
 11
1.0
 21
1.0
 12
0.0
 22
0.0
 13
0.0
 23
0.0
 14
1.0
 24
1.0
 15
0.0
 25
0.0
 16
0.0
 26
0.0
 36
33.602634199925113
 17
3430.886052479267164
 27
178.3470474370695058
 37
0.0
 40
12.4346426113119808
 41
1.9968652037617549
 42
50.0
 43
0.0
 44
0.0
 50
0.0
 51
0.0
 71
     0
 72
   100
 73
     1
 74
     1
 75
     0
 76
     0
 77
     0
 78
     0
  0
ENDTAB
  0
TABLE
  2
LTYPE
 70
     2
  0
LTYPE
  2
CONTINUOUS
 70
     0
  3
Solid line
 72
    65
 73
     0
 40
0.0
  0
LTYPE
  2
PHANTOM2
 70
     0
  3
___ _ _ ___ _ _ ___ _ _ ___ _ _
 72
    65
 73
     6
 40
1.25
 49
0.625
 49
-0.125
 49
0.125
 49
-0.125
 49
0.125
 49
-0.125
  0
ENDTAB
  0
TABLE
  2
LAYER
 70
     2
  0
LAYER
  2
0
 70
     0
 62
   255
  6
CONTINUOUS
  0
LAYER
  2
DEFPOINTS
 70
     0
 62
     7
  6
CONTINUOUS
  0
ENDTAB
  0
TABLE
  2
STYLE
 70
     1
  0
STYLE
  2
STANDARD
 70
     0
 40
0.0
 41
0.8
 50
0.0
 71
     0
 42
0.2
  3
txt
  4

  0
ENDTAB
  0
TABLE
  2
VIEW
 70
     0
  0
ENDTAB
  0
TABLE
  2
UCS
 70
     0
  0
ENDTAB
  0
TABLE
  2
APPID
 70
     9
  0
APPID
  2
ACAD
 70
     0
  0
APPID
  2
ACAD_MLEADERVER
 70
     0
  0
APPID
  2
ACAD_EXEMPT_FROM_CAD_STANDARDS
 70
     0
  0
APPID
  2
ACAD_NAV_VCDISPLAY
 70
     0
  0
APPID
  2
ACAECLAYERSTANDARD
 70
     0
  0
APPID
  2
ACCMTRANSPARENCY
 70
     0
  0
APPID
  2
ACAD_DSTYLE_DIMJAG
 70
     0
  0
APPID
  2
ACAD_DSTYLE_DIMTALN
 70
     0
  0
APPID
  2
ACDBATTR
 70
     0
  0
ENDTAB
  0
TABLE
  2
DIMSTYLE
 70
     1
  0
DIMSTYLE
  2
STANDARD
 70
     0
  3

  4

  5

  6

  7

 40
1.0
 41
0.1875
 42
0.0625
 43
0.38
 44
0.125
 45
0.0
 46
0.0
 47
0.01
 48
0.01
140
0.15625
141
0.09
142
0.0
143
25.3999999999999986
144
1.0
145
0.0
146
1.0
147
0.09
 71
     1
 72
     0
 73
     1
 74
     1
 75
     0
 76
     0
 77
     0
 78
     4
170
     0
171
     2
172
     0
173
     0
174
     0
175
     0
176
     0
177
     0
178
     0
  0
ENDTAB
  0
ENDSEC
  0
SECTION
  2
BLOCKS
  0
BLOCK
  8
0
  2
$MODEL_SPACE
 70
     0
 10
0.0
 20
0.0
 30
0.0
  3
$MODEL_SPACE
  1

  0
ENDBLK
  5
21
  8
0
  0
BLOCK
 67
     1
  8
0
  2
$PAPER_SPACE
 70
     0
 10
0.0
 20
0.0
 30
0.0
  3
$PAPER_SPACE
  1

  0
ENDBLK
  5
1D
 67
     1
  8
0
  0
BLOCK
  8
0
  2
_FILLED
 70
     0
 10
0.0
 20
0.0
 30
0.0
  3
_FILLED
  1

  0
SOLID
  5
A467
  8
0
  6
BYBLOCK
 62
     0
 10
0.0
 20
0.0
 30
0.0
 11
-1.0
 21
0.1666666667
 31
0.0
 12
-1.0
 22
-0.1666666667
 32
0.0
 13
-1.0
 23
-0.1666666667
 33
0.0
  0
ENDBLK
  5
A468
  8
0
  6
BYBLOCK
 62
     0
  0
ENDSEC
  0
SECTION
  2
ENTITIES
  0
ATTDEF
  5
9F01
  8
DEFPOINTS
 10
3430.8832615728338169
 20
178.4293904038765106
 30
0.0
 40
0.001
  1
K-14415BR-4ND
  3

  2
MODELNUMBER
 70
     0
1001
ACDBATTR
1070
     0
1070
     1
  0
ATTDEF
  5
9F02
  8
DEFPOINTS
 10
3430.8832615728338169
 20
178.4277237372097886
 30
0.0
 40
0.001
  1
PURIST
  3

  2
TRADENAME
 70
     0
1001
ACDBATTR
1070
     0
1070
     1
  0
ATTDEF
  5
9F03
  8
DEFPOINTS
 10
3430.8832615728338169
 20
178.4260570705430951
 30
0.0
 40
0.001
  1
BATHROOM SINK FAUCET
  3

  2
PRODUCT
 70
     0
1001
ACDBATTR
1070
     0
1070
     1
  0
ARC
  5
B6E9
  8
0
 10
3430.886052479267164
 20
178.4312968881272923
 30
0.0
 40
0.9900000000000002
 50
292.2586212738405038
 51
247.7413787261594962
  0
LINE
  5
B6EA
  8
0
 10
3430.511052479267164
 20
178.4312968881272923
 30
0.0
 11
3430.511052479267164
 21
177.4878890468272914
 31
0.0
  0
ARC
  5
B6EB
  8
0
 10
3430.6557451354219666
 20
177.4848830558591999
 30
0.0
 40
0.1447238775293644
 50
134.8555121462869124
 51
178.8098509736311996
  0
ARC
  5
B6EC
  8
0
 10
3430.7990708130191706
 20
177.340832675007988
 30
0.0
 40
0.3479300833445055
 50
108.4225904657489963
 51
134.8555121462869124
  0
ARC
  5
B6ED
  8
0
 10
3430.8867430572490775
 20
177.0776267160804878
 30
0.0
 40
0.6253535849142821
 50
90.0638216037191768
 51
108.4225904657489963
  0
ARC
  5
B6EE
  8
0
 10
3430.8867335333611663
 20
177.0861767725934044
 30
0.0
 40
0.6168035230970049
 50
71.4117532571261933
 51
90.0638216037191768
  0
ARC
  5
B6EF
  8
0
 10
3431.1170179368082245
 20
177.4851651117108133
 30
0.0
 40
0.1440602972510321
 50
1.083430272630534
 51
45.2532978604822418
  0
LINE
  5
B6F0
  8
0
 10
3431.261052479267164
 20
177.4878890468272914
 30
0.0
 11
3431.261052479267164
 21
178.4312968881272923
 31
0.0
  0
ARC
  5
B6F1
  8
0
 10
3430.886052479267164
 20
178.4312968881272923
 30
0.0
 40
0.3750000000000009
 50
0.0
 51
180.0
  0
ARC
  5
B6F2
  8
0
 10
3430.886052479267164
 20
178.4312968881272923
 30
0.0
 40
0.3800000000000013
 50
350.7920395950994248
 51
189.1923754272914948
  0
ARC
  5
B6F3
  8
0
 10
3430.886052479267164
 20
178.4312968881272923
 30
0.0
 40
0.4300000000000006
 50
330.7317251979156936
 51
209.2701447656963865
  0
ARC
  5
B6F4
  8
0
 10
3430.7990708130191706
 20
177.6349454186467085
 30
0.0
 40
0.3479300833445055
 50
225.1444878537130023
 51
251.5774095342509895
  0
ARC
  5
B6F5
  8
0
 10
3430.8902202136869164
 20
177.9195130760726897
 30
0.0
 40
0.6467286018790284
 50
251.8832200907816059
 51
269.6296313273393821
  0
ARC
  5
B6F6
  8
0
 10
3430.8841299490100027
 20
177.9055630550213039
 30
0.0
 40
0.6327679508877244
 50
270.1729232372823049
 51
288.3509857911503218
  0
ARC
  5
B6F7
  8
0
 10
3430.9715654408860246
 20
177.6373572536103893
 30
0.0
 40
0.3506766321250656
 50
288.5882467428738209
 51
314.7467021395178222
  0
ARC
  5
B6F8
  8
0
 10
3431.1170179368082245
 20
177.4906129819439116
 30
0.0
 40
0.1440602972510321
 50
314.7467021395178222
 51
358.9165697273695059
  0
ARC
  5
B6F9
  8
0
 10
3430.6557451354219666
 20
177.4908950377954966
 30
0.0
 40
0.1447238775293644
 50
181.1901490263688004
 51
225.1444878537130023
  0
ARC
  5
B6FA
  8
0
 10
3430.9730341454519476
 20
177.340832675007988
 30
0.0
 40
0.3479300833445055
 50
45.1444878537130379
 51
71.5774095342510037
  0
ARC
  5
B6FB
  8
0
 10
3430.8854355917710564
 20
177.4068110084132002
 30
0.0
 40
0.6337246446630173
 50
89.944226477754242
 51
102.0224635933575001
  0
ARC
  5
B6FC
  8
0
 10
3430.8555766086810763
 20
177.5470161622178011
 30
0.0
 40
0.4903752671807875
 50
102.0224635933575001
 51
118.3548946451967936
  0
ARC
  5
B6FD
  8
0
 10
3430.7479151899037788
 20
177.7465069975000063
 30
0.0
 40
0.2636869912280639
 50
118.3548946451967936
 51
140.0925544067557951
  0
ARC
  5
B6FE
  8
0
 10
3430.6641845247581841
 20
177.8165351900765074
 30
0.0
 40
0.1545321835399552
 50
140.0925544067557951
 51
161.5845103467395063
  0
ARC
  5
B6FF
  8
0
 10
3430.6384846768960415
 20
177.825092108959808
 30
0.0
 40
0.1274452302059883
 50
161.5845103467395063
 51
174.0526842989293073
  0
ARC
  5
B700
  8
0
 10
3430.3181448341820214
 20
177.8584634007812895
 30
0.0
 40
0.1946281433405116
 50
352.3760089812196838
 51
354.0526842989293073
  0
ARC
  5
B701
  8
0
 10
3430.8859914430408935
 20
177.4068107111035886
 30
0.0
 40
0.6337246446630173
 50
77.9162445284603962
 51
89.9944816440601443
  0
ARC
  5
B702
  8
0
 10
3430.9160003927909202
 20
177.5469838431918106
 30
0.0
 40
0.4903752671807875
 50
61.5838134765948126
 51
77.9162445284603962
  0
ARC
  5
B703
  8
0
 10
3431.0238751542638056
 20
177.746359394078894
 30
0.0
 40
0.2636869912280639
 50
39.8461537150636502
 51
61.5838134765948126
  0
ARC
  5
B704
  8
0
 10
3431.1076806838018456
 20
177.8162979761370082
 30
0.0
 40
0.1545321835399552
 50
18.3541977750632803
 51
39.8461537150636502
  0
ARC
  5
B705
  8
0
 10
3431.1081644111159221
 20
177.8179562782343055
 30
0.0
 40
0.153557461714406
 50
7.4711140439554251
 51
17.8237514878463017
  0
ARC
  5
B706
  8
0
 10
3431.1207447014248828
 20
177.8238978808863067
 30
0.0
 40
0.1403759208291255
 50
1.7853339890607001
 51
5.733968565706177
  0
ARC
  5
B707
  8
0
 10
3430.8846073882878045
 20
177.2468678062193135
 30
0.0
 40
0.387459107048093
 50
89.815944420002424
 51
105.9740994074144993
  0
ARC
  5
B708
  8
0
 10
3430.8523194444042019
 20
177.3596616620237967
 30
0.0
 40
0.2701349184616246
 50
105.9740994074144993
 51
122.1956392032721936
  0
ARC
  5
B709
  8
0
 10
3430.7858453667749927
 20
177.4652385254036915
 30
0.0
 40
0.1453740388649453
 50
122.1956392032721936
 51
151.5462420095309142
  0
ARC
  5
B70A
  8
0
 10
3430.721440245688882
 20
177.5001403789783865
 30
0.0
 40
0.0721199672712374
 50
151.5462420095309142
 51
190.675676558320788
  0
ARC
  5
B70B
  8
0
 10
3430.750809283721992
 20
177.5056768043556872
 30
0.0
 40
0.1020062919194915
 50
190.675676558320788
 51
227.631724005964287
  0
ARC
  5
B70C
  8
0
 10
3430.8302801749941864
 20
177.5928053693934032
 30
0.0
 40
0.2199342758967487
 50
227.631724005964287
 51
246.0773683352360877
  0
ARC
  5
B70D
  8
0
 10
3430.8677631434529758
 20
177.6773003741336083
 30
0.0
 40
0.3123700847078827
 50
246.0773683352360877
 51
262.6749510328373844
  0
ARC
  5
B70E
  8
0
 10
3430.8909915941421787
 20
177.8579999557707936
 30
0.0
 40
0.4945565269180987
 50
262.6749510328373844
 51
270.5752313241516731
  0
ARC
  5
B70F
  8
0
 10
3430.8924049132888285
 20
177.7172313672502924
 30
0.0
 40
0.3537808437017093
 50
270.5752313241516731
 51
288.059014407831512
  0
ARC
  5
B710
  8
0
 10
3430.9468865188268865
 20
177.5780691072326078
 30
0.0
 40
0.2047680477960001
 50
285.6357360632333098
 51
319.834406831109618
  0
ARC
  5
B711
  8
0
 10
3431.0332673230150249
 20
177.5005396870687946
 30
0.0
 40
0.0888210926413169
 50
322.1128635529311168
 51
358.9000875815158906
  0
ARC
  5
B712
  8
0
 10
3431.0295892088461187
 20
177.4961911651649018
 30
0.0
 40
0.0925206140990339
 50
1.6372907510558321
 51
43.0132629885555318
  0
ARC
  5
B713
  8
0
 10
3430.9765690846529651
 20
177.4542278780095046
 30
0.0
 40
0.1600087500937618
 50
41.0487310916511206
 51
63.8952212203253325
  0
ARC
  5
B714
  8
0
 10
3430.9013929738048319
 20
177.3136996295430947
 30
0.0
 40
0.3193307780807001
 50
62.8772822675989218
 51
82.6164050476413649
  0
ARC
  5
B715
  8
0
 10
3430.8860501131161982
 20
177.2292067438476977
 30
0.0
 40
0.4051182186732011
 50
82.0001387657433156
 51
90.0280119618717833
  0
LINE
  5
B716
  8
0
 10
3430.8114208046217755
 20
177.5768537298012006
 30
0.0
 11
3430.8319145693108112
 21
177.5700671271046076
 31
0.0
  0
LINE
  5
B717
  8
0
 10
3430.8319145693108112
 20
177.5700671271046076
 30
0.0
 11
3430.8524083341108053
 21
177.5768537298046112
 31
0.0
  0
LINE
  5
B718
  8
0
 10
3430.8539618134109332
 20
177.5763392881046059
 30
0.0
 11
3430.8539618134109332
 21
177.5636618872046029
 31
0.0
  0
ARC
  5
B719
  8
0
 10
3430.8608621860707899
 20
177.5646910845688922
 30
0.0
 40
0.0069767033797108
 50
188.483185026518214
 51
253.5082643943133007
  0
ARC
  5
B71A
  8
0
 10
3430.8569008966392175
 20
177.5646947371716067
 30
0.0
 40
0.0069802732163097
 50
286.4850946982542723
 51
351.4908714307773039
  0
LINE
  5
B71B
  8
0
 10
3430.8638043331120571
 20
177.5636618872046029
 30
0.0
 11
3430.8638043331120571
 21
177.5763392880882066
 31
0.0
  0
LINE
  5
B71C
  8
0
 10
3430.8588816601609324
 20
177.5580013979416947
 30
0.0
 11
3430.8588830733110626
 21
177.556848107304603
 31
0.0
  0
LINE
  5
B71D
  8
0
 10
3430.8588830733110626
 20
177.556848107304603
 30
0.0
 11
3430.8350087193120999
 21
177.5489420073045892
 31
0.0
  0
ARC
  5
B71E
  8
0
 10
3430.8336641191740455
 20
177.5538936283977023
 30
0.0
 40
0.0051309356827061
 50
250.0633672519309982
 51
285.1921815497091757
  0
ARC
  5
B71F
  8
0
 10
3430.8301771204069155
 20
177.5537538838727869
 30
0.0
 40
0.0049955715132474
 50
252.9055096665761084
 51
290.3526791601918831
  0
LINE
  5
B720
  8
0
 10
3430.8287086800878569
 20
177.548979010285592
 30
0.0
 11
3430.8049460654119684
 21
177.556848107304603
 31
0.0
  0
LINE
  5
B721
  8
0
 10
3430.8098673252120534
 20
177.5636618872046029
 30
0.0
 11
3430.8319145693108112
 21
177.5563608429046099
 31
0.0
  0
LINE
  5
B722
  8
0
 10
3430.8319145693108112
 20
177.5563608429046099
 30
0.0
 11
3430.8539618134109332
 21
177.5636618872046029
 31
0.0
  0
LINE
  5
B723
  8
0
 10
3430.8319145693108112
 20
177.5700671271046076
 30
0.0
 11
3430.8319145693108112
 21
177.5490701881049063
 31
0.0
  0
LINE
  5
B724
  8
0
 10
3430.8000248055118391
 20
177.5763392881046059
 30
0.0
 11
3430.8000248055118391
 21
177.5636618872046029
 31
0.0
  0
ARC
  5
B725
  8
0
 10
3430.8069251781698767
 20
177.5646910845688922
 30
0.0
 40
0.0069767033797108
 50
188.483185026518214
 51
253.5082643943133007
  0
ARC
  5
B726
  8
0
 10
3430.8029638887401234
 20
177.5646947371716067
 30
0.0
 40
0.0069802732163097
 50
286.4850946982542723
 51
351.4908714307773039
  0
LINE
  5
B727
  8
0
 10
3430.8098673252120534
 20
177.5636618872046029
 30
0.0
 11
3430.8098673252120534
 21
177.5763392880882066
 31
0.0
  0
LINE
  5
B728
  8
0
 10
3430.8049446522609287
 20
177.5580013979416947
 30
0.0
 11
3430.8049460654119684
 21
177.556848107304603
 31
0.0
  0
LINE
  5
B729
  8
0
 10
3430.8114208046217755
 20
177.5232692796012088
 30
0.0
 11
3430.8319145693108112
 21
177.5164826769045874
 31
0.0
  0
LINE
  5
B72A
  8
0
 10
3430.8319145693108112
 20
177.5164826769045874
 30
0.0
 11
3430.8524083341108053
 21
177.523269279604591
 31
0.0
  0
LINE
  5
B72B
  8
0
 10
3430.8539618134109332
 20
177.5227548379046141
 30
0.0
 11
3430.8539618134109332
 21
177.5100774370046111
 31
0.0
  0
ARC
  5
B72C
  8
0
 10
3430.8608621860707899
 20
177.5111066343689004
 30
0.0
 40
0.0069767033797108
 50
188.483185026518214
 51
253.5082643943133007
  0
ARC
  5
B72D
  8
0
 10
3430.8569008966392175
 20
177.5111102869715864
 30
0.0
 40
0.0069802732163097
 50
286.4850946982542723
 51
351.4908714307773039
  0
LINE
  5
B72E
  8
0
 10
3430.8638043331120571
 20
177.5100774370046111
 30
0.0
 11
3430.8638043331120571
 21
177.5227548378883
 31
0.0
  0
LINE
  5
B72F
  8
0
 10
3430.8588816601609324
 20
177.5044169477417029
 30
0.0
 11
3430.8588830733110626
 21
177.5032636571046112
 31
0.0
  0
LINE
  5
B730
  8
0
 10
3430.8588830733110626
 20
177.5032636571046112
 30
0.0
 11
3430.8350087193120999
 21
177.4953575571045974
 31
0.0
  0
ARC
  5
B731
  8
0
 10
3430.8336641191740455
 20
177.5003091781977105
 30
0.0
 40
0.0051309356827061
 50
250.0633672519309982
 51
285.1921815497091757
  0
ARC
  5
B732
  8
0
 10
3430.8301771204069155
 20
177.5001694336729088
 30
0.0
 40
0.0049955715132474
 50
252.9055096665761084
 51
290.3526791601918831
  0
LINE
  5
B733
  8
0
 10
3430.8287086800878569
 20
177.4953945600856002
 30
0.0
 11
3430.8049460654119684
 21
177.5032636571046112
 31
0.0
  0
LINE
  5
B734
  8
0
 10
3430.8098673252120534
 20
177.5100774370046111
 30
0.0
 11
3430.8319145693108112
 21
177.5027763927045896
 31
0.0
  0
LINE
  5
B735
  8
0
 10
3430.8319145693108112
 20
177.5027763927045896
 30
0.0
 11
3430.8539618134109332
 21
177.5100774370046111
 31
0.0
  0
LINE
  5
B736
  8
0
 10
3430.8319145693108112
 20
177.5164826769045874
 30
0.0
 11
3430.8319145693108112
 21
177.495485737904886
 31
0.0
  0
LINE
  5
B737
  8
0
 10
3430.8000248055118391
 20
177.5227548379046141
 30
0.0
 11
3430.8000248055118391
 21
177.5100774370046111
 31
0.0
  0
ARC
  5
B738
  8
0
 10
3430.8069251781698767
 20
177.5111066343689004
 30
0.0
 40
0.0069767033797108
 50
188.483185026518214
 51
253.5082643943133007
  0
ARC
  5
B739
  8
0
 10
3430.8029638887401234
 20
177.5111102869715864
 30
0.0
 40
0.0069802732163097
 50
286.4850946982542723
 51
351.4908714307773039
  0
LINE
  5
B73A
  8
0
 10
3430.8098673252120534
 20
177.5100774370046111
 30
0.0
 11
3430.8098673252120534
 21
177.5227548378883
 31
0.0
  0
LINE
  5
B73B
  8
0
 10
3430.8049446522609287
 20
177.5044169477417029
 30
0.0
 11
3430.8049460654119684
 21
177.5032636571046112
 31
0.0
  0
LINE
  5
B73C
  8
0
 10
3430.7844523007220232
 20
177.5500615047012047
 30
0.0
 11
3430.8049460654119684
 21
177.5432749020046117
 31
0.0
  0
LINE
  5
B73D
  8
0
 10
3430.8049460654119684
 20
177.5432749020046117
 30
0.0
 11
3430.8254398302119625
 21
177.5500615047045869
 31
0.0
  0
LINE
  5
B73E
  8
0
 10
3430.826993309511181
 20
177.54954706300461
 30
0.0
 11
3430.826993309511181
 21
177.536869662104607
 31
0.0
  0
ARC
  5
B73F
  8
0
 10
3430.8338936821710377
 20
177.5378988594688963
 30
0.0
 40
0.0069767033797108
 50
188.483185026518214
 51
253.5082643943133007
  0
ARC
  5
B740
  8
0
 10
3430.82993239273992
 20
177.5379025120716108
 30
0.0
 40
0.0069802732163097
 50
286.4850946982542723
 51
351.4908714307773039
  0
LINE
  5
B741
  8
0
 10
3430.8368358292109406
 20
177.536869662104607
 30
0.0
 11
3430.8368358292109406
 21
177.5495470629882107
 31
0.0
  0
LINE
  5
B742
  8
0
 10
3430.8319131562611801
 20
177.5312091728416988
 30
0.0
 11
3430.8319145694122199
 21
177.5300558822046071
 31
0.0
  0
LINE
  5
B743
  8
0
 10
3430.8319145694122199
 20
177.5300558822046071
 30
0.0
 11
3430.8080402154118929
 21
177.5221497822045933
 31
0.0
  0
ARC
  5
B744
  8
0
 10
3430.8066956152738385
 20
177.5271014032977064
 30
0.0
 40
0.0051309356827061
 50
250.0633672519309982
 51
285.1921815497091757
  0
ARC
  5
B745
  8
0
 10
3430.803208616505799
 20
177.5269616587729047
 30
0.0
 40
0.0049955715132474
 50
252.9055096665761084
 51
290.3526791601918831
  0
LINE
  5
B746
  8
0
 10
3430.8017401761881047
 20
177.5221867851855961
 30
0.0
 11
3430.7779775615122162
 21
177.5300558822046071
 31
0.0
  0
LINE
  5
B747
  8
0
 10
3430.7828988213118464
 20
177.536869662104607
 30
0.0
 11
3430.8049460654119684
 21
177.529568617804614
 31
0.0
  0
LINE
  5
B748
  8
0
 10
3430.8049460654119684
 20
177.529568617804614
 30
0.0
 11
3430.826993309511181
 21
177.536869662104607
 31
0.0
  0
LINE
  5
B749
  8
0
 10
3430.8049460654119684
 20
177.5432749020046117
 30
0.0
 11
3430.8049460654119684
 21
177.5222779630049104
 31
0.0
  0
LINE
  5
B74A
  8
0
 10
3430.7730563016120868
 20
177.54954706300461
 30
0.0
 11
3430.7730563016120868
 21
177.536869662104607
 31
0.0
  0
ARC
  5
B74B
  8
0
 10
3430.779956674271034
 20
177.5378988594688963
 30
0.0
 40
0.0069767033797108
 50
188.483185026518214
 51
253.5082643943133007
  0
ARC
  5
B74C
  8
0
 10
3430.7759953848399164
 20
177.5379025120716108
 30
0.0
 40
0.0069802732163097
 50
286.4850946982542723
 51
351.4908714307773039
  0
LINE
  5
B74D
  8
0
 10
3430.7828988213118464
 20
177.536869662104607
 30
0.0
 11
3430.7828988213118464
 21
177.5495470629882107
 31
0.0
  0
LINE
  5
B74E
  8
0
 10
3430.7779761483611765
 20
177.5312091728416988
 30
0.0
 11
3430.7779775615122162
 21
177.5300558822046071
 31
0.0
  0
LINE
  5
B74F
  8
0
 10
3430.7035467889218125
 20
177.5768537298012006
 30
0.0
 11
3430.7240405536122125
 21
177.5700671271046076
 31
0.0
  0
LINE
  5
B750
  8
0
 10
3430.7240405536122125
 20
177.5700671271046076
 30
0.0
 11
3430.7445343184108424
 21
177.5768537298046112
 31
0.0
  0
LINE
  5
B751
  8
0
 10
3430.7460877977109703
 20
177.5763392881046059
 30
0.0
 11
3430.7460877977109703
 21
177.5636618872046029
 31
0.0
  0
ARC
  5
B752
  8
0
 10
3430.752988170370827
 20
177.5646910845688922
 30
0.0
 40
0.0069767033797108
 50
188.483185026518214
 51
253.5082643943133007
  0
ARC
  5
B753
  8
0
 10
3430.7490268809401641
 20
177.5646947371716067
 30
0.0
 40
0.0069802732163097
 50
286.4850946982542723
 51
351.4908714307773039
  0
LINE
  5
B754
  8
0
 10
3430.7559303174111847
 20
177.5636618872046029
 30
0.0
 11
3430.7559303174111847
 21
177.5763392880882066
 31
0.0
  0
LINE
  5
B755
  8
0
 10
3430.7510076444609695
 20
177.5580013979416947
 30
0.0
 11
3430.7510090576120092
 21
177.556848107304603
 31
0.0
  0
LINE
  5
B756
  8
0
 10
3430.7510090576120092
 20
177.556848107304603
 30
0.0
 11
3430.7271347036107727
 21
177.5489420073045892
 31
0.0
  0
ARC
  5
B757
  8
0
 10
3430.7257901034731731
 20
177.5538936283977023
 30
0.0
 40
0.0051309356827061
 50
250.0633672519309982
 51
285.1921815497091757
  0
ARC
  5
B758
  8
0
 10
3430.7223031047069526
 20
177.5537538838727869
 30
0.0
 40
0.0049955715132474
 50
252.9055096665761084
 51
290.3526791601918831
  0
LINE
  5
B759
  8
0
 10
3430.720834664387894
 20
177.548979010285592
 30
0.0
 11
3430.6970720497120055
 21
177.556848107304603
 31
0.0
  0
LINE
  5
B75A
  8
0
 10
3430.701993309511181
 20
177.5636618872046029
 30
0.0
 11
3430.7240405536122125
 21
177.5563608429046099
 31
0.0
  0
LINE
  5
B75B
  8
0
 10
3430.7240405536122125
 20
177.5563608429046099
 30
0.0
 11
3430.7460877977109703
 21
177.5636618872046029
 31
0.0
  0
LINE
  5
B75C
  8
0
 10
3430.7240405536122125
 20
177.5700671271046076
 30
0.0
 11
3430.7240405536122125
 21
177.5490701881049063
 31
0.0
  0
LINE
  5
B75D
  8
0
 10
3430.6921507898118762
 20
177.5763912915570018
 30
0.0
 11
3430.6921507898118762
 21
177.5636618872046029
 31
0.0
  0
ARC
  5
B75E
  8
0
 10
3430.6990511624699138
 20
177.5646910845688922
 30
0.0
 40
0.0069767033797108
 50
188.483185026518214
 51
253.5082643943133007
  0
ARC
  5
B75F
  8
0
 10
3430.6950898730401605
 20
177.5646947371716067
 30
0.0
 40
0.0069802732163097
 50
286.4850946982542723
 51
351.4908714307773039
  0
LINE
  5
B760
  8
0
 10
3430.701993309511181
 20
177.5636618872046029
 30
0.0
 11
3430.701993309511181
 21
177.5763392880882066
 31
0.0
  0
LINE
  5
B761
  8
0
 10
3430.6970706365609658
 20
177.5580013979416947
 30
0.0
 11
3430.6970720497120055
 21
177.556848107304603
 31
0.0
  0
LINE
  5
B762
  8
0
 10
3430.7339828404219588
 20
177.6024976608590862
 30
0.0
 11
3430.7510090575110553
 21
177.5968593522046035
 31
0.0
  0
LINE
  5
B763
  8
0
 10
3430.7510090575110553
 20
177.5968593522046035
 30
0.0
 11
3430.7715028223119589
 21
177.6036459549046072
 31
0.0
  0
LINE
  5
B764
  8
0
 10
3430.7730563016120868
 20
177.6031315132046018
 30
0.0
 11
3430.7730563016120868
 21
177.5904541123045988
 31
0.0
  0
ARC
  5
B765
  8
0
 10
3430.779956674271034
 20
177.5914833096688881
 30
0.0
 40
0.0069767033797108
 50
188.483185026518214
 51
253.5082643943133007
  0
ARC
  5
B766
  8
0
 10
3430.7759953848399164
 20
177.5914869622716026
 30
0.0
 40
0.0069802732163097
 50
286.4850946982542723
 51
351.4908714307773039
  0
LINE
  5
B767
  8
0
 10
3430.7828988213118464
 20
177.5904541123045988
 30
0.0
 11
3430.7828988213118464
 21
177.6031315131882025
 31
0.0
  0
LINE
  5
B768
  8
0
 10
3430.7779761483611765
 20
177.5847936230416906
 30
0.0
 11
3430.7779775615122162
 21
177.5836403324045989
 31
0.0
  0
LINE
  5
B769
  8
0
 10
3430.7779775615122162
 20
177.5836403324045989
 30
0.0
 11
3430.7541032075118892
 21
177.5757342324046135
 31
0.0
  0
ARC
  5
B76A
  8
0
 10
3430.7527586073729253
 20
177.5806858534976129
 30
0.0
 40
0.0051309356827061
 50
250.0633672519309982
 51
285.1921815497091757
  0
ARC
  5
B76B
  8
0
 10
3430.7492716086071596
 20
177.5805461089728112
 30
0.0
 40
0.0049955715132474
 50
252.9055096665761084
 51
290.3526791601918831
  0
LINE
  5
B76C
  8
0
 10
3430.747803168288101
 20
177.5757712353855879
 30
0.0
 11
3430.7240405536122125
 21
177.5836403324045989
 31
0.0
  0
LINE
  5
B76D
  8
0
 10
3430.7289618134109332
 20
177.5904541123045988
 30
0.0
 11
3430.7510090575110553
 21
177.5831530680046058
 31
0.0
  0
LINE
  5
B76E
  8
0
 10
3430.7510090575110553
 20
177.5831530680046058
 30
0.0
 11
3430.7730563016120868
 21
177.5904541123045988
 31
0.0
  0
LINE
  5
B76F
  8
0
 10
3430.7510090575110553
 20
177.5968593522046035
 30
0.0
 11
3430.7510090575110553
 21
177.5758624132049022
 31
0.0
  0
LINE
  5
B770
  8
0
 10
3430.7191192937120832
 20
177.5946735639091969
 30
0.0
 11
3430.7191192937120832
 21
177.5904541123045988
 31
0.0
  0
ARC
  5
B771
  8
0
 10
3430.7260196663710303
 20
177.5914833096688881
 30
0.0
 40
0.0069767033797108
 50
188.483185026518214
 51
253.5082643943133007
  0
ARC
  5
B772
  8
0
 10
3430.7220583769390032
 20
177.5914869622716026
 30
0.0
 40
0.0069802732163097
 50
286.4850946982542723
 51
351.4908714307773039
  0
LINE
  5
B773
  8
0
 10
3430.7289618134109332
 20
177.5904541123045988
 30
0.0
 11
3430.7289618134109332
 21
177.5999859617693915
 31
0.0
  0
LINE
  5
B774
  8
0
 10
3430.7240391404611728
 20
177.5847936230416906
 30
0.0
 11
3430.7240405536122125
 21
177.5836403324045989
 31
0.0
  0
LINE
  5
B775
  8
0
 10
3430.6765782849220159
 20
177.5500615047012047
 30
0.0
 11
3430.6970720496119611
 21
177.5432749020046117
 31
0.0
  0
LINE
  5
B776
  8
0
 10
3430.6970720496119611
 20
177.5432749020046117
 30
0.0
 11
3430.7175658144119552
 21
177.5500615047045869
 31
0.0
  0
LINE
  5
B777
  8
0
 10
3430.7191192937120832
 20
177.54954706300461
 30
0.0
 11
3430.7191192937120832
 21
177.536869662104607
 31
0.0
  0
ARC
  5
B778
  8
0
 10
3430.7260196663710303
 20
177.5378988594688963
 30
0.0
 40
0.0069767033797108
 50
188.483185026518214
 51
253.5082643943133007
  0
ARC
  5
B779
  8
0
 10
3430.7220583769390032
 20
177.5379025120716108
 30
0.0
 40
0.0069802732163097
 50
286.4850946982542723
 51
351.4908714307773039
  0
LINE
  5
B77A
  8
0
 10
3430.7289618134109332
 20
177.536869662104607
 30
0.0
 11
3430.7289618134109332
 21
177.5495470629882107
 31
0.0
  0
LINE
  5
B77B
  8
0
 10
3430.7240391404611728
 20
177.5312091728416988
 30
0.0
 11
3430.7240405536122125
 21
177.5300558822046071
 31
0.0
  0
LINE
  5
B77C
  8
0
 10
3430.7240405536122125
 20
177.5300558822046071
 30
0.0
 11
3430.7001661996118855
 21
177.5221497822045933
 31
0.0
  0
ARC
  5
B77D
  8
0
 10
3430.6988215994738312
 20
177.5271014032977064
 30
0.0
 40
0.0051309356827061
 50
250.0633672519309982
 51
285.1921815497091757
  0
ARC
  5
B77E
  8
0
 10
3430.6953346007057917
 20
177.5269616587729047
 30
0.0
 40
0.0049955715132474
 50
252.9055096665761084
 51
290.3526791601918831
  0
LINE
  5
B77F
  8
0
 10
3430.6938661603880973
 20
177.5221867851855961
 30
0.0
 11
3430.6701035457122089
 21
177.5300558822046071
 31
0.0
  0
LINE
  5
B780
  8
0
 10
3430.6750248055118391
 20
177.536869662104607
 30
0.0
 11
3430.6970720496119611
 21
177.529568617804614
 31
0.0
  0
LINE
  5
B781
  8
0
 10
3430.6970720496119611
 20
177.529568617804614
 30
0.0
 11
3430.7191192937120832
 21
177.536869662104607
 31
0.0
  0
LINE
  5
B782
  8
0
 10
3430.6970720496119611
 20
177.5432749020046117
 30
0.0
 11
3430.6970720496119611
 21
177.5222779630049104
 31
0.0
  0
LINE
  5
B783
  8
0
 10
3430.6651822858120795
 20
177.5463189303625029
 30
0.0
 11
3430.6651822858120795
 21
177.536869662104607
 31
0.0
  0
ARC
  5
B784
  8
0
 10
3430.6720826584710267
 20
177.5378988594688963
 30
0.0
 40
0.0069767033797108
 50
188.483185026518214
 51
253.5082643943133007
  0
ARC
  5
B785
  8
0
 10
3430.668121369039909
 20
177.5379025120716108
 30
0.0
 40
0.0069802732163097
 50
286.4850946982542723
 51
351.4908714307773039
  0
LINE
  5
B786
  8
0
 10
3430.6750248055118391
 20
177.536869662104607
 30
0.0
 11
3430.6750248055118391
 21
177.5495470629882107
 31
0.0
  0
LINE
  5
B787
  8
0
 10
3430.6701021325611691
 20
177.5312091728416988
 30
0.0
 11
3430.6701035457122089
 21
177.5300558822046071
 31
0.0
  0
LINE
  5
B788
  8
0
 10
3430.7035467889218125
 20
177.5232692796012088
 30
0.0
 11
3430.7240405536122125
 21
177.5164826769045874
 31
0.0
  0
LINE
  5
B789
  8
0
 10
3430.7240405536122125
 20
177.5164826769045874
 30
0.0
 11
3430.7445343184108424
 21
177.523269279604591
 31
0.0
  0
LINE
  5
B78A
  8
0
 10
3430.7460877977109703
 20
177.5227548379046141
 30
0.0
 11
3430.7460877977109703
 21
177.5100774370046111
 31
0.0
  0
ARC
  5
B78B
  8
0
 10
3430.752988170370827
 20
177.5111066343689004
 30
0.0
 40
0.0069767033797108
 50
188.483185026518214
 51
253.5082643943133007
  0
ARC
  5
B78C
  8
0
 10
3430.7490268809401641
 20
177.5111102869715864
 30
0.0
 40
0.0069802732163097
 50
286.4850946982542723
 51
351.4908714307773039
  0
LINE
  5
B78D
  8
0
 10
3430.7559303174111847
 20
177.5100774370046111
 30
0.0
 11
3430.7559303174111847
 21
177.5227548378883
 31
0.0
  0
LINE
  5
B78E
  8
0
 10
3430.7510076444609695
 20
177.5044169477417029
 30
0.0
 11
3430.7510090576120092
 21
177.5032636571046112
 31
0.0
  0
LINE
  5
B78F
  8
0
 10
3430.7510090576120092
 20
177.5032636571046112
 30
0.0
 11
3430.7271347036107727
 21
177.4953575571045974
 31
0.0
  0
ARC
  5
B790
  8
0
 10
3430.7257901034731731
 20
177.5003091781977105
 30
0.0
 40
0.0051309356827061
 50
250.0633672519309982
 51
285.1921815497091757
  0
ARC
  5
B791
  8
0
 10
3430.7223031047069526
 20
177.5001694336729088
 30
0.0
 40
0.0049955715132474
 50
252.9055096665761084
 51
290.3526791601918831
  0
LINE
  5
B792
  8
0
 10
3430.720834664387894
 20
177.4953945600856002
 30
0.0
 11
3430.6970720497120055
 21
177.5032636571046112
 31
0.0
  0
LINE
  5
B793
  8
0
 10
3430.701993309511181
 20
177.5100774370046111
 30
0.0
 11
3430.7240405536122125
 21
177.5027763927045896
 31
0.0
  0
LINE
  5
B794
  8
0
 10
3430.7240405536122125
 20
177.5027763927045896
 30
0.0
 11
3430.7460877977109703
 21
177.5100774370046111
 31
0.0
  0
LINE
  5
B795
  8
0
 10
3430.7240405536122125
 20
177.5164826769045874
 30
0.0
 11
3430.7240405536122125
 21
177.495485737904886
 31
0.0
  0
LINE
  5
B796
  8
0
 10
3430.6921507898118762
 20
177.5227548379046141
 30
0.0
 11
3430.6921507898118762
 21
177.5100774370046111
 31
0.0
  0
ARC
  5
B797
  8
0
 10
3430.6990511624699138
 20
177.5111066343689004
 30
0.0
 40
0.0069767033797108
 50
188.483185026518214
 51
253.5082643943133007
  0
ARC
  5
B798
  8
0
 10
3430.6950898730401605
 20
177.5111102869715864
 30
0.0
 40
0.0069802732163097
 50
286.4850946982542723
 51
351.4908714307773039
  0
LINE
  5
B799
  8
0
 10
3430.701993309511181
 20
177.5100774370046111
 30
0.0
 11
3430.701993309511181
 21
177.5227548378883
 31
0.0
  0
LINE
  5
B79A
  8
0
 10
3430.6970706365609658
 20
177.5044169477417029
 30
0.0
 11
3430.6970720497120055
 21
177.5032636571046112
 31
0.0
  0
LINE
  5
B79B
  8
0
 10
3430.6765782849220159
 20
177.4964770545012129
 30
0.0
 11
3430.6970720496119611
 21
177.4896904518045915
 31
0.0
  0
LINE
  5
B79C
  8
0
 10
3430.6970720496119611
 20
177.4896904518045915
 30
0.0
 11
3430.7175658144119552
 21
177.4964770545045951
 31
0.0
  0
LINE
  5
B79D
  8
0
 10
3430.7191192937120832
 20
177.4959626128045898
 30
0.0
 11
3430.7191192937120832
 21
177.4832852119045867
 31
0.0
  0
ARC
  5
B79E
  8
0
 10
3430.7260196663710303
 20
177.4843144092689045
 30
0.0
 40
0.0069767033797108
 50
188.483185026518214
 51
253.5082643943133007
  0
ARC
  5
B79F
  8
0
 10
3430.7220583769390032
 20
177.4843180618715905
 30
0.0
 40
0.0069802732163097
 50
286.4850946982542723
 51
351.4908714307773039
  0
LINE
  5
B7A0
  8
0
 10
3430.7289618134109332
 20
177.4832852119045867
 30
0.0
 11
3430.7289618134109332
 21
177.4959626127883041
 31
0.0
  0
LINE
  5
B7A1
  8
0
 10
3430.7240391404611728
 20
177.477624722641707
 30
0.0
 11
3430.7240405536122125
 21
177.4764714320045869
 31
0.0
  0
LINE
  5
B7A2
  8
0
 10
3430.7240405536122125
 20
177.4764714320045869
 30
0.0
 11
3430.7001661996118855
 21
177.4685653320046015
 31
0.0
  0
ARC
  5
B7A3
  8
0
 10
3430.6988215994738312
 20
177.4735169530976862
 30
0.0
 40
0.0051309356827061
 50
250.0633672519309982
 51
285.1921815497091757
  0
ARC
  5
B7A4
  8
0
 10
3430.6953346007057917
 20
177.4733772085729129
 30
0.0
 40
0.0049955715132474
 50
252.9055096665761084
 51
290.3526791601918831
  0
LINE
  5
B7A5
  8
0
 10
3430.6938661603880973
 20
177.4686023349856043
 30
0.0
 11
3430.6701035457122089
 21
177.4764714320045869
 31
0.0
  0
LINE
  5
B7A6
  8
0
 10
3430.6750248055118391
 20
177.4832852119045867
 30
0.0
 11
3430.6970720496119611
 21
177.4759841676045937
 31
0.0
  0
LINE
  5
B7A7
  8
0
 10
3430.6970720496119611
 20
177.4759841676045937
 30
0.0
 11
3430.7191192937120832
 21
177.4832852119045867
 31
0.0
  0
LINE
  5
B7A8
  8
0
 10
3430.6970720496119611
 20
177.4896904518045915
 30
0.0
 11
3430.6970720496119611
 21
177.4686935128048901
 31
0.0
  0
LINE
  5
B7A9
  8
0
 10
3430.6651822858120795
 20
177.4959626128045898
 30
0.0
 11
3430.6651822858120795
 21
177.4832852119045867
 31
0.0
  0
ARC
  5
B7AA
  8
0
 10
3430.6720826584710267
 20
177.4843144092689045
 30
0.0
 40
0.0069767033797108
 50
188.483185026518214
 51
253.5082643943133007
  0
ARC
  5
B7AB
  8
0
 10
3430.668121369039909
 20
177.4843180618715905
 30
0.0
 40
0.0069802732163097
 50
286.4850946982542723
 51
351.4908714307773039
  0
LINE
  5
B7AC
  8
0
 10
3430.6750248055118391
 20
177.4832852119045867
 30
0.0
 11
3430.6750248055118391
 21
177.4959626127883041
 31
0.0
  0
LINE
  5
B7AD
  8
0
 10
3430.6701021325611691
 20
177.477624722641707
 30
0.0
 11
3430.6701035457122089
 21
177.4764714320045869
 31
0.0
  0
LINE
  5
B7AE
  8
0
 10
3430.7844523007220232
 20
177.4964770545012129
 30
0.0
 11
3430.8049460654119684
 21
177.4896904518045915
 31
0.0
  0
LINE
  5
B7AF
  8
0
 10
3430.8049460654119684
 20
177.4896904518045915
 30
0.0
 11
3430.8254398302119625
 21
177.4964770545045951
 31
0.0
  0
LINE
  5
B7B0
  8
0
 10
3430.826993309511181
 20
177.4959626128045898
 30
0.0
 11
3430.826993309511181
 21
177.4832852119045867
 31
0.0
  0
ARC
  5
B7B1
  8
0
 10
3430.8338936821710377
 20
177.4843144092689045
 30
0.0
 40
0.0069767033797108
 50
188.483185026518214
 51
253.5082643943133007
  0
ARC
  5
B7B2
  8
0
 10
3430.82993239273992
 20
177.4843180618715905
 30
0.0
 40
0.0069802732163097
 50
286.4850946982542723
 51
351.4908714307773039
  0
LINE
  5
B7B3
  8
0
 10
3430.8368358292109406
 20
177.4832852119045867
 30
0.0
 11
3430.8368358292109406
 21
177.4959626127883041
 31
0.0
  0
LINE
  5
B7B4
  8
0
 10
3430.8319131562611801
 20
177.477624722641707
 30
0.0
 11
3430.8319145694122199
 21
177.4764714320045869
 31
0.0
  0
LINE
  5
B7B5
  8
0
 10
3430.8319145694122199
 20
177.4764714320045869
 30
0.0
 11
3430.8080402154118929
 21
177.4685653320046015
 31
0.0
  0
ARC
  5
B7B6
  8
0
 10
3430.8066956152738385
 20
177.4735169530976862
 30
0.0
 40
0.0051309356827061
 50
250.0633672519309982
 51
285.1921815497091757
  0
ARC
  5
B7B7
  8
0
 10
3430.803208616505799
 20
177.4733772085729129
 30
0.0
 40
0.0049955715132474
 50
252.9055096665761084
 51
290.3526791601918831
  0
LINE
  5
B7B8
  8
0
 10
3430.8017401761881047
 20
177.4686023349856043
 30
0.0
 11
3430.7779775615122162
 21
177.4764714320045869
 31
0.0
  0
LINE
  5
B7B9
  8
0
 10
3430.7828988213118464
 20
177.4832852119045867
 30
0.0
 11
3430.8049460654119684
 21
177.4759841676045937
 31
0.0
  0
LINE
  5
B7BA
  8
0
 10
3430.8049460654119684
 20
177.4759841676045937
 30
0.0
 11
3430.826993309511181
 21
177.4832852119045867
 31
0.0
  0
LINE
  5
B7BB
  8
0
 10
3430.8049460654119684
 20
177.4896904518045915
 30
0.0
 11
3430.8049460654119684
 21
177.4686935128048901
 31
0.0
  0
LINE
  5
B7BC
  8
0
 10
3430.7730563016120868
 20
177.4959626128045898
 30
0.0
 11
3430.7730563016120868
 21
177.4832852119045867
 31
0.0
  0
ARC
  5
B7BD
  8
0
 10
3430.779956674271034
 20
177.4843144092689045
 30
0.0
 40
0.0069767033797108
 50
188.483185026518214
 51
253.5082643943133007
  0
ARC
  5
B7BE
  8
0
 10
3430.7759953848399164
 20
177.4843180618715905
 30
0.0
 40
0.0069802732163097
 50
286.4850946982542723
 51
351.4908714307773039
  0
LINE
  5
B7BF
  8
0
 10
3430.7828988213118464
 20
177.4832852119045867
 30
0.0
 11
3430.7828988213118464
 21
177.4959626127883041
 31
0.0
  0
LINE
  5
B7C0
  8
0
 10
3430.7779761483611765
 20
177.477624722641707
 30
0.0
 11
3430.7779775615122162
 21
177.4764714320045869
 31
0.0
  0
LINE
  5
B7C1
  8
0
 10
3430.7305152928220195
 20
177.4428926042012051
 30
0.0
 11
3430.7510090575110553
 21
177.4361060015046121
 31
0.0
  0
LINE
  5
B7C2
  8
0
 10
3430.7510090575110553
 20
177.4361060015046121
 30
0.0
 11
3430.7715028223119589
 21
177.4428926042045873
 31
0.0
  0
LINE
  5
B7C3
  8
0
 10
3430.7730563016120868
 20
177.4423781625046104
 30
0.0
 11
3430.7730563016120868
 21
177.4297007616046074
 31
0.0
  0
ARC
  5
B7C4
  8
0
 10
3430.779956674271034
 20
177.4307299589688967
 30
0.0
 40
0.0069767033797108
 50
188.483185026518214
 51
253.5082643943133007
  0
ARC
  5
B7C5
  8
0
 10
3430.7759953848399164
 20
177.4307336115716112
 30
0.0
 40
0.0069802732163097
 50
286.4850946982542723
 51
351.4908714307773039
  0
LINE
  5
B7C6
  8
0
 10
3430.7828988213118464
 20
177.4297007616046074
 30
0.0
 11
3430.7828988213118464
 21
177.4423782103683891
 31
0.0
  0
LINE
  5
B7C7
  8
0
 10
3430.7779761483611765
 20
177.4240402723416992
 30
0.0
 11
3430.7779775615122162
 21
177.4228869817046075
 31
0.0
  0
LINE
  5
B7C8
  8
0
 10
3430.7779775615122162
 20
177.4228869817046075
 30
0.0
 11
3430.7541032075118892
 21
177.4149808817045937
 31
0.0
  0
ARC
  5
B7C9
  8
0
 10
3430.7527586073729253
 20
177.4199325027977068
 30
0.0
 40
0.0051309356827061
 50
250.0633672519309982
 51
285.1921815497091757
  0
ARC
  5
B7CA
  8
0
 10
3430.7492716086071596
 20
177.4197927582729051
 30
0.0
 40
0.0049955715132474
 50
252.9055096665761084
 51
290.3526791601918831
  0
LINE
  5
B7CB
  8
0
 10
3430.747803168288101
 20
177.4150178846855965
 30
0.0
 11
3430.7240405536122125
 21
177.4228869817046075
 31
0.0
  0
LINE
  5
B7CC
  8
0
 10
3430.7289618134109332
 20
177.4297007616046074
 30
0.0
 11
3430.7510090575110553
 21
177.4223997173045859
 31
0.0
  0
LINE
  5
B7CD
  8
0
 10
3430.7510090575110553
 20
177.4223997173045859
 30
0.0
 11
3430.7730563016120868
 21
177.4297007616046074
 31
0.0
  0
LINE
  5
B7CE
  8
0
 10
3430.7510090575110553
 20
177.4361060015046121
 30
0.0
 11
3430.7510090575110553
 21
177.4151090625049108
 31
0.0
  0
LINE
  5
B7CF
  8
0
 10
3430.7191192937120832
 20
177.4423781625046104
 30
0.0
 11
3430.7191192937120832
 21
177.4297007616046074
 31
0.0
  0
ARC
  5
B7D0
  8
0
 10
3430.7260196663710303
 20
177.4307299589688967
 30
0.0
 40
0.0069767033797108
 50
188.483185026518214
 51
253.5082643943133007
  0
ARC
  5
B7D1
  8
0
 10
3430.7220583769390032
 20
177.4307336115716112
 30
0.0
 40
0.0069802732163097
 50
286.4850946982542723
 51
351.4908714307773039
  0
LINE
  5
B7D2
  8
0
 10
3430.7289618134109332
 20
177.4297007616046074
 30
0.0
 11
3430.7289618134109332
 21
177.442378162488211
 31
0.0
  0
LINE
  5
B7D3
  8
0
 10
3430.7240391404611728
 20
177.4240402723416992
 30
0.0
 11
3430.7240405536122125
 21
177.4228869817046075
 31
0.0
  0
LINE
  5
B7D4
  8
0
 10
3430.7035467889218125
 20
177.4696848294011886
 30
0.0
 11
3430.7240405536122125
 21
177.4628982267045956
 31
0.0
  0
LINE
  5
B7D5
  8
0
 10
3430.7240405536122125
 20
177.4628982267045956
 30
0.0
 11
3430.7445343184108424
 21
177.4696848294045992
 31
0.0
  0
LINE
  5
B7D6
  8
0
 10
3430.7460877977109703
 20
177.4691703877045938
 30
0.0
 11
3430.7460877977109703
 21
177.4564929868045908
 31
0.0
  0
ARC
  5
B7D7
  8
0
 10
3430.752988170370827
 20
177.4575221841689086
 30
0.0
 40
0.0069767033797108
 50
188.483185026518214
 51
253.5082643943133007
  0
ARC
  5
B7D8
  8
0
 10
3430.7490268809401641
 20
177.4575258367715946
 30
0.0
 40
0.0069802732163097
 50
286.4850946982542723
 51
351.4908714307773039
  0
LINE
  5
B7D9
  8
0
 10
3430.7559303174111847
 20
177.4564929868045908
 30
0.0
 11
3430.7559303174111847
 21
177.4691703876881945
 31
0.0
  0
LINE
  5
B7DA
  8
0
 10
3430.7510076444609695
 20
177.4508324975417111
 30
0.0
 11
3430.7510090576120092
 21
177.449679206904591
 31
0.0
  0
LINE
  5
B7DB
  8
0
 10
3430.7510090576120092
 20
177.449679206904591
 30
0.0
 11
3430.7271347036107727
 21
177.4417731069046056
 31
0.0
  0
ARC
  5
B7DC
  8
0
 10
3430.7257901034731731
 20
177.4467247279976903
 30
0.0
 40
0.0051309356827061
 50
250.0633672519309982
 51
285.1921815497091757
  0
ARC
  5
B7DD
  8
0
 10
3430.7223031047069526
 20
177.4465849834728886
 30
0.0
 40
0.0049955715132474
 50
252.9055096665761084
 51
290.3526791601918831
  0
LINE
  5
B7DE
  8
0
 10
3430.720834664387894
 20
177.4418101098856084
 30
0.0
 11
3430.6970720497120055
 21
177.449679206904591
 31
0.0
  0
LINE
  5
B7DF
  8
0
 10
3430.701993309511181
 20
177.4564929868045908
 30
0.0
 11
3430.7240405536122125
 21
177.4491919425045978
 31
0.0
  0
LINE
  5
B7E0
  8
0
 10
3430.7240405536122125
 20
177.4491919425045978
 30
0.0
 11
3430.7460877977109703
 21
177.4564929868045908
 31
0.0
  0
LINE
  5
B7E1
  8
0
 10
3430.7240405536122125
 20
177.4628982267045956
 30
0.0
 11
3430.7240405536122125
 21
177.4419012877048942
 31
0.0
  0
LINE
  5
B7E2
  8
0
 10
3430.6921507898118762
 20
177.4691703877045938
 30
0.0
 11
3430.6921507898118762
 21
177.4564929868045908
 31
0.0
  0
ARC
  5
B7E3
  8
0
 10
3430.6990511624699138
 20
177.4575221841689086
 30
0.0
 40
0.0069767033797108
 50
188.483185026518214
 51
253.5082643943133007
  0
ARC
  5
B7E4
  8
0
 10
3430.6950898730401605
 20
177.4575258367715946
 30
0.0
 40
0.0069802732163097
 50
286.4850946982542723
 51
351.4908714307773039
  0
LINE
  5
B7E5
  8
0
 10
3430.701993309511181
 20
177.4564929868045908
 30
0.0
 11
3430.701993309511181
 21
177.4691703876881945
 31
0.0
  0
LINE
  5
B7E6
  8
0
 10
3430.6970706365609658
 20
177.4508324975417111
 30
0.0
 11
3430.6970720497120055
 21
177.449679206904591
 31
0.0
  0
LINE
  5
B7E7
  8
0
 10
3430.8114208046217755
 20
177.4161003791012092
 30
0.0
 11
3430.8319145693108112
 21
177.4093137764045878
 31
0.0
  0
LINE
  5
B7E8
  8
0
 10
3430.8319145693108112
 20
177.4093137764045878
 30
0.0
 11
3430.8524083341108053
 21
177.4161003791045914
 31
0.0
  0
LINE
  5
B7E9
  8
0
 10
3430.8539618134109332
 20
177.415585937404586
 30
0.0
 11
3430.8539618134109332
 21
177.4029085365046114
 31
0.0
  0
ARC
  5
B7EA
  8
0
 10
3430.8608621860707899
 20
177.4039377338689008
 30
0.0
 40
0.0069767033797108
 50
188.483185026518214
 51
253.5082643943133007
  0
ARC
  5
B7EB
  8
0
 10
3430.8569008966392175
 20
177.4039413864715868
 30
0.0
 40
0.0069802732163097
 50
286.4850946982542723
 51
351.4908714307773039
  0
LINE
  5
B7EC
  8
0
 10
3430.8638043331120571
 20
177.4029085365046114
 30
0.0
 11
3430.8638043331120571
 21
177.4155859373881867
 31
0.0
  0
LINE
  5
B7ED
  8
0
 10
3430.8588816601609324
 20
177.3972480472417033
 30
0.0
 11
3430.8588830733110626
 21
177.3960947566046116
 31
0.0
  0
LINE
  5
B7EE
  8
0
 10
3430.8588830733110626
 20
177.3960947566046116
 30
0.0
 11
3430.8350087193120999
 21
177.3881886566045978
 31
0.0
  0
ARC
  5
B7EF
  8
0
 10
3430.8336641191740455
 20
177.3931402776977109
 30
0.0
 40
0.0051309356827061
 50
250.0633672519309982
 51
285.1921815497091757
  0
ARC
  5
B7F0
  8
0
 10
3430.8301771204069155
 20
177.3930005331729092
 30
0.0
 40
0.0049955715132474
 50
252.9055096665761084
 51
290.3526791601918831
  0
LINE
  5
B7F1
  8
0
 10
3430.8287086800878569
 20
177.3882256595856006
 30
0.0
 11
3430.8049460654119684
 21
177.3960947566046116
 31
0.0
  0
LINE
  5
B7F2
  8
0
 10
3430.8098673252120534
 20
177.4029085365046114
 30
0.0
 11
3430.8319145693108112
 21
177.39560749220459
 31
0.0
  0
LINE
  5
B7F3
  8
0
 10
3430.8319145693108112
 20
177.39560749220459
 30
0.0
 11
3430.8539618134109332
 21
177.4029085365046114
 31
0.0
  0
LINE
  5
B7F4
  8
0
 10
3430.8319145693108112
 20
177.4093137764045878
 30
0.0
 11
3430.8319145693108112
 21
177.3883168374048864
 31
0.0
  0
LINE
  5
B7F5
  8
0
 10
3430.8000248055118391
 20
177.415585937404586
 30
0.0
 11
3430.8000248055118391
 21
177.4029085365046114
 31
0.0
  0
ARC
  5
B7F6
  8
0
 10
3430.8069251781698767
 20
177.4039377338689008
 30
0.0
 40
0.0069767033797108
 50
188.483185026518214
 51
253.5082643943133007
  0
ARC
  5
B7F7
  8
0
 10
3430.8029638887401234
 20
177.4039413864715868
 30
0.0
 40
0.0069802732163097
 50
286.4850946982542723
 51
351.4908714307773039
  0
LINE
  5
B7F8
  8
0
 10
3430.8098673252120534
 20
177.4029085365046114
 30
0.0
 11
3430.8098673252120534
 21
177.4155859373881867
 31
0.0
  0
LINE
  5
B7F9
  8
0
 10
3430.8049446522609287
 20
177.3972480472417033
 30
0.0
 11
3430.8049460654119684
 21
177.3960947566046116
 31
0.0
  0
LINE
  5
B7FA
  8
0
 10
3430.8114208046217755
 20
177.4696848294011886
 30
0.0
 11
3430.8319145693108112
 21
177.4628982267045956
 31
0.0
  0
LINE
  5
B7FB
  8
0
 10
3430.8319145693108112
 20
177.4628982267045956
 30
0.0
 11
3430.8524083341108053
 21
177.4696848294045992
 31
0.0
  0
LINE
  5
B7FC
  8
0
 10
3430.8539618134109332
 20
177.4691703877045938
 30
0.0
 11
3430.8539618134109332
 21
177.4564929868045908
 31
0.0
  0
ARC
  5
B7FD
  8
0
 10
3430.8608621860707899
 20
177.4575221841689086
 30
0.0
 40
0.0069767033797108
 50
188.483185026518214
 51
253.5082643943133007
  0
ARC
  5
B7FE
  8
0
 10
3430.8569008966392175
 20
177.4575258367715946
 30
0.0
 40
0.0069802732163097
 50
286.4850946982542723
 51
351.4908714307773039
  0
LINE
  5
B7FF
  8
0
 10
3430.8638043331120571
 20
177.4564929868045908
 30
0.0
 11
3430.8638043331120571
 21
177.4691703876881945
 31
0.0
  0
LINE
  5
B800
  8
0
 10
3430.8588816601609324
 20
177.4508324975417111
 30
0.0
 11
3430.8588830733110626
 21
177.449679206904591
 31
0.0
  0
LINE
  5
B801
  8
0
 10
3430.8588830733110626
 20
177.449679206904591
 30
0.0
 11
3430.8350087193120999
 21
177.4417731069046056
 31
0.0
  0
ARC
  5
B802
  8
0
 10
3430.8336641191740455
 20
177.4467247279976903
 30
0.0
 40
0.0051309356827061
 50
250.0633672519309982
 51
285.1921815497091757
  0
ARC
  5
B803
  8
0
 10
3430.8301771204069155
 20
177.4465849834728886
 30
0.0
 40
0.0049955715132474
 50
252.9055096665761084
 51
290.3526791601918831
  0
LINE
  5
B804
  8
0
 10
3430.8287086800878569
 20
177.4418101098856084
 30
0.0
 11
3430.8049460654119684
 21
177.449679206904591
 31
0.0
  0
LINE
  5
B805
  8
0
 10
3430.8098673252120534
 20
177.4564929868045908
 30
0.0
 11
3430.8319145693108112
 21
177.4491919425045978
 31
0.0
  0
LINE
  5
B806
  8
0
 10
3430.8319145693108112
 20
177.4491919425045978
 30
0.0
 11
3430.8539618134109332
 21
177.4564929868045908
 31
0.0
  0
LINE
  5
B807
  8
0
 10
3430.8319145693108112
 20
177.4628982267045956
 30
0.0
 11
3430.8319145693108112
 21
177.4419012877048942
 31
0.0
  0
LINE
  5
B808
  8
0
 10
3430.8000248055118391
 20
177.4691703877045938
 30
0.0
 11
3430.8000248055118391
 21
177.4564929868045908
 31
0.0
  0
ARC
  5
B809
  8
0
 10
3430.8069251781698767
 20
177.4575221841689086
 30
0.0
 40
0.0069767033797108
 50
188.483185026518214
 51
253.5082643943133007
  0
ARC
  5
B80A
  8
0
 10
3430.8029638887401234
 20
177.4575258367715946
 30
0.0
 40
0.0069802732163097
 50
286.4850946982542723
 51
351.4908714307773039
  0
LINE
  5
B80B
  8
0
 10
3430.8098673252120534
 20
177.4564929868045908
 30
0.0
 11
3430.8098673252120534
 21
177.4691703876881945
 31
0.0
  0
LINE
  5
B80C
  8
0
 10
3430.8049446522609287
 20
177.4508324975417111
 30
0.0
 11
3430.8049460654119684
 21
177.449679206904591
 31
0.0
  0
LINE
  5
B80D
  8
0
 10
3430.8174089325730165
 20
177.6284551843965005
 30
0.0
 11
3430.8319145693108112
 21
177.6236515773045994
 31
0.0
  0
LINE
  5
B80E
  8
0
 10
3430.8319145693108112
 20
177.6236515773045994
 30
0.0
 11
3430.8524083341108053
 21
177.6304381800046031
 31
0.0
  0
LINE
  5
B80F
  8
0
 10
3430.8539618134109332
 20
177.6299237383045977
 30
0.0
 11
3430.8539618134109332
 21
177.6172463374045947
 31
0.0
  0
ARC
  5
B810
  8
0
 10
3430.8608621860707899
 20
177.6182755347689124
 30
0.0
 40
0.0069767033797108
 50
188.483185026518214
 51
253.5082643943133007
  0
ARC
  5
B811
  8
0
 10
3430.8569008966392175
 20
177.6182791873715985
 30
0.0
 40
0.0069802732163097
 50
286.4850946982542723
 51
351.4908714307773039
  0
LINE
  5
B812
  8
0
 10
3430.8638043331120571
 20
177.6172463374045947
 30
0.0
 11
3430.8638043331120571
 21
177.6299271897808865
 31
0.0
  0
LINE
  5
B813
  8
0
 10
3430.8588816601609324
 20
177.6115858481416865
 30
0.0
 11
3430.8588830733110626
 21
177.6104325575045948
 31
0.0
  0
LINE
  5
B814
  8
0
 10
3430.8588830733110626
 20
177.6104325575045948
 30
0.0
 11
3430.8350087193120999
 21
177.6025264575046094
 31
0.0
  0
ARC
  5
B815
  8
0
 10
3430.8336641191740455
 20
177.6074780785976088
 30
0.0
 40
0.0051309356827061
 50
250.0633672519309982
 51
285.1921815497091757
  0
ARC
  5
B816
  8
0
 10
3430.8301771204069155
 20
177.6073383340728924
 30
0.0
 40
0.0049955715132474
 50
252.9055096665761084
 51
290.3526791601918831
  0
LINE
  5
B817
  8
0
 10
3430.8287086800878569
 20
177.6025634604856123
 30
0.0
 11
3430.8049460654119684
 21
177.6104325575045948
 31
0.0
  0
LINE
  5
B818
  8
0
 10
3430.8098673252120534
 20
177.6172463374045947
 30
0.0
 11
3430.8319145693108112
 21
177.6099452931046017
 31
0.0
  0
LINE
  5
B819
  8
0
 10
3430.8319145693108112
 20
177.6099452931046017
 30
0.0
 11
3430.8539618134109332
 21
177.6172463374045947
 31
0.0
  0
LINE
  5
B81A
  8
0
 10
3430.8319145693108112
 20
177.6236515773045994
 30
0.0
 11
3430.8319145693108112
 21
177.6026546383048981
 31
0.0
  0
LINE
  5
B81B
  8
0
 10
3430.8000248055118391
 20
177.6249820036854032
 30
0.0
 11
3430.8000248055118391
 21
177.6172463374045947
 31
0.0
  0
ARC
  5
B81C
  8
0
 10
3430.8069251781698767
 20
177.6182755347689124
 30
0.0
 40
0.0069767033797108
 50
188.483185026518214
 51
253.5082643943133007
  0
ARC
  5
B81D
  8
0
 10
3430.8029638887401234
 20
177.6182791873715985
 30
0.0
 40
0.0069802732163097
 50
286.4850946982542723
 51
351.4908714307773039
  0
LINE
  5
B81E
  8
0
 10
3430.8098673252120534
 20
177.6172463374045947
 30
0.0
 11
3430.8098673252120534
 21
177.6270499765086868
 31
0.0
  0
LINE
  5
B81F
  8
0
 10
3430.8049446522609287
 20
177.6115858481416865
 30
0.0
 11
3430.8049460654119684
 21
177.6104325575045948
 31
0.0
  0
LINE
  5
B820
  8
0
 10
3430.8383893086220269
 20
177.4428926042012051
 30
0.0
 11
3430.8588830733110626
 21
177.4361060015046121
 31
0.0
  0
LINE
  5
B821
  8
0
 10
3430.8588830733110626
 20
177.4361060015046121
 30
0.0
 11
3430.8793768381119662
 21
177.4428926042045873
 31
0.0
  0
LINE
  5
B822
  8
0
 10
3430.8809303174120942
 20
177.4423781625046104
 30
0.0
 11
3430.8809303174120942
 21
177.4297007616046074
 31
0.0
  0
ARC
  5
B823
  8
0
 10
3430.8878306900710413
 20
177.4307299589688967
 30
0.0
 40
0.0069767033797108
 50
188.483185026518214
 51
253.5203665004611935
  0
LINE
  5
B824
  8
0
 10
3430.8858515773122235
 20
177.4228869817046075
 30
0.0
 11
3430.8619772233118965
 21
177.4149808817045937
 31
0.0
  0
ARC
  5
B825
  8
0
 10
3430.8606326231729327
 20
177.4199325027977068
 30
0.0
 40
0.0051309356827061
 50
250.0633672519309982
 51
285.1921815497091757
  0
ARC
  5
B826
  8
0
 10
3430.8571456244058027
 20
177.4197927582729051
 30
0.0
 40
0.0049955715132474
 50
252.9055096665761084
 51
290.3526791601918831
  0
LINE
  5
B827
  8
0
 10
3430.8556771840881083
 20
177.4150178846855965
 30
0.0
 11
3430.8319145694122199
 21
177.4228869817046075
 31
0.0
  0
LINE
  5
B828
  8
0
 10
3430.8368358292109406
 20
177.4297007616046074
 30
0.0
 11
3430.8588830733110626
 21
177.4223997173045859
 31
0.0
  0
LINE
  5
B829
  8
0
 10
3430.8588830733110626
 20
177.4223997173045859
 30
0.0
 11
3430.8809303174120942
 21
177.4297007616046074
 31
0.0
  0
LINE
  5
B82A
  8
0
 10
3430.8588830733110626
 20
177.4361060015046121
 30
0.0
 11
3430.8588830733110626
 21
177.4151090625049108
 31
0.0
  0
LINE
  5
B82B
  8
0
 10
3430.826993309511181
 20
177.4423781625046104
 30
0.0
 11
3430.826993309511181
 21
177.4297007616046074
 31
0.0
  0
ARC
  5
B82C
  8
0
 10
3430.8338936821710377
 20
177.4307299589688967
 30
0.0
 40
0.0069767033797108
 50
188.483185026518214
 51
253.5082643943133007
  0
ARC
  5
B82D
  8
0
 10
3430.82993239273992
 20
177.4307336115716112
 30
0.0
 40
0.0069802732163097
 50
286.4850946982542723
 51
351.4908714307773039
  0
LINE
  5
B82E
  8
0
 10
3430.8368358292109406
 20
177.4297007616046074
 30
0.0
 11
3430.8368358292109406
 21
177.442378162488211
 31
0.0
  0
LINE
  5
B82F
  8
0
 10
3430.8319131562611801
 20
177.4240402723416992
 30
0.0
 11
3430.8319145694122199
 21
177.4228869817046075
 31
0.0
  0
LINE
  5
B830
  8
0
 10
3430.7844523007220232
 20
177.4428926042012051
 30
0.0
 11
3430.8049460654119684
 21
177.4361060015046121
 31
0.0
  0
LINE
  5
B831
  8
0
 10
3430.8049460654119684
 20
177.4361060015046121
 30
0.0
 11
3430.8254398302119625
 21
177.4428926042045873
 31
0.0
  0
LINE
  5
B832
  8
0
 10
3430.8319145694122199
 20
177.4228869817046075
 30
0.0
 11
3430.8080402154118929
 21
177.4149808817045937
 31
0.0
  0
ARC
  5
B833
  8
0
 10
3430.8066956152738385
 20
177.4199325027977068
 30
0.0
 40
0.0051309356827061
 50
250.0633672519309982
 51
285.1921815497091757
  0
ARC
  5
B834
  8
0
 10
3430.803208616505799
 20
177.4197927582729051
 30
0.0
 40
0.0049955715132474
 50
252.9055096665761084
 51
290.3526791601918831
  0
LINE
  5
B835
  8
0
 10
3430.8017401761881047
 20
177.4150178846855965
 30
0.0
 11
3430.7779775615122162
 21
177.4228869817046075
 31
0.0
  0
LINE
  5
B836
  8
0
 10
3430.7828988213118464
 20
177.4297007616046074
 30
0.0
 11
3430.8049460654119684
 21
177.4223997173045859
 31
0.0
  0
LINE
  5
B837
  8
0
 10
3430.8049460654119684
 20
177.4223997173045859
 30
0.0
 11
3430.826993309511181
 21
177.4297007616046074
 31
0.0
  0
LINE
  5
B838
  8
0
 10
3430.8049460654119684
 20
177.4361060015046121
 30
0.0
 11
3430.8049460654119684
 21
177.4151090625049108
 31
0.0
  0
LINE
  5
B839
  8
0
 10
3430.7305152928220195
 20
177.4964770545012129
 30
0.0
 11
3430.7510090575110553
 21
177.4896904518045915
 31
0.0
  0
LINE
  5
B83A
  8
0
 10
3430.7510090575110553
 20
177.4896904518045915
 30
0.0
 11
3430.7715028223119589
 21
177.4964770545045951
 31
0.0
  0
LINE
  5
B83B
  8
0
 10
3430.7779775615122162
 20
177.4764714320045869
 30
0.0
 11
3430.7541032075118892
 21
177.4685653320046015
 31
0.0
  0
ARC
  5
B83C
  8
0
 10
3430.7527586073729253
 20
177.4735169530976862
 30
0.0
 40
0.0051309356827061
 50
250.0633672519309982
 51
285.1921815497091757
  0
ARC
  5
B83D
  8
0
 10
3430.7492716086071596
 20
177.4733772085729129
 30
0.0
 40
0.0049955715132474
 50
252.9055096665761084
 51
290.3526791601918831
  0
LINE
  5
B83E
  8
0
 10
3430.747803168288101
 20
177.4686023349856043
 30
0.0
 11
3430.7240405536122125
 21
177.4764714320045869
 31
0.0
  0
LINE
  5
B83F
  8
0
 10
3430.7289618134109332
 20
177.4832852119045867
 30
0.0
 11
3430.7510090575110553
 21
177.4759841676045937
 31
0.0
  0
LINE
  5
B840
  8
0
 10
3430.7510090575110553
 20
177.4759841676045937
 30
0.0
 11
3430.7730563016120868
 21
177.4832852119045867
 31
0.0
  0
LINE
  5
B841
  8
0
 10
3430.7510090575110553
 20
177.4896904518045915
 30
0.0
 11
3430.7510090575110553
 21
177.4686935128048901
 31
0.0
  0
LINE
  5
B842
  8
0
 10
3430.6527827965919641
 20
177.5222185211706005
 30
0.0
 11
3430.6701035457122089
 21
177.5164826769045874
 31
0.0
  0
LINE
  5
B843
  8
0
 10
3430.6701035457122089
 20
177.5164826769045874
 30
0.0
 11
3430.690597310512203
 21
177.523269279604591
 31
0.0
  0
LINE
  5
B844
  8
0
 10
3430.6970720497120055
 20
177.5032636571046112
 30
0.0
 11
3430.6731976957112238
 21
177.4953575571045974
 31
0.0
  0
ARC
  5
B845
  8
0
 10
3430.6718530955731694
 20
177.5003091781977105
 30
0.0
 40
0.0051309356827061
 50
250.0633672519309982
 51
285.1921815497091757
  0
ARC
  5
B846
  8
0
 10
3430.6683660968069489
 20
177.5001694336729088
 30
0.0
 40
0.0049955715132474
 50
252.9055096665761084
 51
290.3526791601918831
  0
LINE
  5
B847
  8
0
 10
3430.6668976564878903
 20
177.4953945600856002
 30
0.0
 11
3430.6493282515111787
 21
177.501212747781409
 31
0.0
  0
LINE
  5
B848
  8
0
 10
3430.6499247995980113
 20
177.5094586754709951
 30
0.0
 11
3430.6701035457122089
 21
177.5027763927045896
 31
0.0
  0
LINE
  5
B849
  8
0
 10
3430.6701035457122089
 20
177.5027763927045896
 30
0.0
 11
3430.6921507898118762
 21
177.5100774370046111
 31
0.0
  0
LINE
  5
B84A
  8
0
 10
3430.6701035457122089
 20
177.5164826769045874
 30
0.0
 11
3430.6701035457122089
 21
177.495485737904886
 31
0.0
  0
LINE
  5
B84B
  8
0
 10
3430.7305152928220195
 20
177.5500615047012047
 30
0.0
 11
3430.7510090575110553
 21
177.5432749020046117
 31
0.0
  0
LINE
  5
B84C
  8
0
 10
3430.7510090575110553
 20
177.5432749020046117
 30
0.0
 11
3430.7715028223119589
 21
177.5500615047045869
 31
0.0
  0
LINE
  5
B84D
  8
0
 10
3430.7779775615122162
 20
177.5300558822046071
 30
0.0
 11
3430.7541032075118892
 21
177.5221497822045933
 31
0.0
  0
ARC
  5
B84E
  8
0
 10
3430.7527586073729253
 20
177.5271014032977064
 30
0.0
 40
0.0051309356827061
 50
250.0633672519309982
 51
285.1921815497091757
  0
ARC
  5
B84F
  8
0
 10
3430.7492716086071596
 20
177.5269616587729047
 30
0.0
 40
0.0049955715132474
 50
252.9055096665761084
 51
290.3526791601918831
  0
LINE
  5
B850
  8
0
 10
3430.747803168288101
 20
177.5221867851855961
 30
0.0
 11
3430.7240405536122125
 21
177.5300558822046071
 31
0.0
  0
LINE
  5
B851
  8
0
 10
3430.7289618134109332
 20
177.536869662104607
 30
0.0
 11
3430.7510090575110553
 21
177.529568617804614
 31
0.0
  0
LINE
  5
B852
  8
0
 10
3430.7510090575110553
 20
177.529568617804614
 30
0.0
 11
3430.7730563016120868
 21
177.536869662104607
 31
0.0
  0
LINE
  5
B853
  8
0
 10
3430.7510090575110553
 20
177.5432749020046117
 30
0.0
 11
3430.7510090575110553
 21
177.5222779630049104
 31
0.0
  0
LINE
  5
B854
  8
0
 10
3430.7574837968218162
 20
177.5768537298012006
 30
0.0
 11
3430.7779775615122162
 21
177.5700671271046076
 31
0.0
  0
LINE
  5
B855
  8
0
 10
3430.7779775615122162
 20
177.5700671271046076
 30
0.0
 11
3430.7984713263122103
 21
177.5768537298046112
 31
0.0
  0
LINE
  5
B856
  8
0
 10
3430.8049460655120129
 20
177.556848107304603
 30
0.0
 11
3430.7810717115107764
 21
177.5489420073045892
 31
0.0
  0
ARC
  5
B857
  8
0
 10
3430.7797271113740862
 20
177.5538936283977023
 30
0.0
 40
0.0051309356827061
 50
250.0633672519309982
 51
285.1921815497091757
  0
ARC
  5
B858
  8
0
 10
3430.7762401126060468
 20
177.5537538838727869
 30
0.0
 40
0.0049955715132474
 50
252.9055096665761084
 51
290.3526791601918831
  0
LINE
  5
B859
  8
0
 10
3430.7747716722878977
 20
177.548979010285592
 30
0.0
 11
3430.7510090576120092
 21
177.556848107304603
 31
0.0
  0
LINE
  5
B85A
  8
0
 10
3430.7559303174111847
 20
177.5636618872046029
 30
0.0
 11
3430.7779775615122162
 21
177.5563608429046099
 31
0.0
  0
LINE
  5
B85B
  8
0
 10
3430.7779775615122162
 20
177.5563608429046099
 30
0.0
 11
3430.8000248056118835
 21
177.5636618872046029
 31
0.0
  0
LINE
  5
B85C
  8
0
 10
3430.7779775615122162
 20
177.5700671271046076
 30
0.0
 11
3430.7779775615122162
 21
177.5490701881049063
 31
0.0
  0
LINE
  5
B85D
  8
0
 10
3430.7844523007220232
 20
177.6036459549011965
 30
0.0
 11
3430.8049460654119684
 21
177.5968593522046035
 31
0.0
  0
LINE
  5
B85E
  8
0
 10
3430.8049460654119684
 20
177.5968593522046035
 30
0.0
 11
3430.8254398302119625
 21
177.6036459549046072
 31
0.0
  0
LINE
  5
B85F
  8
0
 10
3430.8319145694122199
 20
177.5836403324045989
 30
0.0
 11
3430.8080402154118929
 21
177.5757342324046135
 31
0.0
  0
ARC
  5
B860
  8
0
 10
3430.8066956152738385
 20
177.5806858534976129
 30
0.0
 40
0.0051309356827061
 50
250.0633672519309982
 51
285.1921815497091757
  0
ARC
  5
B861
  8
0
 10
3430.803208616505799
 20
177.5805461089728112
 30
0.0
 40
0.0049955715132474
 50
252.9055096665761084
 51
290.3526791601918831
  0
LINE
  5
B862
  8
0
 10
3430.8017401761881047
 20
177.5757712353855879
 30
0.0
 11
3430.7779775615122162
 21
177.5836403324045989
 31
0.0
  0
LINE
  5
B863
  8
0
 10
3430.7828988213118464
 20
177.5904541123045988
 30
0.0
 11
3430.8049460654119684
 21
177.5831530680046058
 31
0.0
  0
LINE
  5
B864
  8
0
 10
3430.8049460654119684
 20
177.5831530680046058
 30
0.0
 11
3430.826993309511181
 21
177.5904541123045988
 31
0.0
  0
LINE
  5
B865
  8
0
 10
3430.8049460654119684
 20
177.5968593522046035
 30
0.0
 11
3430.8049460654119684
 21
177.5758624132049022
 31
0.0
  0
LINE
  5
B866
  8
0
 10
3430.8049460655120129
 20
177.6104325575045948
 30
0.0
 11
3430.7810717115107764
 21
177.6025264575046094
 31
0.0
  0
ARC
  5
B867
  8
0
 10
3430.7797271113740862
 20
177.6074780785976088
 30
0.0
 40
0.0051309356827061
 50
250.0633672519309982
 51
285.1921815497091757
  0
ARC
  5
B868
  8
0
 10
3430.7762401126060468
 20
177.6073383340728924
 30
0.0
 40
0.0049955715132474
 50
252.9055096665761084
 51
290.3526791601918831
  0
LINE
  5
B869
  8
0
 10
3430.7747716722878977
 20
177.6025634604856123
 30
0.0
 11
3430.7514897045948601
 21
177.6102733890884053
 31
0.0
  0
LINE
  5
B86A
  8
0
 10
3430.7634445404210055
 20
177.6147579685716096
 30
0.0
 11
3430.7779775615122162
 21
177.6099452931046017
 31
0.0
  0
LINE
  5
B86B
  8
0
 10
3430.7779775615122162
 20
177.6099452931046017
 30
0.0
 11
3430.8000248056118835
 21
177.6172463374045947
 31
0.0
  0
LINE
  5
B86C
  8
0
 10
3430.7779775615122162
 20
177.619365644704601
 30
0.0
 11
3430.7779775615122162
 21
177.6026546383048981
 31
0.0
  0
LINE
  5
B86D
  8
0
 10
3430.8383893086220269
 20
177.5500615047012047
 30
0.0
 11
3430.8588830733110626
 21
177.5432749020046117
 31
0.0
  0
LINE
  5
B86E
  8
0
 10
3430.8588830733110626
 20
177.5432749020046117
 30
0.0
 11
3430.8793768381119662
 21
177.5500615047045869
 31
0.0
  0
LINE
  5
B86F
  8
0
 10
3430.8858515773122235
 20
177.5300558822046071
 30
0.0
 11
3430.8619772233118965
 21
177.5221497822045933
 31
0.0
  0
ARC
  5
B870
  8
0
 10
3430.8606326231729327
 20
177.5271014032977064
 30
0.0
 40
0.0051309356827061
 50
250.0633672519309982
 51
285.1921815497091757
  0
ARC
  5
B871
  8
0
 10
3430.8571456244058027
 20
177.5269616587729047
 30
0.0
 40
0.0049955715132474
 50
252.9055096665761084
 51
290.3526791601918831
  0
LINE
  5
B872
  8
0
 10
3430.8556771840881083
 20
177.5221867851855961
 30
0.0
 11
3430.8319145694122199
 21
177.5300558822046071
 31
0.0
  0
LINE
  5
B873
  8
0
 10
3430.8368358292109406
 20
177.536869662104607
 30
0.0
 11
3430.8588830733110626
 21
177.529568617804614
 31
0.0
  0
LINE
  5
B874
  8
0
 10
3430.8588830733110626
 20
177.529568617804614
 30
0.0
 11
3430.8858515772121791
 21
177.538499359478493
 31
0.0
  0
LINE
  5
B875
  8
0
 10
3430.8588830733110626
 20
177.5432749020046117
 30
0.0
 11
3430.8588830733110626
 21
177.5222779630049104
 31
0.0
  0
LINE
  5
B876
  8
0
 10
3430.7574837968218162
 20
177.5232692796012088
 30
0.0
 11
3430.7779775615122162
 21
177.5164826769045874
 31
0.0
  0
LINE
  5
B877
  8
0
 10
3430.7779775615122162
 20
177.5164826769045874
 30
0.0
 11
3430.7984713263122103
 21
177.523269279604591
 31
0.0
  0
LINE
  5
B878
  8
0
 10
3430.8049460655120129
 20
177.5032636571046112
 30
0.0
 11
3430.7810717115107764
 21
177.4953575571045974
 31
0.0
  0
ARC
  5
B879
  8
0
 10
3430.7797271113740862
 20
177.5003091781977105
 30
0.0
 40
0.0051309356827061
 50
250.0633672519309982
 51
285.1921815497091757
  0
ARC
  5
B87A
  8
0
 10
3430.7762401126060468
 20
177.5001694336729088
 30
0.0
 40
0.0049955715132474
 50
252.9055096665761084
 51
290.3526791601918831
  0
LINE
  5
B87B
  8
0
 10
3430.7747716722878977
 20
177.4953945600856002
 30
0.0
 11
3430.7510090576120092
 21
177.5032636571046112
 31
0.0
  0
LINE
  5
B87C
  8
0
 10
3430.7559303174111847
 20
177.5100774370046111
 30
0.0
 11
3430.7779775615122162
 21
177.5027763927045896
 31
0.0
  0
LINE
  5
B87D
  8
0
 10
3430.7779775615122162
 20
177.5027763927045896
 30
0.0
 11
3430.8000248056118835
 21
177.5100774370046111
 31
0.0
  0
LINE
  5
B87E
  8
0
 10
3430.7779775615122162
 20
177.5164826769045874
 30
0.0
 11
3430.7779775615122162
 21
177.495485737904886
 31
0.0
  0
LINE
  5
B87F
  8
0
 10
3430.8653578125217791
 20
177.4161003791012092
 30
0.0
 11
3430.8858515772121791
 21
177.4093137764045878
 31
0.0
  0
ARC
  5
B880
  8
0
 10
3430.8841141283069192
 20
177.3930005331729092
 30
0.0
 40
0.0049955715132474
 50
252.9055096665761084
 51
290.3526791601918831
  0
LINE
  5
B881
  8
0
 10
3430.8826456879878606
 20
177.3882256595856006
 30
0.0
 11
3430.8588830733110626
 21
177.3960947566046116
 31
0.0
  0
LINE
  5
B882
  8
0
 10
3430.8638043331120571
 20
177.4029085365046114
 30
0.0
 11
3430.8858515772121791
 21
177.39560749220459
 31
0.0
  0
LINE
  5
B883
  8
0
 10
3430.8858515772121791
 20
177.4093137764045878
 30
0.0
 11
3430.8858515772121791
 21
177.3883168374048864
 31
0.0
  0
LINE
  5
B884
  8
0
 10
3430.8653578125217791
 20
177.4696848294011886
 30
0.0
 11
3430.8858515772121791
 21
177.4628982267045956
 31
0.0
  0
ARC
  5
B885
  8
0
 10
3430.8841141283069192
 20
177.4465849834728886
 30
0.0
 40
0.0049955715132474
 50
252.9055096665761084
 51
290.3526791601918831
  0
LINE
  5
B886
  8
0
 10
3430.8826456879878606
 20
177.4418101098856084
 30
0.0
 11
3430.8588830733110626
 21
177.449679206904591
 31
0.0
  0
LINE
  5
B887
  8
0
 10
3430.8638043331120571
 20
177.4564929868045908
 30
0.0
 11
3430.8858515772121791
 21
177.4491919425045978
 31
0.0
  0
LINE
  5
B888
  8
0
 10
3430.8858515772121791
 20
177.4628982267045956
 30
0.0
 11
3430.8858515772121791
 21
177.4419012877048942
 31
0.0
  0
LINE
  5
B889
  8
0
 10
3430.8383893086220269
 20
177.4964770545012129
 30
0.0
 11
3430.8588830733110626
 21
177.4896904518045915
 31
0.0
  0
LINE
  5
B88A
  8
0
 10
3430.8588830733110626
 20
177.4896904518045915
 30
0.0
 11
3430.8793768381119662
 21
177.4964770545045951
 31
0.0
  0
LINE
  5
B88B
  8
0
 10
3430.8858515773122235
 20
177.4764714320045869
 30
0.0
 11
3430.8619772233118965
 21
177.4685653320046015
 31
0.0
  0
ARC
  5
B88C
  8
0
 10
3430.8606326231729327
 20
177.4735169530976862
 30
0.0
 40
0.0051309356827061
 50
250.0633672519309982
 51
285.1921815497091757
  0
ARC
  5
B88D
  8
0
 10
3430.8571456244058027
 20
177.4733772085729129
 30
0.0
 40
0.0049955715132474
 50
252.9055096665761084
 51
290.3526791601918831
  0
LINE
  5
B88E
  8
0
 10
3430.8556771840881083
 20
177.4686023349856043
 30
0.0
 11
3430.8319145694122199
 21
177.4764714320045869
 31
0.0
  0
LINE
  5
B88F
  8
0
 10
3430.8368358292109406
 20
177.4832852119045867
 30
0.0
 11
3430.8588830733110626
 21
177.4759841676045937
 31
0.0
  0
LINE
  5
B890
  8
0
 10
3430.8588830733110626
 20
177.4759841676045937
 30
0.0
 11
3430.8809303174120942
 21
177.4832852119045867
 31
0.0
  0
LINE
  5
B891
  8
0
 10
3430.8588830733110626
 20
177.4896904518045915
 30
0.0
 11
3430.8588830733110626
 21
177.4686935128048901
 31
0.0
  0
LINE
  5
B892
  8
0
 10
3430.8653578125217791
 20
177.5768537298012006
 30
0.0
 11
3430.8858515772121791
 21
177.5700671271046076
 31
0.0
  0
ARC
  5
B893
  8
0
 10
3430.8841141283069192
 20
177.5537538838727869
 30
0.0
 40
0.0049955715132474
 50
252.9055096665761084
 51
290.3526791601918831
  0
LINE
  5
B894
  8
0
 10
3430.8826456879878606
 20
177.548979010285592
 30
0.0
 11
3430.8588830733110626
 21
177.556848107304603
 31
0.0
  0
LINE
  5
B895
  8
0
 10
3430.8638043331120571
 20
177.5636618872046029
 30
0.0
 11
3430.8858515772121791
 21
177.5563608429046099
 31
0.0
  0
LINE
  5
B896
  8
0
 10
3430.8858515772121791
 20
177.5700671271046076
 30
0.0
 11
3430.8858515772121791
 21
177.5490701881049063
 31
0.0
  0
LINE
  5
B897
  8
0
 10
3430.8653482516369877
 20
177.630441346131505
 30
0.0
 11
3430.8858515772121791
 21
177.6236515773045994
 31
0.0
  0
ARC
  5
B898
  8
0
 10
3430.8841141283069192
 20
177.6073383340728924
 30
0.0
 40
0.0049955715132474
 50
252.9055096665761084
 51
290.3526791601918831
  0
LINE
  5
B899
  8
0
 10
3430.8826456879878606
 20
177.6025634604856123
 30
0.0
 11
3430.8588830733110626
 21
177.6104325575045948
 31
0.0
  0
LINE
  5
B89A
  8
0
 10
3430.8638043331120571
 20
177.6172463374045947
 30
0.0
 11
3430.8858515772121791
 21
177.6099452931046017
 31
0.0
  0
LINE
  5
B89B
  8
0
 10
3430.8858515772121791
 20
177.6236515773045994
 30
0.0
 11
3430.8858515772121791
 21
177.6026546383048981
 31
0.0
  0
LINE
  5
B89C
  8
0
 10
3430.6970720496119611
 20
177.556848107304603
 30
0.0
 11
3430.6731999148109935
 21
177.5489427939045868
 31
0.0
  0
ARC
  5
B89D
  8
0
 10
3430.6718204920680364
 20
177.5531083170166937
 30
0.0
 40
0.0043879824409238
 50
246.9655964394818
 51
288.3224100083374992
  0
ARC
  5
B89E
  8
0
 10
3430.6683599447369488
 20
177.5537846285986063
 30
0.0
 40
0.0050265389214663
 50
254.1979388699407139
 51
290.2965413703669242
  0
LINE
  5
B89F
  8
0
 10
3430.6701035457231228
 20
177.5490701881008988
 30
0.0
 11
3430.670105913054158
 21
177.5532043712084942
 31
0.0
  0
LINE
  5
B8A0
  8
0
 10
3430.6921512672120116
 20
177.5763391300046123
 30
0.0
 11
3430.6939724289140941
 21
177.5757338623743919
 31
0.0
  0
ARC
  5
B8A1
  8
0
 10
3430.6953526696370318
 20
177.5798868046742029
 30
0.0
 40
0.0043762991440662
 50
251.6156443090708876
 51
293.13409910438412
  0
ARC
  5
B8A2
  8
0
 10
3430.6988172393112109
 20
177.5805806037600973
 30
0.0
 40
0.005030607240343
 50
249.7013030229929029
 51
285.554245778526024
  0
LINE
  5
B8A3
  8
0
 10
3430.7001661996118855
 20
177.5757342324046135
 30
0.0
 11
3430.7240405536122125
 21
177.5836403324045989
 31
0.0
  0
LINE
  5
B8A4
  8
0
 10
3430.7191192937120832
 20
177.5904541123047125
 30
0.0
 11
3430.7036822479599323
 21
177.5851669752495923
 31
0.0
  0
LINE
  5
B8A5
  8
0
 10
3430.6921507898118762
 20
177.5636618872046029
 30
0.0
 11
3430.6734840594681373
 21
177.5574803152611025
 31
0.0
  0
LINE
  5
B8A6
  8
0
 10
3430.6701035457122089
 20
177.5300558822046071
 30
0.0
 11
3430.6536169173550661
 21
177.5246615089045008
 31
0.0
  0
LINE
  5
B8A7
  8
0
 10
3430.6651822858120795
 20
177.5368696621090976
 30
0.0
 11
3430.6580322313120632
 21
177.5345018893046074
 31
0.0
  0
LINE
  5
B8A8
  8
0
 10
3430.6564072487508383
 20
177.4988652611677082
 30
0.0
 11
3430.658301616711924
 21
177.4947129314469123
 31
0.0
  0
LINE
  5
B8A9
  8
0
 10
3430.658301616711924
 20
177.4947129314469123
 30
0.0
 11
3430.6636288067020359
 21
177.4964770544345924
 31
0.0
  0
LINE
  5
B8AA
  8
0
 10
3430.658301616711924
 20
177.4947129314469123
 30
0.0
 11
3430.658301616711924
 21
177.4810066473046106
 31
0.0
  0
ARC
  5
B8AB
  8
0
 10
3430.6710501633970125
 20
177.4810066473046106
 30
0.0
 40
0.012748546685236
 50
180.0
 51
216.6450433223438949
  0
LINE
  5
B8AC
  8
0
 10
3430.6608213860558863
 20
177.4733976029035887
 30
0.0
 11
3430.670103545863185
 21
177.4764714319545931
 31
0.0
  0
LINE
  5
B8AD
  8
0
 10
3430.6697586098130159
 20
177.476357204827309
 30
0.0
 11
3430.6788624172118034
 21
177.4657987665046051
 31
0.0
  0
LINE
  5
B8AE
  8
0
 10
3430.6788624172118034
 20
177.4657987665046051
 30
0.0
 11
3430.6905973106017882
 21
177.4696848293345965
 31
0.0
  0
LINE
  5
B8AF
  8
0
 10
3430.6788624172118034
 20
177.4657987665046051
 30
0.0
 11
3430.6788624172118034
 21
177.4520924823046073
 31
0.0
  0
LINE
  5
B8B0
  8
0
 10
3430.6788624172118034
 20
177.4520924823046073
 30
0.0
 11
3430.6921507898118762
 21
177.4564929868045908
 31
0.0
  0
ARC
  5
B8B1
  8
0
 10
3430.6849767478929607
 20
177.4512883051513938
 30
0.0
 40
0.0061669879659863
 50
172.5072745953272886
 51
254.5644852008674945
  0
LINE
  5
B8B2
  8
0
 10
3430.6833353814681686
 20
177.4453437566546086
 30
0.0
 11
3430.6970720498129594
 21
177.4496792068711954
 31
0.0
  0
LINE
  5
B8B3
  8
0
 10
3430.6970355704211215
 20
177.4496676935563073
 30
0.0
 11
3430.7102390474119602
 21
177.4404663121854924
 31
0.0
  0
LINE
  5
B8B4
  8
0
 10
3430.7102390474119602
 20
177.4404663121854924
 30
0.0
 11
3430.7175658145520174
 21
177.4428926042511989
 31
0.0
  0
LINE
  5
B8B5
  8
0
 10
3430.7102390473928608
 20
177.4404663121983958
 30
0.0
 11
3430.7102390474119602
 21
177.426760028004594
 31
0.0
  0
ARC
  5
B8B6
  8
0
 10
3430.7164135512589382
 20
177.4267600280130068
 30
0.0
 40
0.006174503847868
 50
180.0000000778771039
 51
270.8581742208630772
  0
LINE
  5
B8B7
  8
0
 10
3430.7165060293082206
 20
177.4205862167445957
 30
0.0
 11
3430.7240405536122125
 21
177.4228869817046075
 31
0.0
  0
LINE
  5
B8B8
  8
0
 10
3430.7191192937120832
 20
177.4297007616046074
 30
0.0
 11
3430.7102390474119602
 21
177.4267600280130068
 31
0.0
  0
LINE
  5
B8B9
  8
0
 10
3430.7592682288359356
 20
177.4166900308443076
 30
0.0
 11
3430.7799601267611251
 21
177.409970311917192
 31
0.0
  0
LINE
  5
B8BA
  8
0
 10
3430.7799601267611251
 20
177.409970311917192
 30
0.0
 11
3430.7984713262121659
 21
177.4161003791045914
 31
0.0
  0
LINE
  5
B8BB
  8
0
 10
3430.7799601267120124
 20
177.4099703119329945
 30
0.0
 11
3430.7799601267120124
 21
177.3962640277046034
 31
0.0
  0
ARC
  5
B8BC
  8
0
 10
3430.7870501098750537
 20
177.3977790332338031
 30
0.0
 40
0.0072500415865709
 50
192.0617102640215137
 51
283.53631460900192
  0
LINE
  5
B8BD
  8
0
 10
3430.7887470663108616
 20
177.3907303850045878
 30
0.0
 11
3430.8049460654119684
 21
177.3960947566046116
 31
0.0
  0
LINE
  5
B8BE
  8
0
 10
3430.8000248055118391
 20
177.4029085365046114
 30
0.0
 11
3430.7799601267120124
 21
177.3962640277046034
 31
0.0
  0
LINE
  5
B8BF
  8
0
 10
3430.7510090574110109
 20
177.4496792068381126
 30
0.0
 11
3430.7747716737590054
 21
177.4418101092651057
 31
0.0
  0
ARC
  5
B8C0
  8
0
 10
3430.7762490326208535
 20
177.4462713465931074
 30
0.0
 40
0.0046994922812683
 50
251.6774781645679013
 51
291.5807310828217851
  0
ARC
  5
B8C1
  8
0
 10
3430.7797229311709089
 20
177.44663026098209
 30
0.0
 40
0.0050407840952435
 50
249.7419034069085058
 51
285.5461062561616927
  0
LINE
  5
B8C2
  8
0
 10
3430.7810739305118659
 20
177.4417738935046032
 30
0.0
 11
3430.8049460654119684
 21
177.449679206904591
 31
0.0
  0
LINE
  5
B8C3
  8
0
 10
3430.826993309511181
 20
177.6031315131882025
 30
0.0
 11
3430.826993309511181
 21
177.5904541123045988
 31
0.0
  0
ARC
  5
B8C4
  8
0
 10
3430.8341709129708761
 20
177.5904541123045988
 30
0.0
 40
0.0071776034592688
 50
179.9999999999967031
 51
251.7062399779312898
  0
LINE
  5
B8C5
  8
0
 10
3430.8319179418108433
 20
177.5836392673045907
 30
0.0
 11
3430.8539618134109332
 21
177.5763392881046059
 31
0.0
  0
LINE
  5
B8C6
  8
0
 10
3430.8539618134109332
 20
177.5763392881046059
 30
0.0
 11
3430.8557889234120921
 21
177.5757342324046135
 31
0.0
  0
ARC
  5
B8C7
  8
0
 10
3430.8571663409998109
 20
177.5798936733451114
 30
0.0
 40
0.0043815782716076
 50
251.6774786373904078
 51
293.0669727141972203
  0
ARC
  5
B8C8
  8
0
 10
3430.8606252379158832
 20
177.5805075821735102
 30
0.0
 40
0.0049611220763639
 50
249.4415082991305894
 51
285.8140403493038093
  0
LINE
  5
B8C9
  8
0
 10
3430.8619772232109426
 20
177.5757342324046135
 30
0.0
 11
3430.8858515772121791
 21
177.5836403324045989
 31
0.0
  0
LINE
  5
B8CA
  8
0
 10
3430.858883073160996
 20
177.503263657054589
 30
0.0
 11
3430.8827648583869632
 21
177.4953574690352127
 31
0.0
  0
ARC
  5
B8CB
  8
0
 10
3430.8841092634102097
 20
177.5002093335994005
 30
0.0
 40
0.0050346811831773
 50
254.5124588927932905
 51
290.2466614746678033
  0
LINE
  5
B8CC
  8
0
 10
3430.8809303174120942
 20
177.4959626126882029
 30
0.0
 11
3430.8809303174120942
 21
177.4832852119045867
 31
0.0
  0
ARC
  5
B8CD
  8
0
 10
3430.8878617527348069
 20
177.484341909429304
 30
0.0
 40
0.0070115194717469
 50
188.668003446566388
 51
253.3397386454541049
  0
LINE
  5
B8CE
  8
0
 10
3430.8809303174120942
 20
177.3887937122883045
 30
0.0
 11
3430.8809303174120942
 21
177.3819173910046061
 31
0.0
  0
ARC
  5
B8CF
  8
0
 10
3430.8854925012419699
 20
177.3824340024191031
 30
0.0
 40
0.0045913406165974
 50
186.4605247515538906
 51
274.4855238988876067
  0
LINE
  5
B8D0
  8
0
 10
3430.8463732830891786
 20
177.6324358453954915
 30
0.0
 11
3430.8524083340848847
 21
177.6304381799957923
 31
0.0
  0
LINE
  5
B8D1
  8
0
 10
3430.8524083340848847
 20
177.6304381799957923
 30
0.0
 11
3430.8539618134109332
 21
177.6299237383045977
 31
0.0
  0
LINE
  5
B8D2
  8
0
 10
3430.8539618134109332
 20
177.6299237383045977
 30
0.0
 11
3430.8557834545349579
 21
177.6293183119055925
 31
0.0
  0
ARC
  5
B8D3
  8
0
 10
3430.8571443355072006
 20
177.6339292593000039
 30
0.0
 40
0.0048078146922643
 50
253.6395820960254071
 51
291.2014556948672066
  0
ARC
  5
B8D4
  8
0
 10
3430.8606284784968921
 20
177.6341669081143095
 30
0.0
 40
0.0050324210200825
 50
249.7063254243454082
 51
285.5178851170722965
  0
LINE
  5
B8D5
  8
0
 10
3430.8619748482119576
 20
177.6293179340046038
 30
0.0
 11
3430.8767783693838282
 21
177.6342478084102936
 31
0.0
  0
LINE
  5
B8D6
  8
0
 10
3430.9602823498012185
 20
177.5768537298012006
 30
0.0
 11
3430.9397885851108185
 21
177.5700671271046076
 31
0.0
  0
LINE
  5
B8D7
  8
0
 10
3430.9397885851108185
 20
177.5700671271046076
 30
0.0
 11
3430.9192948203108244
 21
177.5768537298046112
 31
0.0
  0
LINE
  5
B8D8
  8
0
 10
3430.9177413410120607
 20
177.5763392881046059
 30
0.0
 11
3430.9177413410120607
 21
177.5636618872046029
 31
0.0
  0
ARC
  5
B8D9
  8
0
 10
3430.9108409683531136
 20
177.5646910845688922
 30
0.0
 40
0.0069767033797108
 50
286.4917356056866993
 51
351.5168149734817007
  0
ARC
  5
B8DA
  8
0
 10
3430.9148022577837764
 20
177.5646947371716067
 30
0.0
 40
0.0069802732163097
 50
188.5091285692226108
 51
253.5149053017456993
  0
LINE
  5
B8DB
  8
0
 10
3430.9078988213118464
 20
177.5636618872046029
 30
0.0
 11
3430.9078988213118464
 21
177.5763392880882066
 31
0.0
  0
LINE
  5
B8DC
  8
0
 10
3430.9128214942629711
 20
177.5580013979416947
 30
0.0
 11
3430.9128200811119314
 21
177.556848107304603
 31
0.0
  0
LINE
  5
B8DD
  8
0
 10
3430.9128200811119314
 20
177.556848107304603
 30
0.0
 11
3430.9366944351108941
 21
177.5489420073045892
 31
0.0
  0
ARC
  5
B8DE
  8
0
 10
3430.9380390352489485
 20
177.5538936283977023
 30
0.0
 40
0.0051309356827061
 50
254.8078184502907959
 51
289.9366327480689733
  0
ARC
  5
B8DF
  8
0
 10
3430.941526034016988
 20
177.5537538838727869
 30
0.0
 40
0.0049955715132474
 50
249.6473208398082022
 51
287.0944903334237779
  0
LINE
  5
B8E0
  8
0
 10
3430.9429944743351371
 20
177.548979010285592
 30
0.0
 11
3430.966757089011935
 21
177.556848107304603
 31
0.0
  0
LINE
  5
B8E1
  8
0
 10
3430.9618358292109406
 20
177.5636618872046029
 30
0.0
 11
3430.9397885851108185
 21
177.5563608429046099
 31
0.0
  0
LINE
  5
B8E2
  8
0
 10
3430.9397885851108185
 20
177.5563608429046099
 30
0.0
 11
3430.9177413410120607
 21
177.5636618872046029
 31
0.0
  0
LINE
  5
B8E3
  8
0
 10
3430.9397885851108185
 20
177.5700671271046076
 30
0.0
 11
3430.9397885851108185
 21
177.5490701881049063
 31
0.0
  0
LINE
  5
B8E4
  8
0
 10
3430.9716783489120644
 20
177.5763392881046059
 30
0.0
 11
3430.9716783489120644
 21
177.5636618872046029
 31
0.0
  0
ARC
  5
B8E5
  8
0
 10
3430.9647779762522077
 20
177.5646910845688922
 30
0.0
 40
0.0069767033797108
 50
286.4917356056866993
 51
351.5168149734817007
  0
ARC
  5
B8E6
  8
0
 10
3430.9687392656828706
 20
177.5646947371716067
 30
0.0
 40
0.0069802732163097
 50
188.5091285692226108
 51
253.5149053017456993
  0
LINE
  5
B8E7
  8
0
 10
3430.9618358292109406
 20
177.5636618872046029
 30
0.0
 11
3430.9618358292109406
 21
177.5763392880882066
 31
0.0
  0
LINE
  5
B8E8
  8
0
 10
3430.9667585021620653
 20
177.5580013979416947
 30
0.0
 11
3430.966757089011935
 21
177.556848107304603
 31
0.0
  0
LINE
  5
B8E9
  8
0
 10
3430.9602823498012185
 20
177.5232692796012088
 30
0.0
 11
3430.9397885851108185
 21
177.5164826769045874
 31
0.0
  0
LINE
  5
B8EA
  8
0
 10
3430.9397885851108185
 20
177.5164826769045874
 30
0.0
 11
3430.9192948203108244
 21
177.523269279604591
 31
0.0
  0
LINE
  5
B8EB
  8
0
 10
3430.9177413410120607
 20
177.5227548379046141
 30
0.0
 11
3430.9177413410120607
 21
177.5100774370046111
 31
0.0
  0
ARC
  5
B8EC
  8
0
 10
3430.9108409683531136
 20
177.5111066343689004
 30
0.0
 40
0.0069767033797108
 50
286.4917356056866993
 51
351.5168149734817007
  0
ARC
  5
B8ED
  8
0
 10
3430.9148022577837764
 20
177.5111102869715864
 30
0.0
 40
0.0069802732163097
 50
188.5091285692226108
 51
253.5149053017456993
  0
LINE
  5
B8EE
  8
0
 10
3430.9078988213118464
 20
177.5100774370046111
 30
0.0
 11
3430.9078988213118464
 21
177.5227548378883
 31
0.0
  0
LINE
  5
B8EF
  8
0
 10
3430.9128214942629711
 20
177.5044169477417029
 30
0.0
 11
3430.9128200811119314
 21
177.5032636571046112
 31
0.0
  0
LINE
  5
B8F0
  8
0
 10
3430.9128200811119314
 20
177.5032636571046112
 30
0.0
 11
3430.9366944351108941
 21
177.4953575571045974
 31
0.0
  0
ARC
  5
B8F1
  8
0
 10
3430.9380390352489485
 20
177.5003091781977105
 30
0.0
 40
0.0051309356827061
 50
254.8078184502907959
 51
289.9366327480689733
  0
ARC
  5
B8F2
  8
0
 10
3430.941526034016988
 20
177.5001694336729088
 30
0.0
 40
0.0049955715132474
 50
249.6473208398082022
 51
287.0944903334237779
  0
LINE
  5
B8F3
  8
0
 10
3430.9429944743351371
 20
177.4953945600856002
 30
0.0
 11
3430.966757089011935
 21
177.5032636571046112
 31
0.0
  0
LINE
  5
B8F4
  8
0
 10
3430.9618358292109406
 20
177.5100774370046111
 30
0.0
 11
3430.9397885851108185
 21
177.5027763927045896
 31
0.0
  0
LINE
  5
B8F5
  8
0
 10
3430.9397885851108185
 20
177.5027763927045896
 30
0.0
 11
3430.9177413410120607
 21
177.5100774370046111
 31
0.0
  0
LINE
  5
B8F6
  8
0
 10
3430.9397885851108185
 20
177.5164826769045874
 30
0.0
 11
3430.9397885851108185
 21
177.495485737904886
 31
0.0
  0
LINE
  5
B8F7
  8
0
 10
3430.9716783489120644
 20
177.5227548379046141
 30
0.0
 11
3430.9716783489120644
 21
177.5100774370046111
 31
0.0
  0
ARC
  5
B8F8
  8
0
 10
3430.9647779762522077
 20
177.5111066343689004
 30
0.0
 40
0.0069767033797108
 50
286.4917356056866993
 51
351.5168149734817007
  0
ARC
  5
B8F9
  8
0
 10
3430.9687392656828706
 20
177.5111102869715864
 30
0.0
 40
0.0069802732163097
 50
188.5091285692226108
 51
253.5149053017456993
  0
LINE
  5
B8FA
  8
0
 10
3430.9618358292109406
 20
177.5100774370046111
 30
0.0
 11
3430.9618358292109406
 21
177.5227548378883
 31
0.0
  0
LINE
  5
B8FB
  8
0
 10
3430.9667585021620653
 20
177.5044169477417029
 30
0.0
 11
3430.966757089011935
 21
177.5032636571046112
 31
0.0
  0
LINE
  5
B8FC
  8
0
 10
3430.9872508537009708
 20
177.5500615047012047
 30
0.0
 11
3430.966757089011935
 21
177.5432749020046117
 31
0.0
  0
LINE
  5
B8FD
  8
0
 10
3430.966757089011935
 20
177.5432749020046117
 30
0.0
 11
3430.9462633242110314
 21
177.5500615047045869
 31
0.0
  0
LINE
  5
B8FE
  8
0
 10
3430.9447098449109035
 20
177.54954706300461
 30
0.0
 11
3430.9447098449109035
 21
177.536869662104607
 31
0.0
  0
ARC
  5
B8FF
  8
0
 10
3430.9378094722528658
 20
177.5378988594688963
 30
0.0
 40
0.0069767033797108
 50
286.4917356056866993
 51
351.5168149734817007
  0
ARC
  5
B900
  8
0
 10
3430.9417707616830739
 20
177.5379025120716108
 30
0.0
 40
0.0069802732163097
 50
188.5091285692226108
 51
253.5149053017456993
  0
LINE
  5
B901
  8
0
 10
3430.9348673252120534
 20
177.536869662104607
 30
0.0
 11
3430.9348673252120534
 21
177.5495470629882107
 31
0.0
  0
LINE
  5
B902
  8
0
 10
3430.9397899981618139
 20
177.5312091728416988
 30
0.0
 11
3430.9397885850107741
 21
177.5300558822046071
 31
0.0
  0
LINE
  5
B903
  8
0
 10
3430.9397885850107741
 20
177.5300558822046071
 30
0.0
 11
3430.9636629390120106
 21
177.5221497822045933
 31
0.0
  0
ARC
  5
B904
  8
0
 10
3430.965007539150065
 20
177.5271014032977064
 30
0.0
 40
0.0051309356827061
 50
254.8078184502907959
 51
289.9366327480689733
  0
ARC
  5
B905
  8
0
 10
3430.9684945379158307
 20
177.5269616587729047
 30
0.0
 40
0.0049955715132474
 50
249.6473208398082022
 51
287.0944903334237779
  0
LINE
  5
B906
  8
0
 10
3430.9699629782348893
 20
177.5221867851855961
 30
0.0
 11
3430.9937255929107778
 21
177.5300558822046071
 31
0.0
  0
LINE
  5
B907
  8
0
 10
3430.9888043331111476
 20
177.536869662104607
 30
0.0
 11
3430.966757089011935
 21
177.529568617804614
 31
0.0
  0
LINE
  5
B908
  8
0
 10
3430.966757089011935
 20
177.529568617804614
 30
0.0
 11
3430.9447098449109035
 21
177.536869662104607
 31
0.0
  0
LINE
  5
B909
  8
0
 10
3430.966757089011935
 20
177.5432749020046117
 30
0.0
 11
3430.966757089011935
 21
177.5222779630049104
 31
0.0
  0
LINE
  5
B90A
  8
0
 10
3430.9986468528118166
 20
177.54954706300461
 30
0.0
 11
3430.9986468528118166
 21
177.536869662104607
 31
0.0
  0
ARC
  5
B90B
  8
0
 10
3430.99174648015196
 20
177.5378988594688963
 30
0.0
 40
0.0069767033797108
 50
286.4917356056866993
 51
351.5168149734817007
  0
ARC
  5
B90C
  8
0
 10
3430.9957077695839871
 20
177.5379025120716108
 30
0.0
 40
0.0069802732163097
 50
188.5091285692226108
 51
253.5149053017456993
  0
LINE
  5
B90D
  8
0
 10
3430.9888043331111476
 20
177.536869662104607
 30
0.0
 11
3430.9888043331111476
 21
177.5495470629882107
 31
0.0
  0
LINE
  5
B90E
  8
0
 10
3430.9937270060618175
 20
177.5312091728416988
 30
0.0
 11
3430.9937255929107778
 21
177.5300558822046071
 31
0.0
  0
LINE
  5
B90F
  8
0
 10
3431.0681563655011814
 20
177.5768537298012006
 30
0.0
 11
3431.0476626008107814
 21
177.5700671271046076
 31
0.0
  0
LINE
  5
B910
  8
0
 10
3431.0476626008107814
 20
177.5700671271046076
 30
0.0
 11
3431.0271688360107873
 21
177.5768537298046112
 31
0.0
  0
LINE
  5
B911
  8
0
 10
3431.0256153567120236
 20
177.5763392881046059
 30
0.0
 11
3431.0256153567120236
 21
177.5636618872046029
 31
0.0
  0
ARC
  5
B912
  8
0
 10
3431.018714984052167
 20
177.5646910845688922
 30
0.0
 40
0.0069767033797108
 50
286.4917356056866993
 51
351.5168149734817007
  0
ARC
  5
B913
  8
0
 10
3431.0226762734841941
 20
177.5646947371716067
 30
0.0
 40
0.0069802732163097
 50
188.5091285692226108
 51
253.5149053017456993
  0
LINE
  5
B914
  8
0
 10
3431.0157728370118093
 20
177.5636618872046029
 30
0.0
 11
3431.0157728370118093
 21
177.5763392880882066
 31
0.0
  0
LINE
  5
B915
  8
0
 10
3431.020695509962934
 20
177.5580013979416947
 30
0.0
 11
3431.0206940968118943
 21
177.556848107304603
 31
0.0
  0
LINE
  5
B916
  8
0
 10
3431.0206940968118943
 20
177.556848107304603
 30
0.0
 11
3431.0445684508122213
 21
177.5489420073045892
 31
0.0
  0
ARC
  5
B917
  8
0
 10
3431.0459130509498209
 20
177.5538936283977023
 30
0.0
 40
0.0051309356827061
 50
254.8078184502907959
 51
289.9366327480689733
  0
ARC
  5
B918
  8
0
 10
3431.0494000497169509
 20
177.5537538838727869
 30
0.0
 40
0.0049955715132474
 50
249.6473208398082022
 51
287.0944903334237779
  0
LINE
  5
B919
  8
0
 10
3431.0508684900351
 20
177.548979010285592
 30
0.0
 11
3431.0746311047118979
 21
177.556848107304603
 31
0.0
  0
LINE
  5
B91A
  8
0
 10
3431.0697098449109035
 20
177.5636618872046029
 30
0.0
 11
3431.0476626008107814
 21
177.5563608429046099
 31
0.0
  0
LINE
  5
B91B
  8
0
 10
3431.0476626008107814
 20
177.5563608429046099
 30
0.0
 11
3431.0256153567120236
 21
177.5636618872046029
 31
0.0
  0
LINE
  5
B91C
  8
0
 10
3431.0476626008107814
 20
177.5700671271046076
 30
0.0
 11
3431.0476626008107814
 21
177.5490701881049063
 31
0.0
  0
LINE
  5
B91D
  8
0
 10
3431.0795523646111178
 20
177.5766911139442925
 30
0.0
 11
3431.0795523646111178
 21
177.5636618872046029
 31
0.0
  0
ARC
  5
B91E
  8
0
 10
3431.0726519919521706
 20
177.5646910845688922
 30
0.0
 40
0.0069767033797108
 50
286.4917356056866993
 51
351.5168149734817007
  0
ARC
  5
B91F
  8
0
 10
3431.0766132813828335
 20
177.5646947371716067
 30
0.0
 40
0.0069802732163097
 50
188.5091285692226108
 51
253.5149053017456993
  0
LINE
  5
B920
  8
0
 10
3431.0697098449109035
 20
177.5636618872046029
 30
0.0
 11
3431.0697098449109035
 21
177.5763392880882066
 31
0.0
  0
LINE
  5
B921
  8
0
 10
3431.0746325178620282
 20
177.5580013979416947
 30
0.0
 11
3431.0746311047118979
 21
177.556848107304603
 31
0.0
  0
LINE
  5
B922
  8
0
 10
3431.0376830188129134
 20
177.6024853103888859
 30
0.0
 11
3431.0206940969119387
 21
177.5968593522046035
 31
0.0
  0
LINE
  5
B923
  8
0
 10
3431.0206940969119387
 20
177.5968593522046035
 30
0.0
 11
3431.0002003321119446
 21
177.6036459549046072
 31
0.0
  0
LINE
  5
B924
  8
0
 10
3430.9986468528118166
 20
177.6031315132046018
 30
0.0
 11
3430.9986468528118166
 21
177.5904541123045988
 31
0.0
  0
ARC
  5
B925
  8
0
 10
3430.99174648015196
 20
177.5914833096688881
 30
0.0
 40
0.0069767033797108
 50
286.4917356056866993
 51
351.5168149734817007
  0
ARC
  5
B926
  8
0
 10
3430.9957077695839871
 20
177.5914869622716026
 30
0.0
 40
0.0069802732163097
 50
188.5091285692226108
 51
253.5149053017456993
  0
LINE
  5
B927
  8
0
 10
3430.9888043331111476
 20
177.5904541123045988
 30
0.0
 11
3430.9888043331111476
 21
177.6031315131882025
 31
0.0
  0
LINE
  5
B928
  8
0
 10
3430.9937270060618175
 20
177.5847936230416906
 30
0.0
 11
3430.9937255929107778
 21
177.5836403324045989
 31
0.0
  0
LINE
  5
B929
  8
0
 10
3430.9937255929107778
 20
177.5836403324045989
 30
0.0
 11
3431.0175999469120143
 21
177.5757342324046135
 31
0.0
  0
ARC
  5
B92A
  8
0
 10
3431.0189445470500686
 20
177.5806858534976129
 30
0.0
 40
0.0051309356827061
 50
254.8078184502907959
 51
289.9366327480689733
  0
ARC
  5
B92B
  8
0
 10
3431.0224315458158344
 20
177.5805461089728112
 30
0.0
 40
0.0049955715132474
 50
249.6473208398082022
 51
287.0944903334237779
  0
LINE
  5
B92C
  8
0
 10
3431.023899986134893
 20
177.5757712353855879
 30
0.0
 11
3431.0476626008107814
 21
177.5836403324045989
 31
0.0
  0
LINE
  5
B92D
  8
0
 10
3431.0427413410120607
 20
177.5904541123045988
 30
0.0
 11
3431.0206940969119387
 21
177.5831530680046058
 31
0.0
  0
LINE
  5
B92E
  8
0
 10
3431.0206940969119387
 20
177.5831530680046058
 30
0.0
 11
3430.9986468528118166
 21
177.5904541123045988
 31
0.0
  0
LINE
  5
B92F
  8
0
 10
3431.0206940969119387
 20
177.5968593522046035
 30
0.0
 11
3431.0206940969119387
 21
177.5758624132049022
 31
0.0
  0
LINE
  5
B930
  8
0
 10
3431.0525838607109108
 20
177.5950275723537004
 30
0.0
 11
3431.0525838607109108
 21
177.5904541123045988
 31
0.0
  0
ARC
  5
B931
  8
0
 10
3431.0456834880528731
 20
177.5914833096688881
 30
0.0
 40
0.0069767033797108
 50
286.4917356056866993
 51
351.5168149734817007
  0
ARC
  5
B932
  8
0
 10
3431.0496447774830813
 20
177.5914869622716026
 30
0.0
 40
0.0069802732163097
 50
188.5091285692226108
 51
253.5149053017456993
  0
LINE
  5
B933
  8
0
 10
3431.0427413410120607
 20
177.5904541123045988
 30
0.0
 11
3431.0427413410120607
 21
177.6000434524511888
 31
0.0
  0
LINE
  5
B934
  8
0
 10
3431.0476640139618212
 20
177.5847936230416906
 30
0.0
 11
3431.0476626008107814
 21
177.5836403324045989
 31
0.0
  0
LINE
  5
B935
  8
0
 10
3431.0951248695009781
 20
177.5500615047012047
 30
0.0
 11
3431.0746311048119424
 21
177.5432749020046117
 31
0.0
  0
LINE
  5
B936
  8
0
 10
3431.0746311048119424
 20
177.5432749020046117
 30
0.0
 11
3431.0541373400110388
 21
177.5500615047045869
 31
0.0
  0
LINE
  5
B937
  8
0
 10
3431.0525838607109108
 20
177.54954706300461
 30
0.0
 11
3431.0525838607109108
 21
177.536869662104607
 31
0.0
  0
ARC
  5
B938
  8
0
 10
3431.0456834880528731
 20
177.5378988594688963
 30
0.0
 40
0.0069767033797108
 50
286.4917356056866993
 51
351.5168149734817007
  0
ARC
  5
B939
  8
0
 10
3431.0496447774830813
 20
177.5379025120716108
 30
0.0
 40
0.0069802732163097
 50
188.5091285692226108
 51
253.5149053017456993
  0
LINE
  5
B93A
  8
0
 10
3431.0427413410120607
 20
177.536869662104607
 30
0.0
 11
3431.0427413410120607
 21
177.5495470629882107
 31
0.0
  0
LINE
  5
B93B
  8
0
 10
3431.0476640139618212
 20
177.5312091728416988
 30
0.0
 11
3431.0476626008107814
 21
177.5300558822046071
 31
0.0
  0
LINE
  5
B93C
  8
0
 10
3431.0476626008107814
 20
177.5300558822046071
 30
0.0
 11
3431.0715369548111084
 21
177.5221497822045933
 31
0.0
  0
ARC
  5
B93D
  8
0
 10
3431.0728815549500723
 20
177.5271014032977064
 30
0.0
 40
0.0051309356827061
 50
254.8078184502907959
 51
289.9366327480689733
  0
ARC
  5
B93E
  8
0
 10
3431.0763685537158381
 20
177.5269616587729047
 30
0.0
 40
0.0049955715132474
 50
249.6473208398082022
 51
287.0944903334237779
  0
LINE
  5
B93F
  8
0
 10
3431.0778369940348966
 20
177.5221867851855961
 30
0.0
 11
3431.1015996087107851
 21
177.5300558822046071
 31
0.0
  0
LINE
  5
B940
  8
0
 10
3431.0966783489111549
 20
177.536869662104607
 30
0.0
 11
3431.0746311048119424
 21
177.529568617804614
 31
0.0
  0
LINE
  5
B941
  8
0
 10
3431.0746311048119424
 20
177.529568617804614
 30
0.0
 11
3431.0525838607109108
 21
177.536869662104607
 31
0.0
  0
LINE
  5
B942
  8
0
 10
3431.0746311048119424
 20
177.5432749020046117
 30
0.0
 11
3431.0746311048119424
 21
177.5222779630049104
 31
0.0
  0
LINE
  5
B943
  8
0
 10
3431.106520868611824
 20
177.5475875051023138
 30
0.0
 11
3431.106520868611824
 21
177.536869662104607
 31
0.0
  0
ARC
  5
B944
  8
0
 10
3431.0996204959519673
 20
177.5378988594688963
 30
0.0
 40
0.0069767033797108
 50
286.4917356056866993
 51
351.5168149734817007
  0
ARC
  5
B945
  8
0
 10
3431.1035817853839944
 20
177.5379025120716108
 30
0.0
 40
0.0069802732163097
 50
188.5091285692226108
 51
253.5149053017456993
  0
LINE
  5
B946
  8
0
 10
3431.0966783489111549
 20
177.536869662104607
 30
0.0
 11
3431.0966783489111549
 21
177.5495470629882107
 31
0.0
  0
LINE
  5
B947
  8
0
 10
3431.1016010218618248
 20
177.5312091728416988
 30
0.0
 11
3431.1015996087107851
 21
177.5300558822046071
 31
0.0
  0
LINE
  5
B948
  8
0
 10
3431.0681563655011814
 20
177.5232692796012088
 30
0.0
 11
3431.0476626008107814
 21
177.5164826769045874
 31
0.0
  0
LINE
  5
B949
  8
0
 10
3431.0476626008107814
 20
177.5164826769045874
 30
0.0
 11
3431.0271688360107873
 21
177.523269279604591
 31
0.0
  0
LINE
  5
B94A
  8
0
 10
3431.0256153567120236
 20
177.5227548379046141
 30
0.0
 11
3431.0256153567120236
 21
177.5100774370046111
 31
0.0
  0
ARC
  5
B94B
  8
0
 10
3431.018714984052167
 20
177.5111066343689004
 30
0.0
 40
0.0069767033797108
 50
286.4917356056866993
 51
351.5168149734817007
  0
ARC
  5
B94C
  8
0
 10
3431.0226762734841941
 20
177.5111102869715864
 30
0.0
 40
0.0069802732163097
 50
188.5091285692226108
 51
253.5149053017456993
  0
LINE
  5
B94D
  8
0
 10
3431.0157728370118093
 20
177.5100774370046111
 30
0.0
 11
3431.0157728370118093
 21
177.5227548378883
 31
0.0
  0
LINE
  5
B94E
  8
0
 10
3431.020695509962934
 20
177.5044169477417029
 30
0.0
 11
3431.0206940968118943
 21
177.5032636571046112
 31
0.0
  0
LINE
  5
B94F
  8
0
 10
3431.0206940968118943
 20
177.5032636571046112
 30
0.0
 11
3431.0445684508122213
 21
177.4953575571045974
 31
0.0
  0
ARC
  5
B950
  8
0
 10
3431.0459130509498209
 20
177.5003091781977105
 30
0.0
 40
0.0051309356827061
 50
254.8078184502907959
 51
289.9366327480689733
  0
ARC
  5
B951
  8
0
 10
3431.0494000497169509
 20
177.5001694336729088
 30
0.0
 40
0.0049955715132474
 50
249.6473208398082022
 51
287.0944903334237779
  0
LINE
  5
B952
  8
0
 10
3431.0508684900351
 20
177.4953945600856002
 30
0.0
 11
3431.0746311047118979
 21
177.5032636571046112
 31
0.0
  0
LINE
  5
B953
  8
0
 10
3431.0697098449109035
 20
177.5100774370046111
 30
0.0
 11
3431.0476626008107814
 21
177.5027763927045896
 31
0.0
  0
LINE
  5
B954
  8
0
 10
3431.0476626008107814
 20
177.5027763927045896
 30
0.0
 11
3431.0256153567120236
 21
177.5100774370046111
 31
0.0
  0
LINE
  5
B955
  8
0
 10
3431.0476626008107814
 20
177.5164826769045874
 30
0.0
 11
3431.0476626008107814
 21
177.495485737904886
 31
0.0
  0
LINE
  5
B956
  8
0
 10
3431.0795523646111178
 20
177.5227548379046141
 30
0.0
 11
3431.0795523646111178
 21
177.5100774370046111
 31
0.0
  0
ARC
  5
B957
  8
0
 10
3431.0726519919521706
 20
177.5111066343689004
 30
0.0
 40
0.0069767033797108
 50
286.4917356056866993
 51
351.5168149734817007
  0
ARC
  5
B958
  8
0
 10
3431.0766132813828335
 20
177.5111102869715864
 30
0.0
 40
0.0069802732163097
 50
188.5091285692226108
 51
253.5149053017456993
  0
LINE
  5
B959
  8
0
 10
3431.0697098449109035
 20
177.5100774370046111
 30
0.0
 11
3431.0697098449109035
 21
177.5227548378883
 31
0.0
  0
LINE
  5
B95A
  8
0
 10
3431.0746325178620282
 20
177.5044169477417029
 30
0.0
 11
3431.0746311047118979
 21
177.5032636571046112
 31
0.0
  0
LINE
  5
B95B
  8
0
 10
3431.0951248695009781
 20
177.4964770545012129
 30
0.0
 11
3431.0746311048119424
 21
177.4896904518045915
 31
0.0
  0
LINE
  5
B95C
  8
0
 10
3431.0746311048119424
 20
177.4896904518045915
 30
0.0
 11
3431.0541373400110388
 21
177.4964770545045951
 31
0.0
  0
LINE
  5
B95D
  8
0
 10
3431.0525838607109108
 20
177.4959626128045898
 30
0.0
 11
3431.0525838607109108
 21
177.4832852119045867
 31
0.0
  0
ARC
  5
B95E
  8
0
 10
3431.0456834880528731
 20
177.4843144092689045
 30
0.0
 40
0.0069767033797108
 50
286.4917356056866993
 51
351.5168149734817007
  0
ARC
  5
B95F
  8
0
 10
3431.0496447774830813
 20
177.4843180618715905
 30
0.0
 40
0.0069802732163097
 50
188.5091285692226108
 51
253.5149053017456993
  0
LINE
  5
B960
  8
0
 10
3431.0427413410120607
 20
177.4832852119045867
 30
0.0
 11
3431.0427413410120607
 21
177.4959626127883041
 31
0.0
  0
LINE
  5
B961
  8
0
 10
3431.0476640139618212
 20
177.477624722641707
 30
0.0
 11
3431.0476626008107814
 21
177.4764714320045869
 31
0.0
  0
LINE
  5
B962
  8
0
 10
3431.0476626008107814
 20
177.4764714320045869
 30
0.0
 11
3431.0715369548111084
 21
177.4685653320046015
 31
0.0
  0
ARC
  5
B963
  8
0
 10
3431.0728815549500723
 20
177.4735169530976862
 30
0.0
 40
0.0051309356827061
 50
254.8078184502907959
 51
289.9366327480689733
  0
ARC
  5
B964
  8
0
 10
3431.0763685537158381
 20
177.4733772085729129
 30
0.0
 40
0.0049955715132474
 50
249.6473208398082022
 51
287.0944903334237779
  0
LINE
  5
B965
  8
0
 10
3431.0778369940348966
 20
177.4686023349856043
 30
0.0
 11
3431.1015996087107851
 21
177.4764714320045869
 31
0.0
  0
LINE
  5
B966
  8
0
 10
3431.0966783489111549
 20
177.4832852119045867
 30
0.0
 11
3431.0746311048119424
 21
177.4759841676045937
 31
0.0
  0
LINE
  5
B967
  8
0
 10
3431.0746311048119424
 20
177.4759841676045937
 30
0.0
 11
3431.0525838607109108
 21
177.4832852119045867
 31
0.0
  0
LINE
  5
B968
  8
0
 10
3431.0746311048119424
 20
177.4896904518045915
 30
0.0
 11
3431.0746311048119424
 21
177.4686935128048901
 31
0.0
  0
LINE
  5
B969
  8
0
 10
3431.106520868611824
 20
177.4959626128045898
 30
0.0
 11
3431.106520868611824
 21
177.4832852119045867
 31
0.0
  0
ARC
  5
B96A
  8
0
 10
3431.0996204959519673
 20
177.4843144092689045
 30
0.0
 40
0.0069767033797108
 50
286.4917356056866993
 51
351.5168149734817007
  0
ARC
  5
B96B
  8
0
 10
3431.1035817853839944
 20
177.4843180618715905
 30
0.0
 40
0.0069802732163097
 50
188.5091285692226108
 51
253.5149053017456993
  0
LINE
  5
B96C
  8
0
 10
3431.0966783489111549
 20
177.4832852119045867
 30
0.0
 11
3431.0966783489111549
 21
177.4959626127883041
 31
0.0
  0
LINE
  5
B96D
  8
0
 10
3431.1016010218618248
 20
177.477624722641707
 30
0.0
 11
3431.1015996087107851
 21
177.4764714320045869
 31
0.0
  0
LINE
  5
B96E
  8
0
 10
3430.9872508537009708
 20
177.4964770545012129
 30
0.0
 11
3430.966757089011935
 21
177.4896904518045915
 31
0.0
  0
LINE
  5
B96F
  8
0
 10
3430.966757089011935
 20
177.4896904518045915
 30
0.0
 11
3430.9462633242110314
 21
177.4964770545045951
 31
0.0
  0
LINE
  5
B970
  8
0
 10
3430.9447098449109035
 20
177.4959626128045898
 30
0.0
 11
3430.9447098449109035
 21
177.4832852119045867
 31
0.0
  0
ARC
  5
B971
  8
0
 10
3430.9378094722528658
 20
177.4843144092689045
 30
0.0
 40
0.0069767033797108
 50
286.4917356056866993
 51
351.5168149734817007
  0
ARC
  5
B972
  8
0
 10
3430.9417707616830739
 20
177.4843180618715905
 30
0.0
 40
0.0069802732163097
 50
188.5091285692226108
 51
253.5149053017456993
  0
LINE
  5
B973
  8
0
 10
3430.9348673252120534
 20
177.4832852119045867
 30
0.0
 11
3430.9348673252120534
 21
177.4959626127883041
 31
0.0
  0
LINE
  5
B974
  8
0
 10
3430.9397899981618139
 20
177.477624722641707
 30
0.0
 11
3430.9397885850107741
 21
177.4764714320045869
 31
0.0
  0
LINE
  5
B975
  8
0
 10
3430.9397885850107741
 20
177.4764714320045869
 30
0.0
 11
3430.9636629390120106
 21
177.4685653320046015
 31
0.0
  0
ARC
  5
B976
  8
0
 10
3430.965007539150065
 20
177.4735169530976862
 30
0.0
 40
0.0051309356827061
 50
254.8078184502907959
 51
289.9366327480689733
  0
ARC
  5
B977
  8
0
 10
3430.9684945379158307
 20
177.4733772085729129
 30
0.0
 40
0.0049955715132474
 50
249.6473208398082022
 51
287.0944903334237779
  0
LINE
  5
B978
  8
0
 10
3430.9699629782348893
 20
177.4686023349856043
 30
0.0
 11
3430.9937255929107778
 21
177.4764714320045869
 31
0.0
  0
LINE
  5
B979
  8
0
 10
3430.9888043331111476
 20
177.4832852119045867
 30
0.0
 11
3430.966757089011935
 21
177.4759841676045937
 31
0.0
  0
LINE
  5
B97A
  8
0
 10
3430.966757089011935
 20
177.4759841676045937
 30
0.0
 11
3430.9447098449109035
 21
177.4832852119045867
 31
0.0
  0
LINE
  5
B97B
  8
0
 10
3430.966757089011935
 20
177.4896904518045915
 30
0.0
 11
3430.966757089011935
 21
177.4686935128048901
 31
0.0
  0
LINE
  5
B97C
  8
0
 10
3430.9986468528118166
 20
177.4959626128045898
 30
0.0
 11
3430.9986468528118166
 21
177.4832852119045867
 31
0.0
  0
ARC
  5
B97D
  8
0
 10
3430.99174648015196
 20
177.4843144092689045
 30
0.0
 40
0.0069767033797108
 50
286.4917356056866993
 51
351.5168149734817007
  0
ARC
  5
B97E
  8
0
 10
3430.9957077695839871
 20
177.4843180618715905
 30
0.0
 40
0.0069802732163097
 50
188.5091285692226108
 51
253.5149053017456993
  0
LINE
  5
B97F
  8
0
 10
3430.9888043331111476
 20
177.4832852119045867
 30
0.0
 11
3430.9888043331111476
 21
177.4959626127883041
 31
0.0
  0
LINE
  5
B980
  8
0
 10
3430.9937270060618175
 20
177.477624722641707
 30
0.0
 11
3430.9937255929107778
 21
177.4764714320045869
 31
0.0
  0
LINE
  5
B981
  8
0
 10
3431.0411878616009744
 20
177.4428926042012051
 30
0.0
 11
3431.0206940969119387
 21
177.4361060015046121
 31
0.0
  0
LINE
  5
B982
  8
0
 10
3431.0206940969119387
 20
177.4361060015046121
 30
0.0
 11
3431.0002003321119446
 21
177.4428926042045873
 31
0.0
  0
LINE
  5
B983
  8
0
 10
3430.9986468528118166
 20
177.4423781625046104
 30
0.0
 11
3430.9986468528118166
 21
177.4297007616046074
 31
0.0
  0
ARC
  5
B984
  8
0
 10
3430.99174648015196
 20
177.4307299589688967
 30
0.0
 40
0.0069767033797108
 50
286.4917356056866993
 51
351.5168149734817007
  0
ARC
  5
B985
  8
0
 10
3430.9957077695839871
 20
177.4307336115716112
 30
0.0
 40
0.0069802732163097
 50
188.5091285692226108
 51
253.5149053017456993
  0
LINE
  5
B986
  8
0
 10
3430.9888043331111476
 20
177.4297007616046074
 30
0.0
 11
3430.9888043331111476
 21
177.4423782103683891
 31
0.0
  0
LINE
  5
B987
  8
0
 10
3430.9937270060618175
 20
177.4240402723416992
 30
0.0
 11
3430.9937255929107778
 21
177.4228869817046075
 31
0.0
  0
LINE
  5
B988
  8
0
 10
3430.9937255929107778
 20
177.4228869817046075
 30
0.0
 11
3431.0175999469120143
 21
177.4149808817045937
 31
0.0
  0
ARC
  5
B989
  8
0
 10
3431.0189445470500686
 20
177.4199325027977068
 30
0.0
 40
0.0051309356827061
 50
254.8078184502907959
 51
289.9366327480689733
  0
ARC
  5
B98A
  8
0
 10
3431.0224315458158344
 20
177.4197927582729051
 30
0.0
 40
0.0049955715132474
 50
249.6473208398082022
 51
287.0944903334237779
  0
LINE
  5
B98B
  8
0
 10
3431.023899986134893
 20
177.4150178846855965
 30
0.0
 11
3431.0476626008107814
 21
177.4228869817046075
 31
0.0
  0
LINE
  5
B98C
  8
0
 10
3431.0427413410120607
 20
177.4297007616046074
 30
0.0
 11
3431.0206940969119387
 21
177.4223997173045859
 31
0.0
  0
LINE
  5
B98D
  8
0
 10
3431.0206940969119387
 20
177.4223997173045859
 30
0.0
 11
3430.9986468528118166
 21
177.4297007616046074
 31
0.0
  0
LINE
  5
B98E
  8
0
 10
3431.0206940969119387
 20
177.4361060015046121
 30
0.0
 11
3431.0206940969119387
 21
177.4151090625049108
 31
0.0
  0
LINE
  5
B98F
  8
0
 10
3431.0525838607109108
 20
177.4423781625046104
 30
0.0
 11
3431.0525838607109108
 21
177.4297007616046074
 31
0.0
  0
ARC
  5
B990
  8
0
 10
3431.0456834880528731
 20
177.4307299589688967
 30
0.0
 40
0.0069767033797108
 50
286.4917356056866993
 51
351.5168149734817007
  0
ARC
  5
B991
  8
0
 10
3431.0496447774830813
 20
177.4307336115716112
 30
0.0
 40
0.0069802732163097
 50
188.5091285692226108
 51
253.5149053017456993
  0
LINE
  5
B992
  8
0
 10
3431.0427413410120607
 20
177.4297007616046074
 30
0.0
 11
3431.0427413410120607
 21
177.442378162488211
 31
0.0
  0
LINE
  5
B993
  8
0
 10
3431.0476640139618212
 20
177.4240402723416992
 30
0.0
 11
3431.0476626008107814
 21
177.4228869817046075
 31
0.0
  0
LINE
  5
B994
  8
0
 10
3431.0681563655011814
 20
177.4696848294011886
 30
0.0
 11
3431.0476626008107814
 21
177.4628982267045956
 31
0.0
  0
LINE
  5
B995
  8
0
 10
3431.0476626008107814
 20
177.4628982267045956
 30
0.0
 11
3431.0271688360107873
 21
177.4696848294045992
 31
0.0
  0
LINE
  5
B996
  8
0
 10
3431.0256153567120236
 20
177.4691703877045938
 30
0.0
 11
3431.0256153567120236
 21
177.4564929868045908
 31
0.0
  0
ARC
  5
B997
  8
0
 10
3431.018714984052167
 20
177.4575221841689086
 30
0.0
 40
0.0069767033797108
 50
286.4917356056866993
 51
351.5168149734817007
  0
ARC
  5
B998
  8
0
 10
3431.0226762734841941
 20
177.4575258367715946
 30
0.0
 40
0.0069802732163097
 50
188.5091285692226108
 51
253.5149053017456993
  0
LINE
  5
B999
  8
0
 10
3431.0157728370118093
 20
177.4564929868045908
 30
0.0
 11
3431.0157728370118093
 21
177.4691703876881945
 31
0.0
  0
LINE
  5
B99A
  8
0
 10
3431.020695509962934
 20
177.4508324975417111
 30
0.0
 11
3431.0206940968118943
 21
177.449679206904591
 31
0.0
  0
LINE
  5
B99B
  8
0
 10
3431.0206940968118943
 20
177.449679206904591
 30
0.0
 11
3431.0445684508122213
 21
177.4417731069046056
 31
0.0
  0
ARC
  5
B99C
  8
0
 10
3431.0459130509498209
 20
177.4467247279976903
 30
0.0
 40
0.0051309356827061
 50
254.8078184502907959
 51
289.9366327480689733
  0
ARC
  5
B99D
  8
0
 10
3431.0494000497169509
 20
177.4465849834728886
 30
0.0
 40
0.0049955715132474
 50
249.6473208398082022
 51
287.0944903334237779
  0
LINE
  5
B99E
  8
0
 10
3431.0508684900351
 20
177.4418101098856084
 30
0.0
 11
3431.0746311047118979
 21
177.449679206904591
 31
0.0
  0
LINE
  5
B99F
  8
0
 10
3431.0697098449109035
 20
177.4564929868045908
 30
0.0
 11
3431.0476626008107814
 21
177.4491919425045978
 31
0.0
  0
LINE
  5
B9A0
  8
0
 10
3431.0476626008107814
 20
177.4491919425045978
 30
0.0
 11
3431.0256153567120236
 21
177.4564929868045908
 31
0.0
  0
LINE
  5
B9A1
  8
0
 10
3431.0476626008107814
 20
177.4628982267045956
 30
0.0
 11
3431.0476626008107814
 21
177.4419012877048942
 31
0.0
  0
LINE
  5
B9A2
  8
0
 10
3431.0795523646111178
 20
177.4691703877045938
 30
0.0
 11
3431.0795523646111178
 21
177.4564929868045908
 31
0.0
  0
ARC
  5
B9A3
  8
0
 10
3431.0726519919521706
 20
177.4575221841689086
 30
0.0
 40
0.0069767033797108
 50
286.4917356056866993
 51
351.5168149734817007
  0
ARC
  5
B9A4
  8
0
 10
3431.0766132813828335
 20
177.4575258367715946
 30
0.0
 40
0.0069802732163097
 50
188.5091285692226108
 51
253.5149053017456993
  0
LINE
  5
B9A5
  8
0
 10
3431.0697098449109035
 20
177.4564929868045908
 30
0.0
 11
3431.0697098449109035
 21
177.4691703876881945
 31
0.0
  0
LINE
  5
B9A6
  8
0
 10
3431.0746325178620282
 20
177.4508324975417111
 30
0.0
 11
3431.0746311047118979
 21
177.449679206904591
 31
0.0
  0
LINE
  5
B9A7
  8
0
 10
3430.9602823498012185
 20
177.4161003791012092
 30
0.0
 11
3430.9397885851108185
 21
177.4093137764045878
 31
0.0
  0
LINE
  5
B9A8
  8
0
 10
3430.9397885851108185
 20
177.4093137764045878
 30
0.0
 11
3430.9192948203108244
 21
177.4161003791045914
 31
0.0
  0
LINE
  5
B9A9
  8
0
 10
3430.9177413410120607
 20
177.415585937404586
 30
0.0
 11
3430.9177413410120607
 21
177.4029085365046114
 31
0.0
  0
ARC
  5
B9AA
  8
0
 10
3430.9108409683531136
 20
177.4039377338689008
 30
0.0
 40
0.0069767033797108
 50
286.4917356056866993
 51
351.5168149734817007
  0
ARC
  5
B9AB
  8
0
 10
3430.9148022577837764
 20
177.4039413864715868
 30
0.0
 40
0.0069802732163097
 50
188.5091285692226108
 51
253.5149053017456993
  0
LINE
  5
B9AC
  8
0
 10
3430.9078988213118464
 20
177.4029085365046114
 30
0.0
 11
3430.9078988213118464
 21
177.4155859373881867
 31
0.0
  0
LINE
  5
B9AD
  8
0
 10
3430.9128214942629711
 20
177.3972480472417033
 30
0.0
 11
3430.9128200811119314
 21
177.3960947566046116
 31
0.0
  0
LINE
  5
B9AE
  8
0
 10
3430.9128200811119314
 20
177.3960947566046116
 30
0.0
 11
3430.9366944351108941
 21
177.3881886566045978
 31
0.0
  0
ARC
  5
B9AF
  8
0
 10
3430.9380390352489485
 20
177.3931402776977109
 30
0.0
 40
0.0051309356827061
 50
254.8078184502907959
 51
289.9366327480689733
  0
ARC
  5
B9B0
  8
0
 10
3430.941526034016988
 20
177.3930005331729092
 30
0.0
 40
0.0049955715132474
 50
249.6473208398082022
 51
287.0944903334237779
  0
LINE
  5
B9B1
  8
0
 10
3430.9429944743351371
 20
177.3882256595856006
 30
0.0
 11
3430.966757089011935
 21
177.3960947566046116
 31
0.0
  0
LINE
  5
B9B2
  8
0
 10
3430.9618358292109406
 20
177.4029085365046114
 30
0.0
 11
3430.9397885851108185
 21
177.39560749220459
 31
0.0
  0
LINE
  5
B9B3
  8
0
 10
3430.9397885851108185
 20
177.39560749220459
 30
0.0
 11
3430.9177413410120607
 21
177.4029085365046114
 31
0.0
  0
LINE
  5
B9B4
  8
0
 10
3430.9397885851108185
 20
177.4093137764045878
 30
0.0
 11
3430.9397885851108185
 21
177.3883168374048864
 31
0.0
  0
LINE
  5
B9B5
  8
0
 10
3430.9716783489120644
 20
177.415585937404586
 30
0.0
 11
3430.9716783489120644
 21
177.4029085365046114
 31
0.0
  0
ARC
  5
B9B6
  8
0
 10
3430.9647779762522077
 20
177.4039377338689008
 30
0.0
 40
0.0069767033797108
 50
286.4917356056866993
 51
351.5168149734817007
  0
ARC
  5
B9B7
  8
0
 10
3430.9687392656828706
 20
177.4039413864715868
 30
0.0
 40
0.0069802732163097
 50
188.5091285692226108
 51
253.5149053017456993
  0
LINE
  5
B9B8
  8
0
 10
3430.9618358292109406
 20
177.4029085365046114
 30
0.0
 11
3430.9618358292109406
 21
177.4155859373881867
 31
0.0
  0
LINE
  5
B9B9
  8
0
 10
3430.9667585021620653
 20
177.3972480472417033
 30
0.0
 11
3430.966757089011935
 21
177.3960947566046116
 31
0.0
  0
LINE
  5
B9BA
  8
0
 10
3430.9602823498012185
 20
177.4696848294011886
 30
0.0
 11
3430.9397885851108185
 21
177.4628982267045956
 31
0.0
  0
LINE
  5
B9BB
  8
0
 10
3430.9397885851108185
 20
177.4628982267045956
 30
0.0
 11
3430.9192948203108244
 21
177.4696848294045992
 31
0.0
  0
LINE
  5
B9BC
  8
0
 10
3430.9177413410120607
 20
177.4691703877045938
 30
0.0
 11
3430.9177413410120607
 21
177.4564929868045908
 31
0.0
  0
ARC
  5
B9BD
  8
0
 10
3430.9108409683531136
 20
177.4575221841689086
 30
0.0
 40
0.0069767033797108
 50
286.4917356056866993
 51
351.5168149734817007
  0
ARC
  5
B9BE
  8
0
 10
3430.9148022577837764
 20
177.4575258367715946
 30
0.0
 40
0.0069802732163097
 50
188.5091285692226108
 51
253.5149053017456993
  0
LINE
  5
B9BF
  8
0
 10
3430.9078988213118464
 20
177.4564929868045908
 30
0.0
 11
3430.9078988213118464
 21
177.4691703876881945
 31
0.0
  0
LINE
  5
B9C0
  8
0
 10
3430.9128214942629711
 20
177.4508324975417111
 30
0.0
 11
3430.9128200811119314
 21
177.449679206904591
 31
0.0
  0
LINE
  5
B9C1
  8
0
 10
3430.9128200811119314
 20
177.449679206904591
 30
0.0
 11
3430.9366944351108941
 21
177.4417731069046056
 31
0.0
  0
ARC
  5
B9C2
  8
0
 10
3430.9380390352489485
 20
177.4467247279976903
 30
0.0
 40
0.0051309356827061
 50
254.8078184502907959
 51
289.9366327480689733
  0
ARC
  5
B9C3
  8
0
 10
3430.941526034016988
 20
177.4465849834728886
 30
0.0
 40
0.0049955715132474
 50
249.6473208398082022
 51
287.0944903334237779
  0
LINE
  5
B9C4
  8
0
 10
3430.9429944743351371
 20
177.4418101098856084
 30
0.0
 11
3430.966757089011935
 21
177.449679206904591
 31
0.0
  0
LINE
  5
B9C5
  8
0
 10
3430.9618358292109406
 20
177.4564929868045908
 30
0.0
 11
3430.9397885851108185
 21
177.4491919425045978
 31
0.0
  0
LINE
  5
B9C6
  8
0
 10
3430.9397885851108185
 20
177.4491919425045978
 30
0.0
 11
3430.9177413410120607
 21
177.4564929868045908
 31
0.0
  0
LINE
  5
B9C7
  8
0
 10
3430.9397885851108185
 20
177.4628982267045956
 30
0.0
 11
3430.9397885851108185
 21
177.4419012877048942
 31
0.0
  0
LINE
  5
B9C8
  8
0
 10
3430.9716783489120644
 20
177.4691703877045938
 30
0.0
 11
3430.9716783489120644
 21
177.4564929868045908
 31
0.0
  0
ARC
  5
B9C9
  8
0
 10
3430.9647779762522077
 20
177.4575221841689086
 30
0.0
 40
0.0069767033797108
 50
286.4917356056866993
 51
351.5168149734817007
  0
ARC
  5
B9CA
  8
0
 10
3430.9687392656828706
 20
177.4575258367715946
 30
0.0
 40
0.0069802732163097
 50
188.5091285692226108
 51
253.5149053017456993
  0
LINE
  5
B9CB
  8
0
 10
3430.9618358292109406
 20
177.4564929868045908
 30
0.0
 11
3430.9618358292109406
 21
177.4691703876881945
 31
0.0
  0
LINE
  5
B9CC
  8
0
 10
3430.9667585021620653
 20
177.4508324975417111
 30
0.0
 11
3430.966757089011935
 21
177.449679206904591
 31
0.0
  0
LINE
  5
B9CD
  8
0
 10
3430.954620143098964
 20
177.628563114689598
 30
0.0
 11
3430.9397885851108185
 21
177.6236515773045994
 31
0.0
  0
LINE
  5
B9CE
  8
0
 10
3430.9397885851108185
 20
177.6236515773045994
 30
0.0
 11
3430.9192948203108244
 21
177.6304381800046031
 31
0.0
  0
LINE
  5
B9CF
  8
0
 10
3430.9177413410120607
 20
177.6299237383045977
 30
0.0
 11
3430.9177413410120607
 21
177.6172463374045947
 31
0.0
  0
ARC
  5
B9D0
  8
0
 10
3430.9108409683531136
 20
177.6182755347689124
 30
0.0
 40
0.0069767033797108
 50
286.4917356056866993
 51
351.5168149734817007
  0
ARC
  5
B9D1
  8
0
 10
3430.9148022577837764
 20
177.6182791873715985
 30
0.0
 40
0.0069802732163097
 50
188.5091285692226108
 51
253.5149053017456993
  0
LINE
  5
B9D2
  8
0
 10
3430.9078988213118464
 20
177.6172463374045947
 30
0.0
 11
3430.9078988213118464
 21
177.6299271897808865
 31
0.0
  0
LINE
  5
B9D3
  8
0
 10
3430.9128214942629711
 20
177.6115858481416865
 30
0.0
 11
3430.9128200811119314
 21
177.6104325575045948
 31
0.0
  0
LINE
  5
B9D4
  8
0
 10
3430.9128200811119314
 20
177.6104325575045948
 30
0.0
 11
3430.9366944351108941
 21
177.6025264575046094
 31
0.0
  0
ARC
  5
B9D5
  8
0
 10
3430.9380390352489485
 20
177.6074780785976088
 30
0.0
 40
0.0051309356827061
 50
254.8078184502907959
 51
289.9366327480689733
  0
ARC
  5
B9D6
  8
0
 10
3430.941526034016988
 20
177.6073383340728924
 30
0.0
 40
0.0049955715132474
 50
249.6473208398082022
 51
287.0944903334237779
  0
LINE
  5
B9D7
  8
0
 10
3430.9429944743351371
 20
177.6025634604856123
 30
0.0
 11
3430.966757089011935
 21
177.6104325575045948
 31
0.0
  0
LINE
  5
B9D8
  8
0
 10
3430.9618358292109406
 20
177.6172463374045947
 30
0.0
 11
3430.9397885851108185
 21
177.6099452931046017
 31
0.0
  0
LINE
  5
B9D9
  8
0
 10
3430.9397885851108185
 20
177.6099452931046017
 30
0.0
 11
3430.9177413410120607
 21
177.6172463374045947
 31
0.0
  0
LINE
  5
B9DA
  8
0
 10
3430.9397885851108185
 20
177.6236515773045994
 30
0.0
 11
3430.9397885851108185
 21
177.6026546383048981
 31
0.0
  0
LINE
  5
B9DB
  8
0
 10
3430.9716783489120644
 20
177.6251994078347138
 30
0.0
 11
3430.9716783489120644
 21
177.6172463374045947
 31
0.0
  0
ARC
  5
B9DC
  8
0
 10
3430.9647779762522077
 20
177.6182755347689124
 30
0.0
 40
0.0069767033797108
 50
286.4917356056866993
 51
351.5168149734817007
  0
ARC
  5
B9DD
  8
0
 10
3430.9687392656828706
 20
177.6182791873715985
 30
0.0
 40
0.0069802732163097
 50
188.5091285692226108
 51
253.5149053017456993
  0
LINE
  5
B9DE
  8
0
 10
3430.9618358292109406
 20
177.6172463374045947
 30
0.0
 11
3430.9618358292109406
 21
177.6272579288431075
 31
0.0
  0
LINE
  5
B9DF
  8
0
 10
3430.9667585021620653
 20
177.6115858481416865
 30
0.0
 11
3430.966757089011935
 21
177.6104325575045948
 31
0.0
  0
LINE
  5
B9E0
  8
0
 10
3430.9333138458009671
 20
177.4428926042012051
 30
0.0
 11
3430.9128200811119314
 21
177.4361060015046121
 31
0.0
  0
LINE
  5
B9E1
  8
0
 10
3430.9128200811119314
 20
177.4361060015046121
 30
0.0
 11
3430.8923263163119373
 21
177.4428926042045873
 31
0.0
  0
LINE
  5
B9E2
  8
0
 10
3430.8907728370118093
 20
177.4423781625046104
 30
0.0
 11
3430.8907728370118093
 21
177.4297007616046074
 31
0.0
  0
ARC
  5
B9E3
  8
0
 10
3430.8838724643519527
 20
177.4307299589688967
 30
0.0
 40
0.0069767033797108
 50
286.4796334995386928
 51
351.5168149734817007
  0
LINE
  5
B9E4
  8
0
 10
3430.8858515771112252
 20
177.4228869817046075
 30
0.0
 11
3430.9097259311120069
 21
177.4149808817045937
 31
0.0
  0
ARC
  5
B9E5
  8
0
 10
3430.9110705312500613
 20
177.4199325027977068
 30
0.0
 40
0.0051309356827061
 50
254.8078184502907959
 51
289.9366327480689733
  0
ARC
  5
B9E6
  8
0
 10
3430.9145575300158271
 20
177.4197927582729051
 30
0.0
 40
0.0049955715132474
 50
249.6473208398082022
 51
287.0944903334237779
  0
LINE
  5
B9E7
  8
0
 10
3430.9160259703348856
 20
177.4150178846855965
 30
0.0
 11
3430.9397885850107741
 21
177.4228869817046075
 31
0.0
  0
LINE
  5
B9E8
  8
0
 10
3430.9348673252120534
 20
177.4297007616046074
 30
0.0
 11
3430.9128200811119314
 21
177.4223997173045859
 31
0.0
  0
LINE
  5
B9E9
  8
0
 10
3430.9128200811119314
 20
177.4223997173045859
 30
0.0
 11
3430.8907728370118093
 21
177.4297007616046074
 31
0.0
  0
LINE
  5
B9EA
  8
0
 10
3430.9128200811119314
 20
177.4361060015046121
 30
0.0
 11
3430.9128200811119314
 21
177.4151090625049108
 31
0.0
  0
LINE
  5
B9EB
  8
0
 10
3430.9447098449109035
 20
177.4423781625046104
 30
0.0
 11
3430.9447098449109035
 21
177.4297007616046074
 31
0.0
  0
ARC
  5
B9EC
  8
0
 10
3430.9378094722528658
 20
177.4307299589688967
 30
0.0
 40
0.0069767033797108
 50
286.4917356056866993
 51
351.5168149734817007
  0
ARC
  5
B9ED
  8
0
 10
3430.9417707616830739
 20
177.4307336115716112
 30
0.0
 40
0.0069802732163097
 50
188.5091285692226108
 51
253.5149053017456993
  0
LINE
  5
B9EE
  8
0
 10
3430.9348673252120534
 20
177.4297007616046074
 30
0.0
 11
3430.9348673252120534
 21
177.442378162488211
 31
0.0
  0
LINE
  5
B9EF
  8
0
 10
3430.9397899981618139
 20
177.4240402723416992
 30
0.0
 11
3430.9397885850107741
 21
177.4228869817046075
 31
0.0
  0
LINE
  5
B9F0
  8
0
 10
3430.9872508537009708
 20
177.4428926042012051
 30
0.0
 11
3430.966757089011935
 21
177.4361060015046121
 31
0.0
  0
LINE
  5
B9F1
  8
0
 10
3430.966757089011935
 20
177.4361060015046121
 30
0.0
 11
3430.9462633242110314
 21
177.4428926042045873
 31
0.0
  0
LINE
  5
B9F2
  8
0
 10
3430.9397885850107741
 20
177.4228869817046075
 30
0.0
 11
3430.9636629390120106
 21
177.4149808817045937
 31
0.0
  0
ARC
  5
B9F3
  8
0
 10
3430.965007539150065
 20
177.4199325027977068
 30
0.0
 40
0.0051309356827061
 50
254.8078184502907959
 51
289.9366327480689733
  0
ARC
  5
B9F4
  8
0
 10
3430.9684945379158307
 20
177.4197927582729051
 30
0.0
 40
0.0049955715132474
 50
249.6473208398082022
 51
287.0944903334237779
  0
LINE
  5
B9F5
  8
0
 10
3430.9699629782348893
 20
177.4150178846855965
 30
0.0
 11
3430.9937255929107778
 21
177.4228869817046075
 31
0.0
  0
LINE
  5
B9F6
  8
0
 10
3430.9888043331111476
 20
177.4297007616046074
 30
0.0
 11
3430.966757089011935
 21
177.4223997173045859
 31
0.0
  0
LINE
  5
B9F7
  8
0
 10
3430.966757089011935
 20
177.4223997173045859
 30
0.0
 11
3430.9447098449109035
 21
177.4297007616046074
 31
0.0
  0
LINE
  5
B9F8
  8
0
 10
3430.966757089011935
 20
177.4361060015046121
 30
0.0
 11
3430.966757089011935
 21
177.4151090625049108
 31
0.0
  0
LINE
  5
B9F9
  8
0
 10
3431.0411878616009744
 20
177.4964770545012129
 30
0.0
 11
3431.0206940969119387
 21
177.4896904518045915
 31
0.0
  0
LINE
  5
B9FA
  8
0
 10
3431.0206940969119387
 20
177.4896904518045915
 30
0.0
 11
3431.0002003321119446
 21
177.4964770545045951
 31
0.0
  0
LINE
  5
B9FB
  8
0
 10
3430.9937255929107778
 20
177.4764714320045869
 30
0.0
 11
3431.0175999469120143
 21
177.4685653320046015
 31
0.0
  0
ARC
  5
B9FC
  8
0
 10
3431.0189445470500686
 20
177.4735169530976862
 30
0.0
 40
0.0051309356827061
 50
254.8078184502907959
 51
289.9366327480689733
  0
ARC
  5
B9FD
  8
0
 10
3431.0224315458158344
 20
177.4733772085729129
 30
0.0
 40
0.0049955715132474
 50
249.6473208398082022
 51
287.0944903334237779
  0
LINE
  5
B9FE
  8
0
 10
3431.023899986134893
 20
177.4686023349856043
 30
0.0
 11
3431.0476626008107814
 21
177.4764714320045869
 31
0.0
  0
LINE
  5
B9FF
  8
0
 10
3431.0427413410120607
 20
177.4832852119045867
 30
0.0
 11
3431.0206940969119387
 21
177.4759841676045937
 31
0.0
  0
LINE
  5
BA00
  8
0
 10
3431.0206940969119387
 20
177.4759841676045937
 30
0.0
 11
3430.9986468528118166
 21
177.4832852119045867
 31
0.0
  0
LINE
  5
BA01
  8
0
 10
3431.0206940969119387
 20
177.4896904518045915
 30
0.0
 11
3431.0206940969119387
 21
177.4686935128048901
 31
0.0
  0
LINE
  5
BA02
  8
0
 10
3431.1184216895230747
 20
177.5220533849089009
 30
0.0
 11
3431.1015996087107851
 21
177.5164826769045874
 31
0.0
  0
LINE
  5
BA03
  8
0
 10
3431.1015996087107851
 20
177.5164826769045874
 30
0.0
 11
3431.0811058439121553
 21
177.523269279604591
 31
0.0
  0
LINE
  5
BA04
  8
0
 10
3431.0746311047118979
 20
177.5032636571046112
 30
0.0
 11
3431.0985054587122249
 21
177.4953575571045974
 31
0.0
  0
ARC
  5
BA05
  8
0
 10
3431.0998500588498246
 20
177.5003091781977105
 30
0.0
 40
0.0051309356827061
 50
254.8078184502907959
 51
289.9366327480689733
  0
ARC
  5
BA06
  8
0
 10
3431.1033370576169546
 20
177.5001694336729088
 30
0.0
 40
0.0049955715132474
 50
249.6473208398082022
 51
287.0944903334237779
  0
LINE
  5
BA07
  8
0
 10
3431.1048054979351036
 20
177.4953945600856002
 30
0.0
 11
3431.1219804559759723
 21
177.5010821248991988
 31
0.0
  0
LINE
  5
BA08
  8
0
 10
3431.1211819952868609
 20
177.5092611883206075
 30
0.0
 11
3431.1015996087107851
 21
177.5027763927045896
 31
0.0
  0
LINE
  5
BA09
  8
0
 10
3431.1015996087107851
 20
177.5027763927045896
 30
0.0
 11
3431.0795523646111178
 21
177.5100774370046111
 31
0.0
  0
LINE
  5
BA0A
  8
0
 10
3431.1015996087107851
 20
177.5164826769045874
 30
0.0
 11
3431.1015996087107851
 21
177.495485737904886
 31
0.0
  0
LINE
  5
BA0B
  8
0
 10
3431.0411878616009744
 20
177.5500615047012047
 30
0.0
 11
3431.0206940969119387
 21
177.5432749020046117
 31
0.0
  0
LINE
  5
BA0C
  8
0
 10
3431.0206940969119387
 20
177.5432749020046117
 30
0.0
 11
3431.0002003321119446
 21
177.5500615047045869
 31
0.0
  0
LINE
  5
BA0D
  8
0
 10
3430.9937255929107778
 20
177.5300558822046071
 30
0.0
 11
3431.0175999469120143
 21
177.5221497822045933
 31
0.0
  0
ARC
  5
BA0E
  8
0
 10
3431.0189445470500686
 20
177.5271014032977064
 30
0.0
 40
0.0051309356827061
 50
254.8078184502907959
 51
289.9366327480689733
  0
ARC
  5
BA0F
  8
0
 10
3431.0224315458158344
 20
177.5269616587729047
 30
0.0
 40
0.0049955715132474
 50
249.6473208398082022
 51
287.0944903334237779
  0
LINE
  5
BA10
  8
0
 10
3431.023899986134893
 20
177.5221867851855961
 30
0.0
 11
3431.0476626008107814
 21
177.5300558822046071
 31
0.0
  0
LINE
  5
BA11
  8
0
 10
3431.0427413410120607
 20
177.536869662104607
 30
0.0
 11
3431.0206940969119387
 21
177.529568617804614
 31
0.0
  0
LINE
  5
BA12
  8
0
 10
3431.0206940969119387
 20
177.529568617804614
 30
0.0
 11
3430.9986468528118166
 21
177.536869662104607
 31
0.0
  0
LINE
  5
BA13
  8
0
 10
3431.0206940969119387
 20
177.5432749020046117
 30
0.0
 11
3431.0206940969119387
 21
177.5222779630049104
 31
0.0
  0
LINE
  5
BA14
  8
0
 10
3431.0142193576020873
 20
177.5768537298012006
 30
0.0
 11
3430.9937255929107778
 21
177.5700671271046076
 31
0.0
  0
LINE
  5
BA15
  8
0
 10
3430.9937255929107778
 20
177.5700671271046076
 30
0.0
 11
3430.9732318281121479
 21
177.5768537298046112
 31
0.0
  0
LINE
  5
BA16
  8
0
 10
3430.9667570889118906
 20
177.556848107304603
 30
0.0
 11
3430.9906314429122176
 21
177.5489420073045892
 31
0.0
  0
ARC
  5
BA17
  8
0
 10
3430.9919760430498172
 20
177.5538936283977023
 30
0.0
 40
0.0051309356827061
 50
254.8078184502907959
 51
289.9366327480689733
  0
ARC
  5
BA18
  8
0
 10
3430.9954630418169472
 20
177.5537538838727869
 30
0.0
 40
0.0049955715132474
 50
249.6473208398082022
 51
287.0944903334237779
  0
LINE
  5
BA19
  8
0
 10
3430.9969314821350963
 20
177.548979010285592
 30
0.0
 11
3431.0206940968118943
 21
177.556848107304603
 31
0.0
  0
LINE
  5
BA1A
  8
0
 10
3431.0157728370118093
 20
177.5636618872046029
 30
0.0
 11
3430.9937255929107778
 21
177.5563608429046099
 31
0.0
  0
LINE
  5
BA1B
  8
0
 10
3430.9937255929107778
 20
177.5563608429046099
 30
0.0
 11
3430.9716783488111105
 21
177.5636618872046029
 31
0.0
  0
LINE
  5
BA1C
  8
0
 10
3430.9937255929107778
 20
177.5700671271046076
 30
0.0
 11
3430.9937255929107778
 21
177.5490701881049063
 31
0.0
  0
LINE
  5
BA1D
  8
0
 10
3430.9872508537009708
 20
177.6036459549011965
 30
0.0
 11
3430.966757089011935
 21
177.5968593522046035
 31
0.0
  0
LINE
  5
BA1E
  8
0
 10
3430.966757089011935
 20
177.5968593522046035
 30
0.0
 11
3430.9462633242110314
 21
177.6036459549046072
 31
0.0
  0
LINE
  5
BA1F
  8
0
 10
3430.9397885850107741
 20
177.5836403324045989
 30
0.0
 11
3430.9636629390120106
 21
177.5757342324046135
 31
0.0
  0
ARC
  5
BA20
  8
0
 10
3430.965007539150065
 20
177.5806858534976129
 30
0.0
 40
0.0051309356827061
 50
254.8078184502907959
 51
289.9366327480689733
  0
ARC
  5
BA21
  8
0
 10
3430.9684945379158307
 20
177.5805461089728112
 30
0.0
 40
0.0049955715132474
 50
249.6473208398082022
 51
287.0944903334237779
  0
LINE
  5
BA22
  8
0
 10
3430.9699629782348893
 20
177.5757712353855879
 30
0.0
 11
3430.9937255929107778
 21
177.5836403324045989
 31
0.0
  0
LINE
  5
BA23
  8
0
 10
3430.9888043331111476
 20
177.5904541123045988
 30
0.0
 11
3430.966757089011935
 21
177.5831530680046058
 31
0.0
  0
LINE
  5
BA24
  8
0
 10
3430.966757089011935
 20
177.5831530680046058
 30
0.0
 11
3430.9447098449109035
 21
177.5904541123045988
 31
0.0
  0
LINE
  5
BA25
  8
0
 10
3430.966757089011935
 20
177.5968593522046035
 30
0.0
 11
3430.966757089011935
 21
177.5758624132049022
 31
0.0
  0
LINE
  5
BA26
  8
0
 10
3430.9667570889118906
 20
177.6104325575045948
 30
0.0
 11
3430.9906314429122176
 21
177.6025264575046094
 31
0.0
  0
ARC
  5
BA27
  8
0
 10
3430.9919760430498172
 20
177.6074780785976088
 30
0.0
 40
0.0051309356827061
 50
254.8078184502907959
 51
289.9366327480689733
  0
ARC
  5
BA28
  8
0
 10
3430.9954630418169472
 20
177.6073383340728924
 30
0.0
 40
0.0049955715132474
 50
249.6473208398082022
 51
287.0944903334237779
  0
LINE
  5
BA29
  8
0
 10
3430.9969314821350963
 20
177.6025634604856123
 30
0.0
 11
3431.0199779638692235
 21
177.6101954068508064
 31
0.0
  0
LINE
  5
BA2A
  8
0
 10
3431.0080545863370389
 20
177.6146904038899095
 30
0.0
 11
3430.9937255929107778
 21
177.6099452931046017
 31
0.0
  0
LINE
  5
BA2B
  8
0
 10
3430.9937255929107778
 20
177.6099452931046017
 30
0.0
 11
3430.9716783488111105
 21
177.6172463374045947
 31
0.0
  0
LINE
  5
BA2C
  8
0
 10
3430.9937255929107778
 20
177.6193903773236116
 30
0.0
 11
3430.9937255929107778
 21
177.6026546383048981
 31
0.0
  0
LINE
  5
BA2D
  8
0
 10
3430.9333138458009671
 20
177.5500615047012047
 30
0.0
 11
3430.9128200811119314
 21
177.5432749020046117
 31
0.0
  0
LINE
  5
BA2E
  8
0
 10
3430.9128200811119314
 20
177.5432749020046117
 30
0.0
 11
3430.8923263163119373
 21
177.5500615047045869
 31
0.0
  0
LINE
  5
BA2F
  8
0
 10
3430.8858515771112252
 20
177.5300558822046071
 30
0.0
 11
3430.9097259311120069
 21
177.5221497822045933
 31
0.0
  0
ARC
  5
BA30
  8
0
 10
3430.9110705312500613
 20
177.5271014032977064
 30
0.0
 40
0.0051309356827061
 50
254.8078184502907959
 51
289.9366327480689733
  0
ARC
  5
BA31
  8
0
 10
3430.9145575300158271
 20
177.5269616587729047
 30
0.0
 40
0.0049955715132474
 50
249.6473208398082022
 51
287.0944903334237779
  0
LINE
  5
BA32
  8
0
 10
3430.9160259703348856
 20
177.5221867851855961
 30
0.0
 11
3430.9397885850107741
 21
177.5300558822046071
 31
0.0
  0
LINE
  5
BA33
  8
0
 10
3430.9348673252120534
 20
177.536869662104607
 30
0.0
 11
3430.9128200811119314
 21
177.529568617804614
 31
0.0
  0
LINE
  5
BA34
  8
0
 10
3430.9128200811119314
 20
177.529568617804614
 30
0.0
 11
3430.8858515772121791
 21
177.538499359478493
 31
0.0
  0
LINE
  5
BA35
  8
0
 10
3430.9128200811119314
 20
177.5432749020046117
 30
0.0
 11
3430.9128200811119314
 21
177.5222779630049104
 31
0.0
  0
LINE
  5
BA36
  8
0
 10
3431.0142193576020873
 20
177.5232692796012088
 30
0.0
 11
3430.9937255929107778
 21
177.5164826769045874
 31
0.0
  0
LINE
  5
BA37
  8
0
 10
3430.9937255929107778
 20
177.5164826769045874
 30
0.0
 11
3430.9732318281121479
 21
177.523269279604591
 31
0.0
  0
LINE
  5
BA38
  8
0
 10
3430.9667570889118906
 20
177.5032636571046112
 30
0.0
 11
3430.9906314429122176
 21
177.4953575571045974
 31
0.0
  0
ARC
  5
BA39
  8
0
 10
3430.9919760430498172
 20
177.5003091781977105
 30
0.0
 40
0.0051309356827061
 50
254.8078184502907959
 51
289.9366327480689733
  0
ARC
  5
BA3A
  8
0
 10
3430.9954630418169472
 20
177.5001694336729088
 30
0.0
 40
0.0049955715132474
 50
249.6473208398082022
 51
287.0944903334237779
  0
LINE
  5
BA3B
  8
0
 10
3430.9969314821350963
 20
177.4953945600856002
 30
0.0
 11
3431.0206940968118943
 21
177.5032636571046112
 31
0.0
  0
LINE
  5
BA3C
  8
0
 10
3431.0157728370118093
 20
177.5100774370046111
 30
0.0
 11
3430.9937255929107778
 21
177.5027763927045896
 31
0.0
  0
LINE
  5
BA3D
  8
0
 10
3430.9937255929107778
 20
177.5027763927045896
 30
0.0
 11
3430.9716783488111105
 21
177.5100774370046111
 31
0.0
  0
LINE
  5
BA3E
  8
0
 10
3430.9937255929107778
 20
177.5164826769045874
 30
0.0
 11
3430.9937255929107778
 21
177.495485737904886
 31
0.0
  0
LINE
  5
BA3F
  8
0
 10
3430.9063453419012149
 20
177.4161003791012092
 30
0.0
 11
3430.8858515772121791
 21
177.4093137764045878
 31
0.0
  0
ARC
  5
BA40
  8
0
 10
3430.8875890261169843
 20
177.3930005331729092
 30
0.0
 40
0.0049955715132474
 50
249.6473208398082022
 51
287.0944903334237779
  0
LINE
  5
BA41
  8
0
 10
3430.8890574664360429
 20
177.3882256595856006
 30
0.0
 11
3430.9128200811119314
 21
177.3960947566046116
 31
0.0
  0
LINE
  5
BA42
  8
0
 10
3430.9078988213118464
 20
177.4029085365046114
 30
0.0
 11
3430.8858515772121791
 21
177.39560749220459
 31
0.0
  0
LINE
  5
BA43
  8
0
 10
3430.8858515772121791
 20
177.4093137764045878
 30
0.0
 11
3430.8858515772121791
 21
177.3883168374048864
 31
0.0
  0
LINE
  5
BA44
  8
0
 10
3430.9063453419012149
 20
177.4696848294011886
 30
0.0
 11
3430.8858515772121791
 21
177.4628982267045956
 31
0.0
  0
ARC
  5
BA45
  8
0
 10
3430.8875890261169843
 20
177.4465849834728886
 30
0.0
 40
0.0049955715132474
 50
249.6473208398082022
 51
287.0944903334237779
  0
LINE
  5
BA46
  8
0
 10
3430.8890574664360429
 20
177.4418101098856084
 30
0.0
 11
3430.9128200811119314
 21
177.449679206904591
 31
0.0
  0
LINE
  5
BA47
  8
0
 10
3430.9078988213118464
 20
177.4564929868045908
 30
0.0
 11
3430.8858515772121791
 21
177.4491919425045978
 31
0.0
  0
LINE
  5
BA48
  8
0
 10
3430.8858515772121791
 20
177.4628982267045956
 30
0.0
 11
3430.8858515772121791
 21
177.4419012877048942
 31
0.0
  0
LINE
  5
BA49
  8
0
 10
3430.9333138458009671
 20
177.4964770545012129
 30
0.0
 11
3430.9128200811119314
 21
177.4896904518045915
 31
0.0
  0
LINE
  5
BA4A
  8
0
 10
3430.9128200811119314
 20
177.4896904518045915
 30
0.0
 11
3430.8923263163119373
 21
177.4964770545045951
 31
0.0
  0
LINE
  5
BA4B
  8
0
 10
3430.8858515771112252
 20
177.4764714320045869
 30
0.0
 11
3430.9097259311120069
 21
177.4685653320046015
 31
0.0
  0
ARC
  5
BA4C
  8
0
 10
3430.9110705312500613
 20
177.4735169530976862
 30
0.0
 40
0.0051309356827061
 50
254.8078184502907959
 51
289.9366327480689733
  0
ARC
  5
BA4D
  8
0
 10
3430.9145575300158271
 20
177.4733772085729129
 30
0.0
 40
0.0049955715132474
 50
249.6473208398082022
 51
287.0944903334237779
  0
LINE
  5
BA4E
  8
0
 10
3430.9160259703348856
 20
177.4686023349856043
 30
0.0
 11
3430.9397885850107741
 21
177.4764714320045869
 31
0.0
  0
LINE
  5
BA4F
  8
0
 10
3430.9348673252120534
 20
177.4832852119045867
 30
0.0
 11
3430.9128200811119314
 21
177.4759841676045937
 31
0.0
  0
LINE
  5
BA50
  8
0
 10
3430.9128200811119314
 20
177.4759841676045937
 30
0.0
 11
3430.8907728370118093
 21
177.4832852119045867
 31
0.0
  0
LINE
  5
BA51
  8
0
 10
3430.9128200811119314
 20
177.4896904518045915
 30
0.0
 11
3430.9128200811119314
 21
177.4686935128048901
 31
0.0
  0
LINE
  5
BA52
  8
0
 10
3430.9063453419012149
 20
177.5768537298012006
 30
0.0
 11
3430.8858515772121791
 21
177.5700671271046076
 31
0.0
  0
ARC
  5
BA53
  8
0
 10
3430.8875890261169843
 20
177.5537538838727869
 30
0.0
 40
0.0049955715132474
 50
249.6473208398082022
 51
287.0944903334237779
  0
LINE
  5
BA54
  8
0
 10
3430.8890574664360429
 20
177.548979010285592
 30
0.0
 11
3430.9128200811119314
 21
177.556848107304603
 31
0.0
  0
LINE
  5
BA55
  8
0
 10
3430.9078988213118464
 20
177.5636618872046029
 30
0.0
 11
3430.8858515772121791
 21
177.5563608429046099
 31
0.0
  0
LINE
  5
BA56
  8
0
 10
3430.8858515772121791
 20
177.5700671271046076
 30
0.0
 11
3430.8858515772121791
 21
177.5490701881049063
 31
0.0
  0
LINE
  5
BA57
  8
0
 10
3430.9063549027869158
 20
177.630441346131505
 30
0.0
 11
3430.8858515772121791
 21
177.6236515773045994
 31
0.0
  0
ARC
  5
BA58
  8
0
 10
3430.8875890261169843
 20
177.6073383340728924
 30
0.0
 40
0.0049955715132474
 50
249.6473208398082022
 51
287.0944903334237779
  0
LINE
  5
BA59
  8
0
 10
3430.8890574664360429
 20
177.6025634604856123
 30
0.0
 11
3430.9128200811119314
 21
177.6104325575045948
 31
0.0
  0
LINE
  5
BA5A
  8
0
 10
3430.9078988213118464
 20
177.6172463374045947
 30
0.0
 11
3430.8858515772121791
 21
177.6099452931046017
 31
0.0
  0
LINE
  5
BA5B
  8
0
 10
3430.8858515772121791
 20
177.6236515773045994
 30
0.0
 11
3430.8858515772121791
 21
177.6026546383048981
 31
0.0
  0
LINE
  5
BA5C
  8
0
 10
3431.0746311048119424
 20
177.556848107304603
 30
0.0
 11
3431.0985032396120005
 21
177.5489427939045868
 31
0.0
  0
ARC
  5
BA5D
  8
0
 10
3431.0998826623549576
 20
177.5531083170166937
 30
0.0
 40
0.0043879824409238
 50
251.6775899916625008
 51
293.0344035605181716
  0
ARC
  5
BA5E
  8
0
 10
3431.1033432096860452
 20
177.5537846285986063
 30
0.0
 40
0.0050265389214663
 50
249.7034586296331042
 51
294.3447418092304133
  0
LINE
  5
BA5F
  8
0
 10
3431.1015996086998712
 20
177.5490701881008988
 30
0.0
 11
3431.1015966220688824
 21
177.5542858850124048
 31
0.0
  0
LINE
  5
BA60
  8
0
 10
3431.0795518872109824
 20
177.5763391300046123
 30
0.0
 11
3431.0777307255088999
 21
177.5757338623743919
 31
0.0
  0
ARC
  5
BA61
  8
0
 10
3431.0763504847859622
 20
177.5798868046742029
 30
0.0
 40
0.0043762991440662
 50
246.8659008956153116
 51
288.3843556909289987
  0
ARC
  5
BA62
  8
0
 10
3431.0728859151108736
 20
177.5805806037600973
 30
0.0
 40
0.005030607240343
 50
254.4457542214740045
 51
290.2986969770071823
  0
LINE
  5
BA63
  8
0
 10
3431.0715369548111084
 20
177.5757342324046135
 30
0.0
 11
3431.0476626008107814
 21
177.5836403324045989
 31
0.0
  0
LINE
  5
BA64
  8
0
 10
3431.0525838607109108
 20
177.5904541123047125
 30
0.0
 11
3431.0690207878101319
 21
177.5848245191990031
 31
0.0
  0
LINE
  5
BA65
  8
0
 10
3431.0795523646111178
 20
177.5636618872046029
 30
0.0
 11
3431.0991772675729408
 21
177.5571630120774103
 31
0.0
  0
LINE
  5
BA66
  8
0
 10
3431.1015996087107851
 20
177.5300558822046071
 30
0.0
 11
3431.1175651499511332
 21
177.5248320069817964
 31
0.0
  0
LINE
  5
BA67
  8
0
 10
3431.106520868611824
 20
177.5368696621090976
 30
0.0
 11
3431.1136709231118402
 21
177.5345018893046074
 31
0.0
  0
LINE
  5
BA68
  8
0
 10
3431.1152959056721556
 20
177.4988652611677082
 30
0.0
 11
3431.11340153771107
 21
177.4947129314469123
 31
0.0
  0
LINE
  5
BA69
  8
0
 10
3431.11340153771107
 20
177.4947129314469123
 30
0.0
 11
3431.108074347720958
 21
177.4964770544345924
 31
0.0
  0
LINE
  5
BA6A
  8
0
 10
3431.11340153771107
 20
177.4947129314469123
 30
0.0
 11
3431.11340153771107
 21
177.4810066473046106
 31
0.0
  0
ARC
  5
BA6B
  8
0
 10
3431.1006529910259815
 20
177.4810066473046106
 30
0.0
 40
0.012748546685236
 50
323.3549566776562187
 51
0.0
  0
LINE
  5
BA6C
  8
0
 10
3431.1108817683671077
 20
177.4733976029035887
 30
0.0
 11
3431.101599608559809
 21
177.4764714319545931
 31
0.0
  0
LINE
  5
BA6D
  8
0
 10
3431.101944544609978
 20
177.476357204827309
 30
0.0
 11
3431.0928407372111906
 21
177.4657987665046051
 31
0.0
  0
LINE
  5
BA6E
  8
0
 10
3431.0928407372111906
 20
177.4657987665046051
 30
0.0
 11
3431.0811058438212058
 21
177.4696848293345965
 31
0.0
  0
LINE
  5
BA6F
  8
0
 10
3431.0928407372111906
 20
177.4657987665046051
 30
0.0
 11
3431.0928407372111906
 21
177.4520924823046073
 31
0.0
  0
LINE
  5
BA70
  8
0
 10
3431.0928407372111906
 20
177.4520924823046073
 30
0.0
 11
3431.0795523646111178
 21
177.4564929868045908
 31
0.0
  0
ARC
  5
BA71
  8
0
 10
3431.0867264065300333
 20
177.4512883051513938
 30
0.0
 40
0.0061669879659863
 50
285.4355147991324202
 51
7.4927254046727176
  0
LINE
  5
BA72
  8
0
 10
3431.0883677729561896
 20
177.4453437566546086
 30
0.0
 11
3431.0746311046100345
 21
177.4496792068711954
 31
0.0
  0
LINE
  5
BA73
  8
0
 10
3431.0746675840018725
 20
177.4496676935563073
 30
0.0
 11
3431.0614641070119433
 21
177.4404663121854924
 31
0.0
  0
LINE
  5
BA74
  8
0
 10
3431.0614641070119433
 20
177.4404663121854924
 30
0.0
 11
3431.0541373398709766
 21
177.4428926042511989
 31
0.0
  0
LINE
  5
BA75
  8
0
 10
3431.0614641070301332
 20
177.4404663121983958
 30
0.0
 11
3431.0614641070119433
 21
177.426760028004594
 31
0.0
  0
ARC
  5
BA76
  8
0
 10
3431.0552896031640557
 20
177.4267600280130068
 30
0.0
 40
0.006174503847868
 50
269.1418257791369228
 51
359.9999999221229245
  0
LINE
  5
BA77
  8
0
 10
3431.0551971251147734
 20
177.4205862167445957
 30
0.0
 11
3431.0476626008107814
 21
177.4228869817046075
 31
0.0
  0
LINE
  5
BA78
  8
0
 10
3431.0525838607109108
 20
177.4297007616046074
 30
0.0
 11
3431.0614641070119433
 21
177.4267600280130068
 31
0.0
  0
LINE
  5
BA79
  8
0
 10
3431.0124349255870584
 20
177.4166900308443076
 30
0.0
 11
3430.9917430276627783
 21
177.409970311917192
 31
0.0
  0
LINE
  5
BA7A
  8
0
 10
3430.9917430276627783
 20
177.409970311917192
 30
0.0
 11
3430.9732318282121923
 21
177.4161003791045914
 31
0.0
  0
LINE
  5
BA7B
  8
0
 10
3430.991743027711891
 20
177.4099703119329945
 30
0.0
 11
3430.991743027711891
 21
177.3962640277046034
 31
0.0
  0
ARC
  5
BA7C
  8
0
 10
3430.9846530445488497
 20
177.3977790332338031
 30
0.0
 40
0.0072500415865709
 50
256.46368539099808
 51
347.938289735978401
  0
LINE
  5
BA7D
  8
0
 10
3430.9829560881112229
 20
177.3907303850045878
 30
0.0
 11
3430.966757089011935
 21
177.3960947566046116
 31
0.0
  0
LINE
  5
BA7E
  8
0
 10
3430.9716783489120644
 20
177.4029085365046114
 30
0.0
 11
3430.991743027711891
 21
177.3962640277046034
 31
0.0
  0
LINE
  5
BA7F
  8
0
 10
3431.0206940970128926
 20
177.4496792068381126
 30
0.0
 11
3430.9969314806630791
 21
177.4418101092651057
 31
0.0
  0
ARC
  5
BA80
  8
0
 10
3430.9954541218021404
 20
177.4462713465931074
 30
0.0
 40
0.0046994922812683
 50
248.4192689171781865
 51
288.3225218354320987
  0
ARC
  5
BA81
  8
0
 10
3430.9919802232520851
 20
177.44663026098209
 30
0.0
 40
0.0050407840952435
 50
254.4538937438383073
 51
290.2580965930915227
  0
LINE
  5
BA82
  8
0
 10
3430.9906292239120376
 20
177.4417738935046032
 30
0.0
 11
3430.966757089011935
 21
177.449679206904591
 31
0.0
  0
LINE
  5
BA83
  8
0
 10
3430.9447098449109035
 20
177.6031315131882025
 30
0.0
 11
3430.9447098449109035
 21
177.5904541123045988
 31
0.0
  0
ARC
  5
BA84
  8
0
 10
3430.9375322414530274
 20
177.5904541123045988
 30
0.0
 40
0.0071776034592688
 50
288.2937600220686818
 51
0.0000000000032569
  0
LINE
  5
BA85
  8
0
 10
3430.9397852126107864
 20
177.5836392673045907
 30
0.0
 11
3430.9177413410120607
 21
177.5763392881046059
 31
0.0
  0
LINE
  5
BA86
  8
0
 10
3430.9177413410120607
 20
177.5763392881046059
 30
0.0
 11
3430.9159142310109019
 21
177.5757342324046135
 31
0.0
  0
ARC
  5
BA87
  8
0
 10
3430.914536813423183
 20
177.5798936733451114
 30
0.0
 40
0.0043815782716076
 50
246.9330272858028081
 51
288.3225213626096206
  0
ARC
  5
BA88
  8
0
 10
3430.9110779165071108
 20
177.5805075821735102
 30
0.0
 40
0.0049611220763639
 50
254.1859596506961907
 51
290.5584917008692969
  0
LINE
  5
BA89
  8
0
 10
3430.9097259312120514
 20
177.5757342324046135
 30
0.0
 11
3430.8858515772121791
 21
177.5836403324045989
 31
0.0
  0
LINE
  5
BA8A
  8
0
 10
3430.9128200812629075
 20
177.503263657054589
 30
0.0
 11
3430.8889382960369403
 21
177.4953574690352127
 31
0.0
  0
ARC
  5
BA8B
  8
0
 10
3430.8875938910127843
 20
177.5002093335994005
 30
0.0
 40
0.0050346811831773
 50
249.7533385253321967
 51
285.4875411072067095
  0
LINE
  5
BA8C
  8
0
 10
3430.8907728370118093
 20
177.4959626126882029
 30
0.0
 11
3430.8907728370118093
 21
177.4832852119045867
 31
0.0
  0
ARC
  5
BA8D
  8
0
 10
3430.883841401688187
 20
177.484341909429304
 30
0.0
 40
0.0070115194717514
 50
286.6602613545459235
 51
351.3319965534093967
  0
LINE
  5
BA8E
  8
0
 10
3430.8907728370118093
 20
177.3887937122883045
 30
0.0
 11
3430.8907728370118093
 21
177.3819173910046061
 31
0.0
  0
ARC
  5
BA8F
  8
0
 10
3430.8862106531810241
 20
177.3824340024191031
 30
0.0
 40
0.0045913406165974
 50
265.5144761011122796
 51
353.5394752484443757
  0
LINE
  5
BA90
  8
0
 10
3430.9252840284639205
 20
177.6324206709230111
 30
0.0
 11
3430.9192948203381093
 21
177.6304381799957923
 31
0.0
  0
LINE
  5
BA91
  8
0
 10
3430.9192948203381093
 20
177.6304381799957923
 30
0.0
 11
3430.9177413410120607
 21
177.6299237383045977
 31
0.0
  0
LINE
  5
BA92
  8
0
 10
3430.9177413410120607
 20
177.6299237383045977
 30
0.0
 11
3430.9159196998880361
 21
177.6293183119055925
 31
0.0
  0
ARC
  5
BA93
  8
0
 10
3430.9145588189157934
 20
177.6339292593000039
 30
0.0
 40
0.0048078146922643
 50
248.7985443051327934
 51
286.3604179039746782
  0
ARC
  5
BA94
  8
0
 10
3430.9110746759261019
 20
177.6341669081143095
 30
0.0
 40
0.0050324210200825
 50
254.4821148829277035
 51
290.2936745756546202
  0
LINE
  5
BA95
  8
0
 10
3430.9097283062110364
 20
177.6293179340046038
 30
0.0
 11
3430.8949892918781188
 21
177.6342263263175028
 31
0.0
  0
ARC
  5
BA96
  8
0
 10
3430.8854783070760277
 20
177.2209560010026053
 30
0.0
 40
0.4218377633995778
 50
90.0
 51
102.7096475334267041
  0
ARC
  5
BA97
  8
0
 10
3430.8618035418407999
 20
177.325926802297289
 30
0.0
 40
0.3142303118295531
 50
102.7096475334267041
 51
121.883380232371394
  0
ARC
  5
BA98
  8
0
 10
3430.7733011611380789
 20
177.4682037981627047
 30
0.0
 40
0.1466731128123506
 50
121.883380232371394
 51
148.7093283925997014
  0
ARC
  5
BA99
  8
0
 10
3430.7237010656021994
 20
177.4983500692958103
 30
0.0
 40
0.0886303084315916
 50
148.7093283925997014
 51
180.0670543124039114
  0
ARC
  5
BA9A
  8
0
 10
3430.719375625765224
 20
177.4983450071511015
 30
0.0
 40
0.084304865632272
 50
180.0670543124039114
 51
209.2502445378875962
  0
ARC
  5
BA9B
  8
0
 10
3430.7685733865978364
 20
177.5258973528852096
 30
0.0
 40
0.1406923768952433
 50
209.2502445378875962
 51
232.5052593790867093
  0
ARC
  5
BA9C
  8
0
 10
3430.8294000313539982
 20
177.6051832479465986
 30
0.0
 40
0.2406230221846953
 50
232.5052593790867093
 51
247.525959901213696
  0
ARC
  5
BA9D
  8
0
 10
3430.8727779157288751
 20
177.7100410769124892
 30
0.0
 40
0.354099033518509
 50
247.525959901213696
 51
262.6457220824328829
  0
ARC
  5
BA9E
  8
0
 10
3430.8849769716639457
 20
177.8045590835174892
 30
0.0
 40
0.449401030025875
 50
262.6457220824328829
 51
282.0038189018723074
  0
ARC
  5
BA9F
  8
0
 10
3430.9162437060472257
 20
177.6575088587846949
 30
0.0
 40
0.2990634855703456
 50
282.0038189018723074
 51
301.9309706088665166
  0
ARC
  5
BAA0
  8
0
 10
3431.0075779573880936
 20
177.5189568786167058
 30
0.0
 40
0.133237246158591
 50
300.1097762050044935
 51
342.2928417627350086
  0
ARC
  5
BAA1
  8
0
 10
3431.0501180132960144
 20
177.4989649623678929
 30
0.0
 40
0.0868469304498011
 50
346.3245782531481041
 51
31.5315894673725694
  0
ARC
  5
BAA2
  8
0
 10
3430.9903528909840134
 20
177.4603546309818114
 30
0.0
 40
0.1579885012394961
 50
32.1315492147951929
 51
60.0099278343046478
  0
ARC
  5
BAA3
  8
0
 10
3430.9047114840382164
 20
177.311904598500206
 30
0.0
 40
0.3293707125679842
 50
60.0147440010413007
 51
83.3613508501708509
  0
ARC
  5
BAA4
  8
0
 10
3430.8862039561199708
 20
177.2114353710965133
 30
0.0
 40
0.4313590036637884
 50
82.4622840159933332
 51
90.096385254248105
  0
ARC
  5
BAA5
  8
0
 10
3430.8860572323869746
 20
177.1329387447682109
 30
0.0
 40
0.5298911336694641
 50
88.9692425137450442
 51
94.8439665859325061
  0
ARC
  5
BAA6
  8
0
 10
3430.882746549778858
 20
177.1720050733530059
 30
0.0
 40
0.4906847738737827
 50
94.8439665859325061
 51
106.9154190252906034
  0
ARC
  5
BAA7
  8
0
 10
3430.8370053634321266
 20
177.3224115124322964
 30
0.0
 40
0.3334767809315192
 50
106.9154190252906034
 51
125.1762848768642016
  0
ARC
  5
BAA8
  8
0
 10
3430.7440677174290613
 20
177.4542748625300135
 30
0.0
 40
0.1721530407581597
 50
125.1762848768642016
 51
148.1457231037007887
  0
ARC
  5
BAA9
  8
0
 10
3430.6925999072032027
 20
177.4862537959623126
 30
0.0
 40
0.111559413429172
 50
148.1457231037007887
 51
179.160121718075402
  0
ARC
  5
BAAA
  8
0
 10
3430.6887479507518037
 20
177.4886884201497139
 30
0.0
 40
0.1076984381317797
 50
180.4252720742196914
 51
207.8279839220163012
  0
ARC
  5
BAAB
  8
0
 10
3430.751109181765969
 20
177.526109686356989
 30
0.0
 40
0.1803606965823154
 50
209.0931342781672981
 51
239.6040646198258912
  0
ARC
  5
BAAC
  8
0
 10
3430.8647830670211079
 20
177.719893628682712
 30
0.0
 40
0.4050248203141219
 50
239.6040646198258912
 51
260.0815328484683278
  0
ARC
  5
BAAD
  8
0
 10
3430.8863241908961754
 20
177.8430842557849019
 30
0.0
 40
0.5300846085101159
 50
260.0815328484683278
 51
276.9642036942003074
  0
ARC
  5
BAAE
  8
0
 10
3430.8974890202589449
 20
177.7516819608690071
 30
0.0
 40
0.4380029440454193
 50
276.9642036942003074
 51
297.8565891333067839
  0
ARC
  5
BAAF
  8
0
 10
3431.0149238062099357
 20
177.5294793035423027
 30
0.0
 40
0.1866765628702698
 50
297.8565891333067839
 51
334.7097221323941199
  0
ARC
  5
BAB0
  8
0
 10
3431.0885883102127991
 20
177.4878121528408883
 30
0.0
 40
0.1024600226895363
 50
338.1809966043641111
 51
17.9660601334928209
  0
ARC
  5
BAB1
  8
0
 10
3431.0280607815179792
 20
177.4573813148199974
 30
0.0
 40
0.1697341079328216
 50
21.4373346054410803
 51
56.4554605802524918
  0
ARC
  5
BAB2
  8
0
 10
3430.9234665623139335
 20
177.2996232756065069
 30
0.0
 40
0.3590157753685768
 50
56.4554605802524918
 51
79.8288548608275192
  0
ARC
  5
BAB3
  8
0
 10
3430.8728310912188135
 20
177.0173876923396108
 30
0.0
 40
0.6457576024447864
 50
79.8288548608275192
 51
87.9803072534793102
  0
ARC
  5
BAB4
  8
0
 10
3430.8855059283318951
 20
177.7867761854770947
 30
0.0
 40
0.4340364577661007
 50
257.4009459466765861
 51
270.072148478629174
  0
ARC
  5
BAB5
  8
0
 10
3430.8641360325509595
 20
177.6911653527403132
 30
0.0
 40
0.3360665451279563
 50
241.7756590655712898
 51
257.4009459466765861
  0
ARC
  5
BAB6
  8
0
 10
3430.7935239959660976
 20
177.5596086919327092
 30
0.0
 40
0.1867574204452454
 50
214.8822084109226864
 51
241.7756590655712898
  0
ARC
  5
BAB7
  8
0
 10
3430.7182764287640566
 20
177.5071499917355027
 30
0.0
 40
0.0950289537830466
 50
179.180134374254294
 51
214.8822084109226864
  0
ARC
  5
BAB8
  8
0
 10
3430.7191123325728768
 20
177.5071380296751045
 30
0.0
 40
0.0958649431781554
 50
149.0290407242347896
 51
179.180134374254294
  0
ARC
  5
BAB9
  8
0
 10
3430.7637777721620296
 20
177.4803311289948908
 30
0.0
 40
0.1479572786775545
 50
122.2074134419009965
 51
149.0290407242347896
  0
ARC
  5
BABA
  8
0
 10
3430.8642905584601976
 20
177.3207653236601118
 30
0.0
 40
0.3365416535376807
 50
107.592057792726095
 51
122.2074134419009965
  0
ARC
  5
BABB
  8
0
 10
3430.8697242499929416
 20
177.3036279157518038
 30
0.0
 40
0.3545198557138752
 50
94.90977766428351
 51
107.592057792726095
  0
ARC
  5
BABC
  8
0
 10
3430.8868235017471306
 20
177.1045729263078101
 30
0.0
 40
0.5543079265116773
 50
85.9675578709605333
 51
94.90977766428351
  0
ARC
  5
BABD
  8
0
 10
3430.9000846767330586
 20
177.2926858386693993
 30
0.0
 40
0.3657281647152514
 50
70.787001417775798
 51
85.9675578709605333
  0
ARC
  5
BABE
  8
0
 10
3430.9178935416812237
 20
177.3437886001964898
 30
0.0
 40
0.3116111811849938
 50
56.4258794080333885
 51
70.787001417775798
  0
ARC
  5
BABF
  8
0
 10
3431.0080895575401883
 20
177.479677639439501
 30
0.0
 40
0.1485125844303389
 50
31.5764339518587498
 51
56.4258794080333885
  0
ARC
  5
BAC0
  8
0
 10
3431.0530837074152259
 20
177.5073327210556897
 30
0.0
 40
0.0956989776407349
 50
357.3073574033707018
 51
31.5764339518587498
  0
ARC
  5
BAC1
  8
0
 10
3431.0428726448549241
 20
177.5105758453962892
 30
0.0
 40
0.1060870270938694
 50
324.6626750630067022
 51
355.8166435746949219
  0
ARC
  5
BAC2
  8
0
 10
3430.9942382091080617
 20
177.5447733426381092
 30
0.0
 40
0.1655407273328632
 50
304.9358091433795721
 51
324.7431972695816853
  0
ARC
  5
BAC3
  8
0
 10
3430.9264059793431443
 20
177.6445151450832896
 30
0.0
 40
0.2861571456399106
 50
285.2992639415754752
 51
304.6335659375557725
  0
ARC
  5
BAC4
  8
0
 10
3430.8875603529409091
 20
177.7754252807542059
 30
0.0
 40
0.4226878984884566
 50
269.7956057385812869
 51
285.6960160518599992
  0
ARC
  5
BAC5
  8
0
 10
3430.7909936491219014
 20
177.5377173269822038
 30
0.0
 40
0.1689289260517593
 50
165.0868255890526939
 51
187.6832023647374967
  0
ARC
  5
BAC6
  8
0
 10
3430.7141206069140935
 20
177.5667969723220949
 30
0.0
 40
0.1047084333114665
 50
182.7649863598697095
 51
210.0827811357430903
  0
ARC
  5
BAC7
  8
0
 10
3430.711318160646897
 20
177.5733401330253116
 30
0.0
 40
0.1070794571155417
 50
189.0142809004296112
 51
214.7936293969819985
  0
ARC
  5
BAC8
  8
0
 10
3430.7353054355830864
 20
177.5748720172090032
 30
0.0
 40
0.1592246488400948
 50
200.4012722978868908
 51
237.3696223722974992
  0
ARC
  5
BAC9
  8
0
 10
3431.0401410239978759
 20
177.5718586076058045
 30
0.0
 40
0.1550493495577483
 50
302.3555215639124185
 51
340.2309455241315277
  0
ARC
  5
BACA
  8
0
 10
3431.0636963336728513
 20
177.5725654012105963
 30
0.0
 40
0.1040910684417403
 50
324.6987943283564846
 51
350.6802281264734802
  0
ARC
  5
BACB
  8
0
 10
3431.0633307307321047
 20
177.5661333454345083
 30
0.0
 40
0.0993439807031973
 50
328.9926039627899854
 51
357.0057899613399854
  0
ARC
  5
BACC
  8
0
 10
3430.9630996304640576
 20
177.5381951120857025
 30
0.0
 40
0.1863907835060078
 50
353.487390894982525
 51
13.2239056897159397
  0
ARC
  5
BACE
  8
0
 10
3426.9490446052668631
 20
178.4312968881272923
 30
0.0
 40
0.9900000000000002
 50
348.4636381127289724
 51
11.5363618872709708
  0
ARC
  5
BACF
  8
0
 10
3426.9490446052668631
 20
178.4312968881272923
 30
0.0
 40
0.9900000000000002
 50
195.526267972954912
 51
344.4736745577662873
  0
ARC
  5
BAD0
  8
0
 10
3426.9490446052668631
 20
178.4312968881272923
 30
0.0
 40
0.9900000000000002
 50
15.5263254422273906
 51
164.4736745577725969
  0
LINE
  5
BAD1
  8
0
 10
3427.9090446052668995
 20
178.6963011800391996
 30
0.0
 11
3424.7790446052667903
 21
178.6963011800391996
 31
0.0
  0
ARC
  5
BAD2
  8
0
 10
3424.7790519358159145
 20
178.6862938517145096
 30
0.0
 40
0.0100073310095792
 50
90.0419701868717368
 51
179.9826153806695004
  0
LINE
  5
BAD3
  8
0
 10
3424.7690446052661173
 20
178.6862968881272877
 30
0.0
 11
3424.7690446052661173
 21
178.1762969155516885
 31
0.0
  0
ARC
  5
BAD4
  8
0
 10
3424.7790519632649193
 20
178.1762999519687014
 30
0.0
 40
0.0100073584582975
 50
180.0173845955226
 51
269.957872774284624
  0
LINE
  5
BAD5
  8
0
 10
3424.7790446052667903
 20
178.1662925962154134
 30
0.0
 11
3427.909044605255076
 21
178.1662925962154134
 31
0.0
  0
ARC
  5
BAD6
  8
0
 10
3427.9090519494247928
 20
178.1762852578353034
 30
0.0
 40
0.0099926643187189
 50
269.9578901142215273
 51
0.0668428427777658
  0
LINE
  5
BAD7
  8
0
 10
3427.9190446069428617
 20
178.1762969155514895
 30
0.0
 11
3427.9190446069428617
 21
178.6862966979931002
 31
0.0
  0
ARC
  5
BAD8
  8
0
 10
3427.9090372736382051
 20
178.6862938490149872
 30
0.0
 40
0.0100073337098807
 50
0.0163114800541745
 51
89.9580236462482645
  0
ARC
  5
BAD9
  8
0
 10
3426.9490446052668631
 20
178.4312968881272923
 30
0.0
 40
0.5449999999999995
 50
29.0941659314668506
 51
150.9058340685330961
  0
ARC
  5
BADA
  8
0
 10
3426.9490446052668631
 20
178.4312968881272923
 30
0.0
 40
0.5449999999999995
 50
209.0936495709946996
 51
330.906350429003794
  0
ARC
  5
BADB
  8
0
 10
3434.8230603532670102
 20
178.4312968881272923
 30
0.0
 40
0.9900000000000002
 50
168.4636381127290008
 51
191.5363618872709139
  0
ARC
  5
BADC
  8
0
 10
3434.8230603532670102
 20
178.4312968881272923
 30
0.0
 40
0.9900000000000002
 50
195.526325442233599
 51
344.4737320270450027
  0
ARC
  5
BADD
  8
0
 10
3434.8230603532670102
 20
178.4312968881272923
 30
0.0
 40
0.9900000000000002
 50
15.5263254422273906
 51
164.4736745577725969
  0
LINE
  5
BADE
  8
0
 10
3433.8630603532678833
 20
178.6963011800391996
 30
0.0
 11
3436.993060353267083
 21
178.6963011800391996
 31
0.0
  0
ARC
  5
BADF
  8
0
 10
3436.9930530227188683
 20
178.6862938517145096
 30
0.0
 40
0.0100073310095792
 50
0.0173846193304526
 51
89.958029813128249
  0
LINE
  5
BAE0
  8
0
 10
3437.0030603532682107
 20
178.6862968881272877
 30
0.0
 11
3437.0030603532682107
 21
178.1762969155516885
 31
0.0
  0
ARC
  5
BAE1
  8
0
 10
3436.9930529952698635
 20
178.1762999519687014
 30
0.0
 40
0.0100073584582975
 50
270.0421272257154897
 51
359.9826154044773716
  0
LINE
  5
BAE2
  8
0
 10
3436.993060353267083
 20
178.1662925962154134
 30
0.0
 11
3433.8630603532787973
 21
178.1662925962154134
 31
0.0
  0
ARC
  5
BAE3
  8
0
 10
3433.8630530091099899
 20
178.1762852578353034
 30
0.0
 40
0.0099926643187189
 50
179.9331571572222117
 51
270.0421098857784727
  0
LINE
  5
BAE4
  8
0
 10
3433.8530603515910116
 20
178.1762969155514895
 30
0.0
 11
3433.8530603515910116
 21
178.6862966979931002
 31
0.0
  0
ARC
  5
BAE5
  8
0
 10
3433.8630676848952135
 20
178.6862938490149872
 30
0.0
 40
0.0100073337098807
 50
90.0419763537517071
 51
179.9836885199457868
  0
ARC
  5
BAE6
  8
0
 10
3434.8230603532670102
 20
178.4312968881272923
 30
0.0
 40
0.5449999999999995
 50
29.0941659314668506
 51
150.9058340685330961
  0
ARC
  5
BAE7
  8
0
 10
3434.8230603532670102
 20
178.4312968881272923
 30
0.0
 40
0.5449999999999995
 50
209.093649570996206
 51
330.9063504290052151
  0
ENDSEC
  0
EOF
