  0
SECTION
  2
HEADER
  9
$ACADVER
  1
AC1009
  9
$INSBASE
 10
140.1115438748404927
 20
-21.7596326710057717
 30
0.0
  9
$EXTMIN
 10
116.5136706929947934
 20
-26.2564966586481887
 30
0.0
  9
$EXTMAX
 10
145.3435422764027862
 20
-10.3221326684382007
 30
0.0
  9
$LIMMIN
 10
0.0
 20
0.0
  9
$LIMMAX
 10
11.6929133858000007
 20
8.2677165353999982
  9
$ORTHOMODE
 70
     0
  9
$REGENMODE
 70
     1
  9
$FILLMODE
 70
     1
  9
$QTEXTMODE
 70
     0
  9
$MIRRTEXT
 70
     0
  9
$DRAGMODE
 70
     2
  9
$LTSCALE
 40
0.6431102362
  9
$OSMODE
 70
  4095
  9
$ATTMODE
 70
     1
  9
$TEXTSIZE
 40
0.2
  9
$TRACEWID
 40
0.05
  9
$TEXTSTYLE
  7
STANDARD
  9
$CLAYER
  8
0
  9
$CELTYPE
  6
BYLAYER
  9
$CECOLOR
 62
   256
  9
$DIMSCALE
 40
1.0
  9
$DIMASZ
 40
0.1875
  9
$DIMEXO
 40
0.0625
  9
$DIMDLI
 40
0.4443307087
  9
$DIMRND
 40
0.0
  9
$DIMDLE
 40
0.0
  9
$DIMEXE
 40
0.125
  9
$DIMTP
 40
0.01
  9
$DIMTM
 40
0.01
  9
$DIMTXT
 40
1.0
  9
$DIMCEN
 40
0.1052362205
  9
$DIMTSZ
 40
0.0
  9
$DIMTOL
 70
     1
  9
$DIMLIM
 70
     0
  9
$DIMTIH
 70
     1
  9
$DIMTOH
 70
     1
  9
$DIMSE1
 70
     0
  9
$DIMSE2
 70
     0
  9
$DIMTAD
 70
     0
  9
$DIMZIN
 70
     0
  9
$DIMBLK
  1

  9
$DIMASO
 70
     1
  9
$DIMSHO
 70
     1
  9
$DIMPOST
  1
\X
  9
$DIMAPOST
  1

  9
$DIMALT
 70
     1
  9
$DIMALTD
 70
     2
  9
$DIMALTF
 40
25.3999999999999986
  9
$DIMLFAC
 40
1.0
  9
$DIMTOFL
 70
     0
  9
$DIMTVP
 40
0.0
  9
$DIMTIX
 70
     0
  9
$DIMSOXD
 70
     0
  9
$DIMSAH
 70
     0
  9
$DIMBLK1
  1

  9
$DIMBLK2
  1

  9
$DIMSTYLE
  2
STANDARD
  9
$DIMCLRD
 70
     0
  9
$DIMCLRE
 70
     0
  9
$DIMCLRT
 70
     0
  9
$DIMTFAC
 40
1.0
  9
$DIMGAP
 40
0.09
  9
$LUNITS
 70
     2
  9
$LUPREC
 70
     4
  9
$SKETCHINC
 40
0.1
  9
$FILLETRAD
 40
0.0
  9
$AUNITS
 70
     0
  9
$AUPREC
 70
     0
  9
$MENU
  1
.
  9
$ELEVATION
 40
0.0
  9
$PELEVATION
 40
0.0
  9
$THICKNESS
 40
0.0
  9
$LIMCHECK
 70
     0
  9
$BLIPMODE
 70
     0
  9
$CHAMFERA
 40
0.0
  9
$CHAMFERB
 40
0.0
  9
$SKPOLY
 70
     0
  9
$TDCREATE
 40
2458172.4620254631154239
  9
$TDUPDATE
 40
2459402.984386574011296
  9
$TDINDWG
 40
0.1239989931
  9
$TDUSRTIMER
 40
0.1239989931
  9
$USRTIMER
 70
     1
  9
$ANGBASE
 50
0.0
  9
$ANGDIR
 70
     0
  9
$PDMODE
 70
     0
  9
$PDSIZE
 40
0.3125
  9
$PLINEWID
 40
0.0
  9
$COORDS
 70
     1
  9
$SPLFRAME
 70
     0
  9
$SPLINETYPE
 70
     6
  9
$SPLINESEGS
 70
     8
  9
$ATTDIA
 70
     1
  9
$ATTREQ
 70
     1
  9
$HANDLING
 70
     1
  9
$HANDSEED
  5
576F
  9
$SURFTAB1
 70
     6
  9
$SURFTAB2
 70
     6
  9
$SURFTYPE
 70
     6
  9
$SURFU
 70
     6
  9
$SURFV
 70
     6
  9
$UCSNAME
  2

  9
$UCSORG
 10
0.0
 20
0.0
 30
0.0
  9
$UCSXDIR
 10
1.0
 20
0.0
 30
0.0
  9
$UCSYDIR
 10
0.0
 20
1.0
 30
0.0
  9
$PUCSNAME
  2

  9
$PUCSORG
 10
0.0
 20
0.0
 30
0.0
  9
$PUCSXDIR
 10
1.0
 20
0.0
 30
0.0
  9
$PUCSYDIR
 10
0.0
 20
1.0
 30
0.0
  9
$USERI1
 70
     0
  9
$USERI2
 70
     0
  9
$USERI3
 70
     0
  9
$USERI4
 70
     0
  9
$USERI5
 70
     0
  9
$USERR1
 40
0.0
  9
$USERR2
 40
0.0
  9
$USERR3
 40
0.0
  9
$USERR4
 40
0.0
  9
$USERR5
 40
0.0
  9
$WORLDVIEW
 70
     1
  9
$SHADEDGE
 70
     3
  9
$SHADEDIF
 70
    70
  9
$TILEMODE
 70
     1
  9
$MAXACTVP
 70
    64
  9
$PLIMCHECK
 70
     0
  9
$PEXTMIN
 10
1.0000000000000000E+20
 20
1.0000000000000000E+20
 30
1.0000000000000000E+20
  9
$PEXTMAX
 10
-1.0000000000000000E+20
 20
-1.0000000000000000E+20
 30
-1.0000000000000000E+20
  9
$PLIMMIN
 10
0.0
 20
0.0
  9
$PLIMMAX
 10
12.0
 20
9.0
  9
$UNITMODE
 70
     0
  9
$VISRETAIN
 70
     1
  9
$PLINEGEN
 70
     0
  9
$PSLTSCALE
 70
     1
  0
ENDSEC
  0
SECTION
  2
TABLES
  0
TABLE
  2
VPORT
 70
     1
  0
VPORT
  2
*ACTIVE
 70
     0
 10
0.0
 20
0.0
 11
1.0
 21
1.0
 12
24.8587670221217003
 22
-5.1669563629377322
 13
0.0
 23
0.0
 14
1.0
 24
1.0
 15
0.0
 25
0.0
 16
-0.0000000000000142
 26
0.0
 36
56.7450775942271122
 17
124.5992279052733949
 27
-16.060665607452389
 37
0.0
 40
42.3743350475130995
 41
2.0416666666666661
 42
50.0
 43
0.0
 44
0.0
 50
0.0
 51
0.0
 71
     0
 72
   100
 73
     1
 74
     1
 75
     0
 76
     0
 77
     0
 78
     0
  0
ENDTAB
  0
TABLE
  2
LTYPE
 70
     2
  0
LTYPE
  2
CONTINUOUS
 70
     0
  3
Solid line
 72
    65
 73
     0
 40
0.0
  0
LTYPE
  2
PHANTOM2
 70
     0
  3
___ _ _ ___ _ _ ___ _ _ ___ _ _
 72
    65
 73
     6
 40
1.25
 49
0.625
 49
-0.125
 49
0.125
 49
-0.125
 49
0.125
 49
-0.125
  0
ENDTAB
  0
TABLE
  2
LAYER
 70
     2
  0
LAYER
  2
0
 70
     0
 62
   255
  6
CONTINUOUS
  0
LAYER
  2
DEFPOINTS
 70
     0
 62
     7
  6
CONTINUOUS
  0
ENDTAB
  0
TABLE
  2
STYLE
 70
     1
  0
STYLE
  2
STANDARD
 70
     0
 40
0.0
 41
0.8
 50
0.0
 71
     0
 42
0.2
  3
txt
  4

  0
ENDTAB
  0
TABLE
  2
VIEW
 70
     0
  0
ENDTAB
  0
TABLE
  2
UCS
 70
     0
  0
ENDTAB
  0
TABLE
  2
APPID
 70
     9
  0
APPID
  2
ACAD
 70
     0
  0
APPID
  2
ACAD_MLEADERVER
 70
     0
  0
APPID
  2
ACAD_EXEMPT_FROM_CAD_STANDARDS
 70
     0
  0
APPID
  2
ACAD_DSTYLE_DIMJAG
 70
     0
  0
APPID
  2
ACAD_DSTYLE_DIMTALN
 70
     0
  0
APPID
  2
ACAD_NAV_VCDISPLAY
 70
     0
  0
APPID
  2
ACAECLAYERSTANDARD
 70
     0
  0
APPID
  2
ACCMTRANSPARENCY
 70
     0
  0
APPID
  2
ACDBATTR
 70
     0
  0
ENDTAB
  0
TABLE
  2
DIMSTYLE
 70
     1
  0
DIMSTYLE
  2
STANDARD
 70
     0
  3

  4

  5

  6

  7

 40
1.0
 41
0.1875
 42
0.0625
 43
0.38
 44
0.125
 45
0.0
 46
0.0
 47
0.01
 48
0.01
140
0.15625
141
0.09
142
0.0
143
25.3999999999999986
144
1.0
145
0.0
146
1.0
147
0.09
 71
     1
 72
     0
 73
     1
 74
     1
 75
     0
 76
     0
 77
     0
 78
     4
170
     0
171
     2
172
     0
173
     0
174
     0
175
     0
176
     0
177
     0
178
     0
  0
ENDTAB
  0
ENDSEC
  0
SECTION
  2
BLOCKS
  0
BLOCK
  8
0
  2
$MODEL_SPACE
 70
     0
 10
0.0
 20
0.0
 30
0.0
  3
$MODEL_SPACE
  1

  0
ENDBLK
  5
21
  8
0
  0
BLOCK
 67
     1
  8
0
  2
$PAPER_SPACE
 70
     0
 10
0.0
 20
0.0
 30
0.0
  3
$PAPER_SPACE
  1

  0
ENDBLK
  5
1D
 67
     1
  8
0
  0
BLOCK
  8
0
  2
_FILLED
 70
     0
 10
0.0
 20
0.0
 30
0.0
  3
_FILLED
  1

  0
SOLID
  5
55D9
  8
0
  6
BYBLOCK
 62
     0
 10
0.0
 20
0.0
 30
0.0
 11
-1.0
 21
0.1666666667
 31
0.0
 12
-1.0
 22
-0.1666666667
 32
0.0
 13
-1.0
 23
-0.1666666667
 33
0.0
  0
ENDBLK
  5
55DA
  8
0
  6
BYBLOCK
 62
     0
  0
ENDSEC
  0
SECTION
  2
ENTITIES
  0
ATTDEF
  5
2E19
  8
DEFPOINTS
 10
140.115924479121901
 20
-21.7549457395699015
 30
0.0
 40
0.001
  1
K-14408BR-4
  3

  2
MODELNUMBER
 70
     0
1001
ACDBATTR
1070
     0
1070
     1
  0
ATTDEF
  5
2E1A
  8
DEFPOINTS
 10
140.115924479121901
 20
-21.7566124062365596
 30
0.0
 40
0.001
  1
PURIST
  3

  2
TRADENAME
 70
     0
1001
ACDBATTR
1070
     0
1070
     1
  0
ATTDEF
  5
2E1B
  8
DEFPOINTS
 10
140.115924479121901
 20
-21.7582790729032283
 30
0.0
 40
0.001
  1
BATHROOM SINK FAUCET
  3

  2
PRODUCT
 70
     0
1001
ACDBATTR
1070
     0
1070
     1
  0
LINE
  5
5666
  8
0
 10
138.0195438712179055
 20
-16.7176326699339413
 30
0.0
 11
134.8895438784630869
 21
-16.7176326699339413
 31
0.0
  0
ARC
  5
5667
  8
0
 10
134.889729205494092
 20
-16.7278165986645
 30
0.0
 40
0.0101856148806832
 50
91.0425529338714199
 51
179.5681836682917094
  0
LINE
  5
5668
  8
0
 10
134.8795438798865121
 20
-16.7277398343154786
 30
0.0
 11
134.8795438798865121
 21
-17.2377398331349383
 31
0.0
  0
ARC
  5
5669
  8
0
 10
134.8911861483881012
 20
-17.2359661114163316
 30
0.0
 40
0.0117766083656411
 50
188.6625085835422908
 51
262.1609936303595987
  0
LINE
  5
566A
  8
0
 10
134.8895799363994001
 20
-17.2476326699339388
 30
0.0
 11
136.8170799268376072
 21
-17.2476326699339388
 31
0.0
  0
ARC
  5
566B
  8
0
 10
136.8165959757502037
 20
-17.2315232450707896
 30
0.0
 40
0.0161166925290721
 50
271.7207329262232065
 51
312.6476134209314068
  0
ARC
  5
566C
  8
0
 10
139.5149273688982987
 20
-19.9751114398944516
 30
0.0
 40
3.8320432893152221
 50
131.8106062689857936
 51
134.531408571117197
  0
ARC
  5
566D
  8
0
 10
137.011384216489887
 20
-17.1939292319531809
 30
0.0
 40
0.0908243491271809
 50
94.852628800790896
 51
124.2935811188227007
  0
ARC
  5
566E
  8
0
 10
137.0591880710622945
 20
-17.5333169044053108
 30
0.0
 40
0.4334526270359181
 50
87.8845093147145349
 51
97.3547062130390941
  0
ARC
  5
566F
  8
0
 10
137.1025061542466972
 20
-17.207146745494061
 30
0.0
 40
0.1047611502482084
 50
57.4107502276014685
 51
85.9403585189881625
  0
ARC
  5
5670
  8
0
 10
137.0669582970141107
 20
-17.4586518213812809
 30
0.0
 40
0.3585865856547943
 50
83.1185171383804828
 51
88.684845045819003
  0
ARC
  5
5671
  8
0
 10
134.5078931178431105
 20
-20.0784361231856785
 30
0.0
 40
3.9732832141363521
 50
45.5235428757720797
 51
48.1474322966192929
  0
ARC
  5
5672
  8
0
 10
137.3025829801900102
 20
-17.2315497979598504
 30
0.0
 40
0.016090737226048
 50
227.1473620479594047
 51
268.2084717090646109
  0
LINE
  5
5673
  8
0
 10
137.3020799359148896
 20
-17.2476326699339388
 30
0.0
 11
138.0195799291539913
 21
-17.2476326699339388
 31
0.0
  0
ARC
  5
5674
  8
0
 10
138.0193966210082124
 20
-17.2374530242263013
 30
0.0
 40
0.0101812960184877
 50
271.0316320867951276
 51
359.5921097588447992
  0
LINE
  5
5675
  8
0
 10
138.029577659030906
 20
-17.2375255045423899
 30
0.0
 11
138.0295429582112092
 21
-16.7275255057229302
 31
0.0
  0
ARC
  5
5676
  8
0
 10
138.0187427727925069
 20
-16.7284420299041585
 30
0.0
 40
0.010839004643094
 50
4.850606649982879
 51
85.7614696933982259
  0
LINE
  5
5677
  8
0
 10
136.0845438732254138
 20
-21.7595782913513105
 30
0.0
 11
138.0347287616679921
 21
-21.7595782909273616
 31
0.0
  0
LINE
  5
5678
  8
0
 10
136.0845438744997011
 20
-21.5796326712177304
 30
0.0
 11
138.0345438751812992
 21
-21.5796326712177304
 31
0.0
  0
LINE
  5
5679
  8
0
 10
136.5146408175945112
 20
-18.2355782911393298
 30
0.0
 11
137.6046318177340879
 21
-18.2355782911393298
 31
0.0
  0
LINE
  5
567A
  8
0
 10
137.5940238674810132
 20
-18.1376326539122914
 30
0.0
 11
136.5252487675124087
 21
-18.1376326539122914
 31
0.0
  0
ARC
  5
567B
  8
0
 10
136.0844514477115013
 20
-21.7446709556193412
 30
0.0
 40
0.014907622036451
 50
179.8528537850588123
 51
270.3552294107224725
  0
LINE
  5
567C
  8
0
 10
136.0695438748371942
 20
-21.7446326701162214
 30
0.0
 11
136.0695438909556003
 21
-21.5946326701162192
 31
0.0
  0
ARC
  5
567D
  8
0
 10
136.0845438906846994
 20
-21.5946326709468899
 30
0.0
 40
0.0149999997291673
 50
90.0000618222641862
 51
179.9999968271021942
  0
ARC
  5
567E
  8
0
 10
136.5244758776680101
 20
-21.3075133569286095
 30
0.0
 40
0.0099352672709409
 50
89.6351063103008556
 51
178.8803803633022937
  0
ARC
  5
567F
  8
0
 10
136.2349786609202056
 20
-21.2999723110620387
 30
0.0
 40
0.2796603677592837
 50
270.0133607783524212
 51
358.4946185717759022
  0
LINE
  5
5680
  8
0
 10
136.5146363174467012
 20
-21.2875782911393294
 30
0.0
 11
136.5146408175945112
 21
-18.2355782911393298
 31
0.0
  0
ARC
  5
5681
  8
0
 10
136.5252487673629957
 20
-18.2175782912175812
 30
0.0
 40
0.0099999999217536
 50
181.0000008973410104
 51
270.0000039174955759
  0
ARC
  5
5682
  8
0
 10
137.5225167365991013
 20
-18.1825782920787589
 30
0.0
 40
1.0078804197143809
 50
178.0000000905573927
 51
182.0000002260549081
  0
ARC
  5
5683
  8
0
 10
136.526954737940514
 20
-18.1493794415257987
 30
0.0
 40
0.0118700191434571
 50
98.2632194348545625
 51
170.4189987447117005
  0
ARC
  5
5684
  8
0
 10
136.5857288223803039
 20
-17.8873921755133587
 30
0.0
 40
0.2504589152037648
 50
272.3931166003735029
 51
359.717862871167199
  0
LINE
  5
5685
  8
0
 10
139.1365484431753998
 20
-21.7596326710057717
 30
0.0
 11
141.0865408998973862
 21
-21.7596326710057788
 31
0.0
  0
LINE
  5
5686
  8
0
 10
139.1365484444496872
 20
-21.5796326712177304
 30
0.0
 11
141.0865393052314118
 21
-21.5796326712177304
 31
0.0
  0
ARC
  5
5687
  8
0
 10
139.1365516353220926
 20
-21.7446249686778899
 30
0.0
 40
0.0150077026673693
 50
180.0294015450895131
 51
269.9878131558417067
  0
LINE
  5
5688
  8
0
 10
139.1215439346306937
 20
-21.7446326699367098
 30
0.0
 11
139.1215439346306084
 21
-21.5946326715074903
 31
0.0
  0
ARC
  5
5689
  8
0
 10
139.1365516620651022
 20
-21.5946404002973296
 30
0.0
 40
0.0150077294245279
 50
90.0122840557321524
 51
179.9704934007199029
  0
ARC
  5
568A
  8
0
 10
139.287051254219989
 20
-21.3001395909029902
 30
0.0
 40
0.2794930803288571
 50
269.9994240619698189
 51
0.1039186145953959
  0
LINE
  5
568B
  8
0
 10
139.5665438748405052
 20
-21.2996326684381998
 30
0.0
 11
139.5665438748405052
 21
-18.1546326684382002
 31
0.0
  0
ARC
  5
568C
  8
0
 10
139.5815438815928928
 20
-18.1546326712351096
 30
0.0
 40
0.01500000675234
 50
89.9583908739980131
 51
179.9999893165962135
  0
LINE
  5
568D
  8
0
 10
139.5815438748404915
 20
-18.1396326684381997
 30
0.0
 11
140.6415547613416948
 21
-18.1396326684381997
 31
0.0
  0
ARC
  5
568E
  8
0
 10
139.6080438748404902
 20
-17.9796326684381995
 30
0.0
 40
0.1599999999999966
 50
269.9999999999984084
 51
0.0000000000004071
  0
LINE
  5
568F
  8
0
 10
139.7680438748404868
 20
-17.9796326684381995
 30
0.0
 11
139.7680438748404868
 21
-10.6656326684381995
 31
0.0
  0
ARC
  5
5690
  8
0
 10
140.1115438748404927
 20
-10.6656326684381995
 30
0.0
 40
0.3434999999999988
 50
90.0
 51
179.999999999999801
  0
LINE
  5
5691
  8
0
 10
139.7787946715531859
 20
-13.0146326697219905
 30
0.0
 11
140.4442946715531946
 21
-13.0146326697219905
 31
0.0
  0
LINE
  5
5692
  8
0
 10
140.4550438748404986
 20
-12.3146326697218598
 30
0.0
 11
139.7680438748404868
 21
-12.3146326697218598
 31
0.0
  0
ARC
  5
5693
  8
0
 10
139.773794671586387
 20
-12.3196326697218606
 30
0.0
 40
0.004999999999999
 50
89.9999999999788258
 51
180.000000002768104
  0
LINE
  5
5694
  8
0
 10
139.7687946715531098
 20
-12.3196326697219902
 30
0.0
 11
139.7687946715863063
 21
-13.0046326697219907
 31
0.0
  0
ARC
  5
5695
  8
0
 10
139.7787946715866951
 20
-13.0046326697215004
 30
0.0
 40
0.010000000000483
 50
180.000000002768104
 51
269.9999998075992949
  0
ARC
  5
5696
  8
0
 10
141.0865361136357023
 20
-21.7446249683773907
 30
0.0
 40
0.0150077033916093
 50
270.0182727890920091
 51
359.9705913122239735
  0
LINE
  5
5697
  8
0
 10
141.1015438150504053
 20
-21.7446326715074889
 30
0.0
 11
141.1015438150504053
 21
-21.5946326715074903
 31
0.0
  0
ARC
  5
5698
  8
0
 10
141.0865360876159116
 20
-21.5946404002973296
 30
0.0
 40
0.0150077294245264
 50
0.0295065992782278
 51
89.9877159442727361
  0
ARC
  5
5699
  8
0
 10
140.9360364932726952
 20
-21.3001395918059693
 30
0.0
 40
0.2794930781421194
 50
179.8960811994809887
 51
270.0005763864272126
  0
LINE
  5
569A
  8
0
 10
140.6565438748405086
 20
-21.2996326684381998
 30
0.0
 11
140.6565438748405086
 21
-18.1546326684382002
 31
0.0
  0
ARC
  5
569B
  8
0
 10
140.6415438680882062
 20
-18.1546326712351096
 30
0.0
 40
0.01500000675234
 50
0.0000106834037884
 51
90.0416091260019869
  0
ARC
  5
569C
  8
0
 10
140.6150438748404952
 20
-17.9796326684381995
 30
0.0
 40
0.1599999999999966
 50
179.9999999999996021
 51
270.0000000000017053
  0
LINE
  5
569D
  8
0
 10
140.4550438748404986
 20
-17.9796326684381995
 30
0.0
 11
140.4550438748404986
 21
-10.6656326684381995
 31
0.0
  0
ARC
  5
569E
  8
0
 10
140.1115438748404927
 20
-10.6656326684381995
 30
0.0
 40
0.3434999999999988
 50
0.0000000000002036
 51
90.0
  0
ARC
  5
569F
  8
0
 10
140.4492946715863866
 20
-12.3196326697218606
 30
0.0
 40
0.004999999999999
 50
359.9999999972314981
 51
90.0000000000211458
  0
LINE
  5
56A0
  8
0
 10
140.4542946715532139
 20
-12.3196326697219902
 30
0.0
 11
140.4542946715201026
 21
-13.0046326697219907
 31
0.0
  0
ARC
  5
56A1
  8
0
 10
140.4442946715196001
 20
-13.0046326697215004
 30
0.0
 40
0.010000000000483
 50
270.0000001924005915
 51
359.9999999972314981
  0
ARC
  5
56A2
  8
0
 10
138.0346357621102982
 20
-21.7446696373647406
 30
0.0
 40
0.0149089369287215
 50
269.6468766644065909
 51
0.1420671038311622
  0
LINE
  5
56A3
  8
0
 10
138.0495446532081019
 20
-21.7446326701162214
 30
0.0
 11
138.0495446532081019
 21
-21.5946326701162192
 31
0.0
  0
ARC
  5
56A4
  8
0
 10
138.0345432971745936
 20
-21.5946340273015203
 30
0.0
 40
0.0150013560949256
 50
0.0051835973394236
 51
89.9977923763184293
  0
ARC
  5
56A5
  8
0
 10
137.5947334725059079
 20
-21.307578302983071
 30
0.0
 40
0.0100000118438156
 50
1.484579075619491
 51
89.9999338318112478
  0
ARC
  5
56A6
  8
0
 10
137.8839767183627032
 20
-21.3002978293654408
 30
0.0
 40
0.2793348499250321
 50
181.4403453042841079
 51
270.0137748110952884
  0
LINE
  5
56A7
  8
0
 10
137.6046363174467047
 20
-21.2875782911393294
 30
0.0
 11
137.6046318177340879
 21
-18.2355782911393298
 31
0.0
  0
ARC
  5
56A8
  8
0
 10
137.594023867796011
 20
-18.2175782911447186
 30
0.0
 40
0.0100000000925968
 50
270.0000002183629135
 51
358.9999987021955121
  0
ARC
  5
56A9
  8
0
 10
136.5967558987294979
 20
-18.1825782920787589
 30
0.0
 40
1.0078804197143809
 50
357.9999997739448077
 51
1.999999909442628
  0
ARC
  5
56AA
  8
0
 10
137.5941173340889065
 20
-18.1475381351041314
 30
0.0
 40
0.0099059221468243
 50
0.7771657942121709
 51
90.5406160262189559
  0
ARC
  5
56AB
  8
0
 10
137.5335438768717893
 20
-17.8873920850296884
 30
0.0
 40
0.250459008277687
 50
180.2921393940802091
 51
267.6068696533571938
  0
LINE
  5
56AC
  8
0
 10
136.8361847010312999
 20
-17.8886254857894684
 30
0.0
 11
136.8389568309146966
 21
-17.2321682303055397
 31
0.0
  0
LINE
  5
56AD
  8
0
 10
137.2830881242664987
 20
-17.8886691184605198
 30
0.0
 11
137.2801305357058084
 21
-17.2320912391740215
 31
0.0
  0
LINE
  5
56AE
  8
0
 10
139.7680438748404868
 20
-17.9796326684381995
 30
0.0
 11
140.4550438748404986
 21
-17.9796326684381995
 31
0.0
  0
LINE
  5
56AF
  8
0
 10
136.5252487680467084
 20
-18.2275782911393307
 30
0.0
 11
137.5940238678342098
 21
-18.227578291237311
 31
0.0
  0
ARC
  5
56B0
  8
0
 10
136.7710572675310914
 20
-18.2325782911775285
 30
0.0
 40
0.005000000038202
 50
0.9999989151983916
 51
89.994560117902239
  0
LINE
  5
56B1
  8
0
 10
136.7760565060467002
 20
-18.2324910292393305
 30
0.0
 11
136.7761103943466878
 21
-18.2355782911393298
 31
0.0
  0
LINE
  5
56B2
  8
0
 10
137.3432161289686064
 20
-18.2324910292393305
 30
0.0
 11
137.3431622405466896
 21
-18.2355782911393298
 31
0.0
  0
ARC
  5
56B3
  8
0
 10
137.3482151413587076
 20
-18.2325780611104591
 30
0.0
 40
0.0049997699369652
 50
90.0073628638847083
 51
179.0025919541816961
  0
ARC
  5
56B4
  8
0
 10
137.5946354979845125
 20
-21.2875779517069716
 30
0.0
 40
0.0100008194679617
 50
270.561381760891777
 51
359.9980553552014158
  0
ARC
  5
56B5
  8
0
 10
136.5246371369071881
 20
-21.2875779517076786
 30
0.0
 40
0.010000819466261
 50
180.0019446407609962
 51
269.4386188216940923
  0
LINE
  5
56B6
  8
0
 10
136.5245391509467083
 20
-21.2975782911393416
 30
0.0
 11
137.5947334840467136
 21
-21.2975782911393416
 31
0.0
  0
LINE
  5
56B7
  8
0
 10
142.203545471854909
 20
-16.7176326699339413
 30
0.0
 11
145.3335454646096139
 21
-16.7176326699339413
 31
0.0
  0
ARC
  5
56B8
  8
0
 10
145.3333625216025098
 20
-16.7278110297448102
 30
0.0
 40
0.0101800037614584
 50
0.40071015400269
 51
88.9702924757190488
  0
LINE
  5
56B9
  8
0
 10
145.343542276402701
 20
-16.7277398343154786
 30
0.0
 11
145.343542276402701
 21
-17.2377398331349383
 31
0.0
  0
ARC
  5
56BA
  8
0
 10
145.3324758604252054
 20
-17.2365506330456384
 30
0.0
 40
0.0111301284557192
 50
275.328175344465194
 51
353.8665168180835963
  0
LINE
  5
56BB
  8
0
 10
145.3335094066733859
 20
-17.2476326699339388
 30
0.0
 11
143.4060094162350936
 21
-17.2476326699339317
 31
0.0
  0
ARC
  5
56BC
  8
0
 10
143.4064933673226108
 20
-17.2315232450708109
 30
0.0
 40
0.0161166925290426
 50
227.3523865790486127
 51
268.2792670738338074
  0
ARC
  5
56BD
  8
0
 10
140.7081619741744873
 20
-19.9751114398944516
 30
0.0
 40
3.8320432893152221
 50
45.4685914288827533
 51
48.189393731014178
  0
ARC
  5
56BE
  8
0
 10
143.2117051265828138
 20
-17.1939292319531809
 30
0.0
 40
0.0908243491271809
 50
55.706418881177278
 51
85.1473711992091467
  0
ARC
  5
56BF
  8
0
 10
143.1639012720104063
 20
-17.5333169044053108
 30
0.0
 40
0.4334526270359181
 50
82.6452937869592859
 51
92.1154906852854651
  0
ARC
  5
56C0
  8
0
 10
143.1205831888260036
 20
-17.207146745494061
 30
0.0
 40
0.1047611502482084
 50
94.0596414810118233
 51
122.5892497723985031
  0
ARC
  5
56C1
  8
0
 10
143.1561310460587038
 20
-17.4586518213812809
 30
0.0
 40
0.3585865856547943
 50
91.315154954179377
 51
96.881482861621123
  0
ARC
  5
56C2
  8
0
 10
145.7151962252297039
 20
-20.0784361231856785
 30
0.0
 40
3.9732832141363521
 50
131.8525677033807142
 51
134.4764571242278919
  0
ARC
  5
56C3
  8
0
 10
142.9205063628828043
 20
-17.2315497979598398
 30
0.0
 40
0.0160907372260502
 50
271.791528290946701
 51
312.8526379520430964
  0
LINE
  5
56C4
  8
0
 10
142.9210094071578112
 20
-17.2476326699339388
 30
0.0
 11
142.2035094139187947
 21
-17.2476326699339388
 31
0.0
  0
ARC
  5
56C5
  8
0
 10
142.2036927220644884
 20
-17.2374530242263013
 30
0.0
 40
0.0101812960184863
 50
180.4078902411488912
 51
268.968367913213001
  0
LINE
  5
56C6
  8
0
 10
142.1935116840417948
 20
-17.2375255045423899
 30
0.0
 11
142.1935463848616052
 21
-16.7275255057229302
 31
0.0
  0
ARC
  5
56C7
  8
0
 10
142.2033642727284075
 20
-16.7274491822632783
 30
0.0
 40
0.0098181845284873
 50
88.9425199113276364
 51
180.4454037453045032
  0
LINE
  5
56C8
  8
0
 10
144.138545469847287
 20
-21.7596326710057788
 30
0.0
 11
142.1885454666171995
 21
-21.7596326710057788
 31
0.0
  0
LINE
  5
56C9
  8
0
 10
144.1385454685731133
 20
-21.5796326712177304
 30
0.0
 11
142.1885454678914016
 21
-21.5796326712177304
 31
0.0
  0
LINE
  5
56CA
  8
0
 10
143.7084485254783033
 20
-18.2355782911393298
 30
0.0
 11
142.6184575253386981
 21
-18.2355782911393298
 31
0.0
  0
LINE
  5
56CB
  8
0
 10
142.6290654755918013
 20
-18.1376326539122914
 30
0.0
 11
143.6978405755602921
 21
-18.1376326539122914
 31
0.0
  0
ARC
  5
56CC
  8
0
 10
144.1385455381445979
 20
-21.7446327407028512
 30
0.0
 40
0.0149999300911144
 50
269.9997391226464174
 51
0.0002696223389015
  0
LINE
  5
56CD
  8
0
 10
144.1535454682355066
 20
-21.7446326701162214
 30
0.0
 11
144.1535454521172142
 21
-21.5946326701162192
 31
0.0
  0
ARC
  5
56CE
  8
0
 10
144.1385454523880867
 20
-21.5946326709468899
 30
0.0
 40
0.0149999997291666
 50
0.0000031729028267
 51
89.9999381777374481
  0
ARC
  5
56CF
  8
0
 10
143.6986134654048044
 20
-21.3075133569286095
 30
0.0
 40
0.0099352672709409
 50
1.1196196366976561
 51
90.3648936896991444
  0
ARC
  5
56D0
  8
0
 10
143.9881106821524952
 20
-21.2999723110620494
 30
0.0
 40
0.2796603677592814
 50
181.5053814282233873
 51
269.9866392216475788
  0
LINE
  5
56D1
  8
0
 10
143.7084530256261132
 20
-21.2875782911393294
 30
0.0
 11
143.7084485254783033
 21
-18.2355782911393298
 31
0.0
  0
ARC
  5
56D2
  8
0
 10
143.6978405757097903
 20
-18.2175782912175812
 30
0.0
 40
0.0099999999217536
 50
269.9999960825044241
 51
358.9999991026589896
  0
ARC
  5
56D3
  8
0
 10
142.7005726064735995
 20
-18.1825782920787589
 30
0.0
 40
1.0078804197143809
 50
357.9999997739448077
 51
1.999999909442628
  0
ARC
  5
56D4
  8
0
 10
143.6979340418326103
 20
-18.1475381351044902
 30
0.0
 40
0.0099059221471907
 50
0.7771657963234486
 51
90.5406160241067539
  0
ARC
  5
56D5
  8
0
 10
143.6373605206923969
 20
-17.8873921755133587
 30
0.0
 40
0.2504589152037667
 50
180.2821371288328862
 51
267.6068833996263834
  0
ARC
  5
56D6
  8
0
 10
142.1885482032959089
 20
-21.7446259695446784
 30
0.0
 40
0.0150067017106338
 50
180.0255828688970041
 51
269.9895513253557056
  0
LINE
  5
56D7
  8
0
 10
142.1735415030811964
 20
-21.7446326701162214
 30
0.0
 11
142.1735415030811964
 21
-21.5946326701162192
 31
0.0
  0
ARC
  5
56D8
  8
0
 10
142.1885483001678097
 20
-21.5946394695774089
 30
0.0
 40
0.0150067986269538
 50
90.0108135975886086
 51
179.9740397367891092
  0
ARC
  5
56D9
  8
0
 10
142.6283558705669066
 20
-21.307578302983071
 30
0.0
 40
0.0100000118438156
 50
90.0000661681887379
 51
178.5154209243804928
  0
ARC
  5
56DA
  8
0
 10
142.3391126247101113
 20
-21.3002978293654408
 30
0.0
 40
0.2793348499250316
 50
269.9862251889045979
 51
358.5596546957157216
  0
LINE
  5
56DB
  8
0
 10
142.6184530256261098
 20
-21.2875782911393294
 30
0.0
 11
142.6184575253386981
 21
-18.2355782911393298
 31
0.0
  0
ARC
  5
56DC
  8
0
 10
142.6290654752766898
 20
-18.2175782911447186
 30
0.0
 40
0.0100000000925968
 50
181.0000012978044026
 51
269.9999997816353812
  0
ARC
  5
56DD
  8
0
 10
143.6263334443432882
 20
-18.1825782920787589
 30
0.0
 40
1.0078804197143809
 50
178.0000000905573927
 51
182.0000002260551071
  0
ARC
  5
56DE
  8
0
 10
142.6289720089839079
 20
-18.1475381351041314
 30
0.0
 40
0.0099059221468233
 50
89.4593839737712955
 51
179.2228342057939017
  0
ARC
  5
56DF
  8
0
 10
142.6895454662009968
 20
-17.8873920850296884
 30
0.0
 40
0.250459008277685
 50
272.3931303466428062
 51
359.7078606059196773
  0
LINE
  5
56E0
  8
0
 10
143.3869046420414861
 20
-17.8886254857894684
 30
0.0
 11
143.3841325121580041
 21
-17.2321682303055397
 31
0.0
  0
LINE
  5
56E1
  8
0
 10
142.9400012188062021
 20
-17.8886691184605198
 30
0.0
 11
142.9429588073670061
 21
-17.2320912391740215
 31
0.0
  0
LINE
  5
56E2
  8
0
 10
143.6978405750259924
 20
-18.2275782911393307
 30
0.0
 11
142.6290654752386047
 21
-18.227578291237311
 31
0.0
  0
ARC
  5
56E3
  8
0
 10
143.4520320755416947
 20
-18.2325782911775285
 30
0.0
 40
0.005000000038202
 50
90.0054398820977752
 51
179.0000010848015961
  0
LINE
  5
56E4
  8
0
 10
143.4470328370260859
 20
-18.2324910292393305
 30
0.0
 11
143.4469789487260982
 21
-18.2355782911393298
 31
0.0
  0
LINE
  5
56E5
  8
0
 10
142.879873214104208
 20
-18.2324910292393305
 30
0.0
 11
142.8799271025260964
 21
-18.2355782911393298
 31
0.0
  0
ARC
  5
56E6
  8
0
 10
142.8748742017141069
 20
-18.2325780611104591
 30
0.0
 40
0.0049997699369652
 50
0.9974080458182479
 51
89.9926371361152775
  0
ARC
  5
56E7
  8
0
 10
142.6284538450881882
 20
-21.2875779517069716
 30
0.0
 40
0.0100008194679617
 50
180.0019446447986127
 51
269.438618239108223
  0
ARC
  5
56E8
  8
0
 10
143.6984522061655127
 20
-21.2875779517076786
 30
0.0
 40
0.010000819466261
 50
270.5613811783059077
 51
359.9980553592390038
  0
LINE
  5
56E9
  8
0
 10
143.6985501921259925
 20
-21.2975782911393416
 30
0.0
 11
142.6283558590259872
 21
-21.2975782911393416
 31
0.0
  0
ENDSEC
  0
EOF
