  0
SECTION
  2
HEADER
  9
$ACADVER
  1
AC1009
  9
$INSBASE
 10
152.1185928880042866
 20
-21.5031276696603797
 30
0.0
  9
$EXTMIN
 10
137.6331157170205017
 20
-24.5221263967344782
 30
0.0
  9
$EXTMAX
 10
155.6164521859109016
 20
-10.0656276685885402
 30
0.0
  9
$LIMMIN
 10
0.0
 20
0.0
  9
$LIMMAX
 10
11.6929133858000007
 20
8.2677165353999982
  9
$ORTHOMODE
 70
     0
  9
$REGENMODE
 70
     1
  9
$FILLMODE
 70
     1
  9
$QTEXTMODE
 70
     0
  9
$MIRRTEXT
 70
     0
  9
$DRAGMODE
 70
     2
  9
$LTSCALE
 40
0.6431102362
  9
$OSMODE
 70
  4095
  9
$ATTMODE
 70
     1
  9
$TEXTSIZE
 40
0.2
  9
$TRACEWID
 40
0.05
  9
$TEXTSTYLE
  7
STANDARD
  9
$CLAYER
  8
0
  9
$CELTYPE
  6
BYLAYER
  9
$CECOLOR
 62
   256
  9
$DIMSCALE
 40
1.0
  9
$DIMASZ
 40
0.1875
  9
$DIMEXO
 40
0.0625
  9
$DIMDLI
 40
0.4443307087
  9
$DIMRND
 40
0.0
  9
$DIMDLE
 40
0.0
  9
$DIMEXE
 40
0.125
  9
$DIMTP
 40
0.01
  9
$DIMTM
 40
0.01
  9
$DIMTXT
 40
1.0
  9
$DIMCEN
 40
0.1052362205
  9
$DIMTSZ
 40
0.0
  9
$DIMTOL
 70
     1
  9
$DIMLIM
 70
     0
  9
$DIMTIH
 70
     1
  9
$DIMTOH
 70
     1
  9
$DIMSE1
 70
     0
  9
$DIMSE2
 70
     0
  9
$DIMTAD
 70
     0
  9
$DIMZIN
 70
     0
  9
$DIMBLK
  1

  9
$DIMASO
 70
     1
  9
$DIMSHO
 70
     1
  9
$DIMPOST
  1
\X
  9
$DIMAPOST
  1

  9
$DIMALT
 70
     1
  9
$DIMALTD
 70
     2
  9
$DIMALTF
 40
25.3999999999999986
  9
$DIMLFAC
 40
1.0
  9
$DIMTOFL
 70
     0
  9
$DIMTVP
 40
0.0
  9
$DIMTIX
 70
     0
  9
$DIMSOXD
 70
     0
  9
$DIMSAH
 70
     0
  9
$DIMBLK1
  1

  9
$DIMBLK2
  1

  9
$DIMSTYLE
  2
STANDARD
  9
$DIMCLRD
 70
     0
  9
$DIMCLRE
 70
     0
  9
$DIMCLRT
 70
     0
  9
$DIMTFAC
 40
1.0
  9
$DIMGAP
 40
0.09
  9
$LUNITS
 70
     2
  9
$LUPREC
 70
     4
  9
$SKETCHINC
 40
0.1
  9
$FILLETRAD
 40
0.0
  9
$AUNITS
 70
     0
  9
$AUPREC
 70
     0
  9
$MENU
  1
.
  9
$ELEVATION
 40
0.0
  9
$PELEVATION
 40
0.0
  9
$THICKNESS
 40
0.0
  9
$LIMCHECK
 70
     0
  9
$BLIPMODE
 70
     0
  9
$CHAMFERA
 40
0.0
  9
$CHAMFERB
 40
0.0
  9
$SKPOLY
 70
     0
  9
$TDCREATE
 40
2458172.4620254631154239
  9
$TDUPDATE
 40
2459402.9609143519774079
  9
$TDINDWG
 40
0.2121702894
  9
$TDUSRTIMER
 40
0.2121702894
  9
$USRTIMER
 70
     1
  9
$ANGBASE
 50
0.0
  9
$ANGDIR
 70
     0
  9
$PDMODE
 70
     0
  9
$PDSIZE
 40
0.3125
  9
$PLINEWID
 40
0.0
  9
$COORDS
 70
     1
  9
$SPLFRAME
 70
     0
  9
$SPLINETYPE
 70
     6
  9
$SPLINESEGS
 70
     8
  9
$ATTDIA
 70
     1
  9
$ATTREQ
 70
     1
  9
$HANDLING
 70
     1
  9
$HANDSEED
  5
544B
  9
$SURFTAB1
 70
     6
  9
$SURFTAB2
 70
     6
  9
$SURFTYPE
 70
     6
  9
$SURFU
 70
     6
  9
$SURFV
 70
     6
  9
$UCSNAME
  2

  9
$UCSORG
 10
0.0
 20
0.0
 30
0.0
  9
$UCSXDIR
 10
1.0
 20
0.0
 30
0.0
  9
$UCSYDIR
 10
0.0
 20
1.0
 30
0.0
  9
$PUCSNAME
  2

  9
$PUCSORG
 10
0.0
 20
0.0
 30
0.0
  9
$PUCSXDIR
 10
1.0
 20
0.0
 30
0.0
  9
$PUCSYDIR
 10
0.0
 20
1.0
 30
0.0
  9
$USERI1
 70
     0
  9
$USERI2
 70
     0
  9
$USERI3
 70
     0
  9
$USERI4
 70
     0
  9
$USERI5
 70
     0
  9
$USERR1
 40
0.0
  9
$USERR2
 40
0.0
  9
$USERR3
 40
0.0
  9
$USERR4
 40
0.0
  9
$USERR5
 40
0.0
  9
$WORLDVIEW
 70
     1
  9
$SHADEDGE
 70
     3
  9
$SHADEDIF
 70
    70
  9
$TILEMODE
 70
     1
  9
$MAXACTVP
 70
    64
  9
$PLIMCHECK
 70
     0
  9
$PEXTMIN
 10
1.0000000000000000E+20
 20
1.0000000000000000E+20
 30
1.0000000000000000E+20
  9
$PEXTMAX
 10
-1.0000000000000000E+20
 20
-1.0000000000000000E+20
 30
-1.0000000000000000E+20
  9
$PLIMMIN
 10
0.0
 20
0.0
  9
$PLIMMAX
 10
12.0
 20
9.0
  9
$UNITMODE
 70
     0
  9
$VISRETAIN
 70
     1
  9
$PLINEGEN
 70
     0
  9
$PSLTSCALE
 70
     1
  0
ENDSEC
  0
SECTION
  2
TABLES
  0
TABLE
  2
VPORT
 70
     1
  0
VPORT
  2
*ACTIVE
 70
     0
 10
0.0
 20
0.0
 11
1.0
 21
1.0
 12
24.7388997705350313
 22
-3.4888335949977529
 13
0.0
 23
0.0
 14
1.0
 24
1.0
 15
0.0
 25
0.0
 16
0.0
 26
0.0
 36
38.9373887990827967
 17
141.3042984008789063
 27
-16.066303253173821
 37
0.0
 40
38.233662136980648
 41
2.0416666666666661
 42
50.0
 43
0.0
 44
0.0
 50
0.0
 51
0.0
 71
     0
 72
   100
 73
     1
 74
     1
 75
     0
 76
     0
 77
     0
 78
     0
  0
ENDTAB
  0
TABLE
  2
LTYPE
 70
     2
  0
LTYPE
  2
CONTINUOUS
 70
     0
  3
Solid line
 72
    65
 73
     0
 40
0.0
  0
LTYPE
  2
PHANTOM2
 70
     0
  3
___ _ _ ___ _ _ ___ _ _ ___ _ _
 72
    65
 73
     6
 40
1.25
 49
0.625
 49
-0.125
 49
0.125
 49
-0.125
 49
0.125
 49
-0.125
  0
ENDTAB
  0
TABLE
  2
LAYER
 70
     2
  0
LAYER
  2
0
 70
     0
 62
   255
  6
CONTINUOUS
  0
LAYER
  2
DEFPOINTS
 70
     0
 62
     7
  6
CONTINUOUS
  0
ENDTAB
  0
TABLE
  2
STYLE
 70
     1
  0
STYLE
  2
STANDARD
 70
     0
 40
0.0
 41
0.8
 50
0.0
 71
     0
 42
0.2
  3
txt
  4

  0
ENDTAB
  0
TABLE
  2
VIEW
 70
     0
  0
ENDTAB
  0
TABLE
  2
UCS
 70
     0
  0
ENDTAB
  0
TABLE
  2
APPID
 70
     9
  0
APPID
  2
ACAD
 70
     0
  0
APPID
  2
ACAD_MLEADERVER
 70
     0
  0
APPID
  2
ACAD_EXEMPT_FROM_CAD_STANDARDS
 70
     0
  0
APPID
  2
ACAD_DSTYLE_DIMJAG
 70
     0
  0
APPID
  2
ACAD_DSTYLE_DIMTALN
 70
     0
  0
APPID
  2
ACAD_NAV_VCDISPLAY
 70
     0
  0
APPID
  2
ACAECLAYERSTANDARD
 70
     0
  0
APPID
  2
ACCMTRANSPARENCY
 70
     0
  0
APPID
  2
ACDBATTR
 70
     0
  0
ENDTAB
  0
TABLE
  2
DIMSTYLE
 70
     1
  0
DIMSTYLE
  2
STANDARD
 70
     0
  3

  4

  5

  6

  7

 40
1.0
 41
0.1875
 42
0.0625
 43
0.38
 44
0.125
 45
0.0
 46
0.0
 47
0.01
 48
0.01
140
0.15625
141
0.09
142
0.0
143
25.3999999999999986
144
1.0
145
0.0
146
1.0
147
0.09
 71
     1
 72
     0
 73
     1
 74
     1
 75
     0
 76
     0
 77
     0
 78
     4
170
     0
171
     2
172
     0
173
     0
174
     0
175
     0
176
     0
177
     0
178
     0
  0
ENDTAB
  0
ENDSEC
  0
SECTION
  2
BLOCKS
  0
BLOCK
  8
0
  2
$MODEL_SPACE
 70
     0
 10
0.0
 20
0.0
 30
0.0
  3
$MODEL_SPACE
  1

  0
ENDBLK
  5
21
  8
0
  0
BLOCK
 67
     1
  8
0
  2
$PAPER_SPACE
 70
     0
 10
0.0
 20
0.0
 30
0.0
  3
$PAPER_SPACE
  1

  0
ENDBLK
  5
1D
 67
     1
  8
0
  0
BLOCK
  8
0
  2
_FILLED
 70
     0
 10
0.0
 20
0.0
 30
0.0
  3
_FILLED
  1

  0
SOLID
  5
51B1
  8
0
  6
BYBLOCK
 62
     0
 10
0.0
 20
0.0
 30
0.0
 11
-1.0
 21
0.1666666667
 31
0.0
 12
-1.0
 22
-0.1666666667
 32
0.0
 13
-1.0
 23
-0.1666666667
 33
0.0
  0
ENDBLK
  5
51B2
  8
0
  6
BYBLOCK
 62
     0
  0
ENDSEC
  0
SECTION
  2
ENTITIES
  0
ATTDEF
  5
4C62
  8
DEFPOINTS
 10
152.1205561542799103
 20
-21.4993524522376696
 30
0.0
 40
0.001
  1
K-14408BR-3
  3

  2
MODELNUMBER
 70
     0
1001
ACDBATTR
1070
     0
1070
     1
  0
ATTDEF
  5
4C63
  8
DEFPOINTS
 10
152.1205561542799103
 20
-21.5010191189043383
 30
0.0
 40
0.001
  1
PURIST
  3

  2
TRADENAME
 70
     0
1001
ACDBATTR
1070
     0
1070
     1
  0
ATTDEF
  5
4C64
  8
DEFPOINTS
 10
152.1205561542799103
 20
-21.5026857855709999
 30
0.0
 40
0.001
  1
BATHROOM SINK FAUCET
  3

  2
PRODUCT
 70
     0
1001
ACDBATTR
1070
     0
1070
     1
  0
LINE
  5
52E3
  8
0
 10
146.286852862204114
 20
-12.75812766987233
 30
0.0
 11
146.9523528622040089
 21
-12.75812766987233
 31
0.0
  0
ARC
  5
52E4
  8
0
 10
146.9523528622040089
 20
-12.7481276698723303
 30
0.0
 40
0.0100000000000007
 50
270.0000000000048885
 51
0.0
  0
LINE
  5
52E5
  8
0
 10
146.9623528622041135
 20
-12.7481276698723303
 30
0.0
 11
146.9623528622039998
 21
-12.0631276698723298
 31
0.0
  0
ARC
  5
52E6
  8
0
 10
146.9573528622040044
 20
-12.0631276698723298
 30
0.0
 40
0.0050000000000061
 50
0.0000000000305333
 51
89.9999999997557296
  0
ARC
  5
52E7
  8
0
 10
146.2818528622040049
 20
-12.0631276698722907
 30
0.0
 40
0.0049999999999546
 50
89.9999999997752695
 51
180.0000000005088907
  0
LINE
  5
52E8
  8
0
 10
146.2768528622040094
 20
-12.0631276698723298
 30
0.0
 11
146.2768528622040094
 21
-12.7481276698723303
 31
0.0
  0
ARC
  5
52E9
  8
0
 10
146.2868528621368966
 20
-12.7481276698733001
 30
0.0
 40
0.0099999999990352
 50
179.9999999944533045
 51
270.000000384780094
  0
LINE
  5
52EA
  8
0
 10
146.2761028622041124
 20
-12.0581276698723201
 30
0.0
 11
146.9631028622040105
 21
-12.0581276698723201
 31
0.0
  0
LINE
  5
52EB
  8
0
 10
146.9631028622040105
 20
-12.0581276698723201
 30
0.0
 11
146.9631028622040105
 21
-11.8781276698723204
 31
0.0
  0
LINE
  5
52EC
  8
0
 10
146.2761028622041124
 20
-11.8781276698723204
 30
0.0
 11
146.2761028622041124
 21
-12.0581276698723201
 31
0.0
  0
ARC
  5
52ED
  8
0
 10
148.0886028643955967
 20
-11.8781276707800991
 30
0.0
 40
1.812500002191556
 50
90.0000000692789115
 51
179.9999999713039074
  0
LINE
  5
52EE
  8
0
 10
148.0886028622041124
 20
-10.0656276685885402
 30
0.0
 11
150.6496028622040058
 21
-10.0656276685885402
 31
0.0
  0
ARC
  5
52EF
  8
0
 10
150.649602860012493
 20
-11.8781276707801098
 30
0.0
 40
1.8125000021915689
 50
0.0000000286966437
 51
89.9999999307211027
  0
LINE
  5
52F0
  8
0
 10
152.4621028622040058
 20
-11.8781276698723204
 30
0.0
 11
152.462102862204091
 21
-16.5420725517723284
 31
0.0
  0
ARC
  5
52F1
  8
0
 10
148.0886028622041124
 20
-11.8781276698723204
 30
0.0
 40
1.1255000000000019
 50
90.0
 51
180.0
  0
LINE
  5
52F2
  8
0
 10
148.0886028622041124
 20
-10.7526276698723198
 30
0.0
 11
150.6496028622040058
 21
-10.7526276698723198
 31
0.0
  0
ARC
  5
52F3
  8
0
 10
150.649602862204091
 20
-11.8781276698723097
 30
0.0
 40
1.1254999999999931
 50
359.9999999999992042
 51
90.0
  0
LINE
  5
52F4
  8
0
 10
151.7751028622041076
 20
-11.8781276698723204
 30
0.0
 11
151.7751028622039939
 21
-16.5420725649651104
 31
0.0
  0
LINE
  5
52F5
  8
0
 10
153.0934511697043092
 20
-21.5031276696603797
 30
0.0
 11
151.1434678271043026
 21
-21.5031276696603797
 31
0.0
  0
ARC
  5
52F6
  8
0
 10
151.1436012167042975
 20
-21.4881193373643491
 30
0.0
 40
0.0150083310122402
 50
180.0318044601062866
 51
270.0
  0
LINE
  5
52F7
  8
0
 10
151.1285928880043059
 20
-21.4881276683765883
 30
0.0
 11
151.128509624126707
 21
-21.3381276914861715
 31
0.0
  0
ARC
  5
52F8
  8
0
 10
151.143501600918313
 20
-21.3381193695507605
 30
0.0
 40
0.0149919791012536
 50
89.6511214594130337
 51
180.0318044601096972
  0
LINE
  5
52F9
  8
0
 10
151.1435928877025958
 20
-21.3231276698723313
 30
0.0
 11
153.0935928883054942
 21
-21.3231276698723313
 31
0.0
  0
ARC
  5
52FA
  8
0
 10
151.2940359982893028
 20
-21.04359876413465
 30
0.0
 40
0.2795675916111677
 50
270.9531811153929084
 51
358.5099202238038743
  0
LINE
  5
52FB
  8
0
 10
151.5835056956040034
 20
-21.0411276698723313
 30
0.0
 11
152.6537000288041099
 21
-21.0411276698723313
 31
0.0
  0
ARC
  5
52FC
  8
0
 10
151.5842153128517111
 20
-17.8911276526578611
 30
0.0
 40
0.0100000000982492
 50
89.9978121469769121
 51
178.9999992844319081
  0
LINE
  5
52FD
  8
0
 10
151.5736028622040124
 20
-21.0431276698723302
 30
0.0
 11
151.5736028622040124
 21
-17.8981276698723306
 31
0.0
  0
LINE
  5
52FE
  8
0
 10
151.5736028622040124
 20
-17.9261276525669011
 30
0.0
 11
151.5742168358019057
 21
-17.8909531285923293
 31
0.0
  0
LINE
  5
52FF
  8
0
 10
151.5842156947041133
 20
-17.8811276525668887
 30
0.0
 11
152.6529904115564023
 21
-17.8811276525668887
 31
0.0
  0
LINE
  5
5300
  8
0
 10
151.7751028622041076
 20
-16.9911276525668917
 30
0.0
 11
151.7751028622041076
 21
-17.7231276698723299
 31
0.0
  0
ARC
  5
5301
  8
0
 10
151.6151028622039973
 20
-17.7231276698723192
 30
0.0
 40
0.1600000000000156
 50
279.0687608626142264
 51
359.9999999999948841
  0
ARC
  5
5302
  8
0
 10
151.645153437994793
 20
-17.6311276688272685
 30
0.0
 40
0.2500000010440178
 50
270.0213179718489869
 51
359.7600036897135851
  0
LINE
  5
5303
  8
0
 10
152.6529904091767946
 20
-17.9711276538544311
 30
0.0
 11
151.5842153128041048
 21
-17.9711276538544418
 31
0.0
  0
ARC
  5
5304
  8
0
 10
151.5842006265826001
 20
-17.9611425985186308
 30
0.0
 40
0.0099850662509224
 50
180.9158217695701012
 51
270.0842717305272913
  0
ARC
  5
5305
  8
0
 10
153.0935845593043041
 20
-21.4881193373643491
 30
0.0
 40
0.0150083310122402
 50
270.0
 51
359.9681955398937134
  0
LINE
  5
5306
  8
0
 10
153.1085928880042957
 20
-21.4881276683765883
 30
0.0
 11
153.1086761518818946
 21
-21.3381276914861715
 31
0.0
  0
ARC
  5
5307
  8
0
 10
153.0936841750902886
 20
-21.3381193695507605
 30
0.0
 40
0.0149919791012536
 50
359.9681955398901891
 51
90.3488785405886006
  0
ARC
  5
5308
  8
0
 10
152.9431028621519886
 20
-21.0436276699959883
 30
0.0
 40
0.279499999875537
 50
181.4845126837558098
 51
269.0899029567473804
  0
ARC
  5
5309
  8
0
 10
152.6536987033574064
 20
-21.0511282542343707
 30
0.0
 40
0.0100013401558298
 50
1.487662568353701
 51
90.704389585279074
  0
ARC
  5
530A
  8
0
 10
152.6529904115564023
 20
-17.8911276526578611
 30
0.0
 40
0.0100000000982492
 50
1.0000007155680259
 51
90.0021878530214536
  0
LINE
  5
530B
  8
0
 10
152.663602862204101
 20
-21.0431276698723302
 30
0.0
 11
152.663602862204101
 21
-17.8981276698723306
 31
0.0
  0
LINE
  5
530C
  8
0
 10
152.663602862204101
 20
-17.9261276525669011
 30
0.0
 11
152.6629888886062929
 21
-17.8909531285923293
 31
0.0
  0
LINE
  5
530D
  8
0
 10
152.462102862204091
 20
-16.9911276525668917
 30
0.0
 11
152.462102862204091
 21
-17.7321827706668884
 31
0.0
  0
ARC
  5
530E
  8
0
 10
152.6223966321693979
 20
-17.7225865838668817
 30
0.0
 40
0.1605807569132149
 50
183.4259944420670081
 51
260.8581614726783187
  0
ARC
  5
530F
  8
0
 10
152.5920522864132067
 20
-17.6311276688272685
 30
0.0
 40
0.2500000010440191
 50
180.2399963100480136
 51
269.9786820281493078
  0
ARC
  5
5310
  8
0
 10
152.6530050820005044
 20
-17.9611425605183683
 30
0.0
 40
0.0099851042278719
 50
269.9158193962355199
 51
359.1455467254215819
  0
LINE
  5
5311
  8
0
 10
153.0536027399539876
 20
-21.0731277300543489
 30
0.0
 11
153.0536028621540936
 21
-20.6531276213234882
 31
0.0
  0
ARC
  5
5312
  8
0
 10
153.0336028679730873
 20
-20.6531276155044416
 30
0.0
 40
0.0199999941809574
 50
359.9999833296487282
 51
90.0000166703355831
  0
LINE
  5
5313
  8
0
 10
153.0336028621541118
 20
-20.6331276213234887
 30
0.0
 11
152.6998790859539952
 21
-20.6331277184211714
 31
0.0
  0
ARC
  5
5314
  8
0
 10
152.6998790917731128
 20
-20.6531277242404201
 30
0.0
 40
0.020000005819254
 50
90.0000166703355831
 51
179.9997051647939088
  0
LINE
  5
5315
  8
0
 10
152.6798790859540986
 20
-20.6531276213234882
 30
0.0
 11
152.6798769246991014
 21
-21.0731276213179299
 31
0.0
  0
LINE
  5
5316
  8
0
 10
152.6798769246991014
 20
-21.0731276213179299
 30
0.0
 11
153.0536027399539876
 21
-21.0731277300543489
 31
0.0
  0
LINE
  5
5317
  8
0
 10
153.6084694731285083
 20
-16.5511276698723293
 30
0.0
 11
150.6284694719176116
 21
-16.5511276631875184
 31
0.0
  0
ARC
  5
5318
  8
0
 10
153.6084694731046909
 20
-16.5611276701960115
 30
0.0
 40
0.0100000000000002
 50
359.9999998634233975
 51
89.9999998634419427
  0
LINE
  5
5319
  8
0
 10
153.6184694731047102
 20
-16.5611276702198502
 30
0.0
 11
153.6184694721034987
 21
-16.9811276702198484
 31
0.0
  0
ARC
  5
531A
  8
0
 10
153.6084694721035078
 20
-16.9811276701960097
 30
0.0
 40
0.009999999999998
 50
269.9999998633002747
 51
359.9999998634154963
  0
LINE
  5
531B
  8
0
 10
153.6084694720796051
 20
-16.9911276701960112
 30
0.0
 11
152.360973455079602
 21
-16.9911276672196188
 31
0.0
  0
ARC
  5
531C
  8
0
 10
152.3609734551154986
 20
-16.9761174118412406
 30
0.0
 40
0.0150102553783782
 50
227.818393129279599
 51
269.9999998633002747
  0
ARC
  5
531D
  8
0
 10
153.2612421205870135
 20
-16.2031732961708492
 30
0.0
 40
1.2014550315317221
 50
217.1979284579016962
 51
220.7377591947914084
  0
ARC
  5
531E
  8
0
 10
152.2523887968984866
 20
-16.9688771588850607
 30
0.0
 40
0.0650707021558037
 50
37.1979284579012628
 51
43.7219809772111603
  0
ARC
  5
531F
  8
0
 10
152.2896750193054913
 20
-16.9325590529664289
 30
0.0
 40
0.0130309736997999
 50
41.6266840123769413
 51
114.6499017278231065
  0
ARC
  5
5320
  8
0
 10
152.2999253452746871
 20
-16.9581815419214088
 30
0.0
 40
0.0406168147076519
 50
112.7166878947663946
 51
132.9039843705020019
  0
ARC
  5
5321
  8
0
 10
152.1184694726040902
 20
-16.7711276666442117
 30
0.0
 40
0.2200000003239069
 50
269.9999996074064939
 51
90.0000001443452788
  0
ARC
  5
5322
  8
0
 10
152.1184694726040902
 20
-16.7711276666442117
 30
0.0
 40
0.1900000000000048
 50
269.9999995650164806
 51
90.0000001867353063
  0
ARC
  5
5323
  8
0
 10
150.6284694718951869
 20
-16.561127664131039
 30
0.0
 40
0.0100000009435224
 50
90.0000052942994131
 51
179.9999976490985887
  0
LINE
  5
5324
  8
0
 10
150.6184694709515952
 20
-16.561127663720729
 30
0.0
 11
150.6184694701331068
 21
-16.9811276637207307
 31
0.0
  0
ARC
  5
5325
  8
0
 10
150.6284694701330977
 20
-16.9811276637402209
 30
0.0
 40
0.009999999999998
 50
179.999999888336788
 51
269.9999998884532033
  0
LINE
  5
5326
  8
0
 10
150.6284694701136004
 20
-16.9911276637402189
 30
0.0
 11
151.8759654871136036
 21
-16.9911276661689108
 31
0.0
  0
ARC
  5
5327
  8
0
 10
151.8759654871427927
 20
-16.976117410790529
 30
0.0
 40
0.0150102553783782
 50
269.9999998884532033
 51
312.1816066224718043
  0
ARC
  5
5328
  8
0
 10
150.9756968250202078
 20
-16.2031732912195103
 30
0.0
 40
1.2014550315317221
 50
319.2622405569608759
 51
322.8020712938496217
  0
ARC
  5
5329
  8
0
 10
151.984550145391097
 20
-16.9688771583048208
 30
0.0
 40
0.0650707021558037
 50
136.2780187745402998
 51
142.8020712938518955
  0
ARC
  5
532A
  8
0
 10
151.9472639231414917
 20
-16.9325590522246401
 30
0.0
 40
0.0130309736997999
 50
65.3500980239291351
 51
138.3733157393754993
  0
ARC
  5
532B
  8
0
 10
151.9370135970613092
 20
-16.958181541135211
 30
0.0
 40
0.0406168147076519
 50
47.0960153812506235
 51
67.2833118569857618
  0
ARC
  5
532C
  8
0
 10
152.1184694705422942
 20
-16.7711276666442117
 30
0.0
 40
0.2200000003239069
 50
89.9999996074065649
 51
270.0000001443452788
  0
ARC
  5
532D
  8
0
 10
152.1184694705422942
 20
-16.7711276666442117
 30
0.0
 40
0.1900000000000048
 50
89.9999995650165516
 51
270.0000001867352921
  0
LINE
  5
532E
  8
0
 10
151.8951512458640991
 20
-17.6321748472212292
 30
0.0
 11
151.8980280824964098
 21
-16.9731078626443903
 31
0.0
  0
LINE
  5
532F
  8
0
 10
152.3420544785439859
 20
-17.6321748472201882
 30
0.0
 11
152.3391801451030005
 21
-16.9734303351904785
 31
0.0
  0
LINE
  5
5330
  8
0
 10
152.6629890759141119
 20
-17.9612914630874094
 30
0.0
 11
152.6636028625061101
 21
-17.9261276698723293
 31
0.0
  0
ARC
  5
5331
  8
0
 10
152.6486028622040863
 20
-17.8981276698723413
 30
0.0
 40
0.0150000000000006
 50
0.0000000000262587
 51
15.6995219149715695
  0
ARC
  5
5332
  8
0
 10
151.5886028622039987
 20
-17.8981276698723413
 30
0.0
 40
0.0150000000000077
 50
164.3004780851231885
 51
179.999999999971493
  0
LINE
  5
5333
  8
0
 10
151.574216835804009
 20
-17.9613021940723314
 30
0.0
 11
151.5736028619020033
 21
-17.9261276698723293
 31
0.0
  0
ARC
  5
5334
  8
0
 10
151.5836036816662897
 20
-21.0311273304399009
 30
0.0
 40
0.0100008194680341
 50
180.0019446452182876
 51
269.4386182387075905
  0
ARC
  5
5335
  8
0
 10
151.5835056955777134
 20
-21.051127669801641
 30
0.0
 40
0.0099999999309683
 50
90.000000821509289
 51
178.5154874429915139
  0
ARC
  5
5336
  8
0
 10
151.2018288605663088
 20
-21.0424933343392695
 30
0.0
 40
0.3717745428015775
 50
358.7091940416182183
 51
359.9022397655302257
  0
ARC
  5
5337
  8
0
 10
153.0353655429865967
 20
-21.0424934165136683
 30
0.0
 40
0.3717632218226483
 50
180.0977505468252104
 51
181.290884572326604
  0
ARC
  5
5338
  8
0
 10
152.6536027997545091
 20
-21.0311276440048793
 30
0.0
 40
0.0100000624495805
 50
269.8450217087267902
 51
359.9998517913317073
  0
LINE
  5
5339
  8
0
 10
152.663602862204101
 20
-21.0431276698723302
 30
0.0
 11
152.6597001577459878
 21
-21.0431276698723302
 31
0.0
  0
LINE
  5
533A
  8
0
 10
151.5736028622040124
 20
-21.0431276698723302
 30
0.0
 11
151.5775059296040013
 21
-21.0431276698723302
 31
0.0
  0
LINE
  5
533B
  8
0
 10
151.5736028622040124
 20
-17.9791276698723301
 30
0.0
 11
152.663602862204101
 21
-17.9791276698723301
 31
0.0
  0
ARC
  5
533C
  8
0
 10
151.8300238123597126
 20
-17.97612766973619
 30
0.0
 40
0.004999999863862
 50
0.9999992507800207
 51
89.9999369780350662
  0
ARC
  5
533D
  8
0
 10
152.4071819122196985
 20
-17.9761276699105288
 30
0.0
 40
0.0050000000382019
 50
90.0000638392793491
 51
179.000001084760811
  0
LINE
  5
533E
  8
0
 10
152.4021826737040044
 20
-17.9760404079723308
 30
0.0
 11
152.4021287853040008
 21
-17.9791276698723301
 31
0.0
  0
LINE
  5
533F
  8
0
 10
151.835023050704109
 20
-17.9760404079723308
 30
0.0
 11
151.8350769391041126
 21
-17.9791276698723301
 31
0.0
  0
LINE
  5
5340
  8
0
 10
151.7751028622041076
 20
-17.6931276698723288
 30
0.0
 11
151.8873434432555882
 21
-17.6931276698723288
 31
0.0
  0
LINE
  5
5341
  8
0
 10
152.3498622811524967
 20
-17.6931276698723288
 30
0.0
 11
152.4621028622040058
 21
-17.6931276698723288
 31
0.0
  0
LINE
  5
5342
  8
0
 10
152.7556028622040003
 20
-21.0731276698723313
 30
0.0
 11
152.7556028622040003
 21
-21.2509052615217904
 31
0.0
  0
LINE
  5
5343
  8
0
 10
152.9116028622040062
 20
-21.0731276887391488
 30
0.0
 11
152.9116028622040062
 21
-21.3213469526022088
 31
0.0
  0
ENDSEC
  0
EOF
