  0
SECTION
  2
HEADER
  9
$ACADVER
  1
AC1009
  9
$INSBASE
 10
105.9917025404636064
 20
1.2788226723407761
 30
0.0
  9
$EXTMIN
 10
101.4397025396502983
 20
-4.5636772531263432
 30
0.0
  9
$EXTMAX
 10
142.7969339742849968
 20
9.1052437312965342
 30
0.0
  9
$LIMMIN
 10
0.0
 20
0.0
  9
$LIMMAX
 10
11.6929133858000007
 20
8.2677165353999982
  9
$ORTHOMODE
 70
     0
  9
$REGENMODE
 70
     1
  9
$FILLMODE
 70
     1
  9
$QTEXTMODE
 70
     0
  9
$MIRRTEXT
 70
     0
  9
$DRAGMODE
 70
     2
  9
$LTSCALE
 40
0.6431102362
  9
$OSMODE
 70
  4095
  9
$ATTMODE
 70
     1
  9
$TEXTSIZE
 40
0.2
  9
$TRACEWID
 40
0.05
  9
$TEXTSTYLE
  7
STANDARD
  9
$CLAYER
  8
0
  9
$CELTYPE
  6
BYLAYER
  9
$CECOLOR
 62
   256
  9
$DIMSCALE
 40
1.0
  9
$DIMASZ
 40
0.1875
  9
$DIMEXO
 40
0.0625
  9
$DIMDLI
 40
0.4443307087
  9
$DIMRND
 40
0.0
  9
$DIMDLE
 40
0.0
  9
$DIMEXE
 40
0.125
  9
$DIMTP
 40
0.01
  9
$DIMTM
 40
0.01
  9
$DIMTXT
 40
1.0
  9
$DIMCEN
 40
0.1052362205
  9
$DIMTSZ
 40
0.0
  9
$DIMTOL
 70
     1
  9
$DIMLIM
 70
     0
  9
$DIMTIH
 70
     1
  9
$DIMTOH
 70
     1
  9
$DIMSE1
 70
     0
  9
$DIMSE2
 70
     0
  9
$DIMTAD
 70
     0
  9
$DIMZIN
 70
     0
  9
$DIMBLK
  1

  9
$DIMASO
 70
     1
  9
$DIMSHO
 70
     1
  9
$DIMPOST
  1
\X
  9
$DIMAPOST
  1

  9
$DIMALT
 70
     1
  9
$DIMALTD
 70
     2
  9
$DIMALTF
 40
25.3999999999999986
  9
$DIMLFAC
 40
1.0
  9
$DIMTOFL
 70
     0
  9
$DIMTVP
 40
0.0
  9
$DIMTIX
 70
     0
  9
$DIMSOXD
 70
     0
  9
$DIMSAH
 70
     0
  9
$DIMBLK1
  1

  9
$DIMBLK2
  1

  9
$DIMSTYLE
  2
STANDARD
  9
$DIMCLRD
 70
     0
  9
$DIMCLRE
 70
     0
  9
$DIMCLRT
 70
     0
  9
$DIMTFAC
 40
1.0
  9
$DIMGAP
 40
0.09
  9
$LUNITS
 70
     2
  9
$LUPREC
 70
     4
  9
$SKETCHINC
 40
0.1
  9
$FILLETRAD
 40
0.0
  9
$AUNITS
 70
     0
  9
$AUPREC
 70
     0
  9
$MENU
  1
.
  9
$ELEVATION
 40
0.0
  9
$PELEVATION
 40
0.0
  9
$THICKNESS
 40
0.0
  9
$LIMCHECK
 70
     0
  9
$BLIPMODE
 70
     0
  9
$CHAMFERA
 40
0.0
  9
$CHAMFERB
 40
0.0
  9
$SKPOLY
 70
     0
  9
$TDCREATE
 40
2458172.4620254631154239
  9
$TDUPDATE
 40
2459402.9608333338983357
  9
$TDINDWG
 40
0.2139989931
  9
$TDUSRTIMER
 40
0.2139989931
  9
$USRTIMER
 70
     1
  9
$ANGBASE
 50
0.0
  9
$ANGDIR
 70
     0
  9
$PDMODE
 70
     0
  9
$PDSIZE
 40
0.3125
  9
$PLINEWID
 40
0.0
  9
$COORDS
 70
     1
  9
$SPLFRAME
 70
     0
  9
$SPLINETYPE
 70
     6
  9
$SPLINESEGS
 70
     8
  9
$ATTDIA
 70
     1
  9
$ATTREQ
 70
     1
  9
$HANDLING
 70
     1
  9
$HANDSEED
  5
5520
  9
$SURFTAB1
 70
     6
  9
$SURFTAB2
 70
     6
  9
$SURFTYPE
 70
     6
  9
$SURFU
 70
     6
  9
$SURFV
 70
     6
  9
$UCSNAME
  2

  9
$UCSORG
 10
0.0
 20
0.0
 30
0.0
  9
$UCSXDIR
 10
1.0
 20
0.0
 30
0.0
  9
$UCSYDIR
 10
0.0
 20
1.0
 30
0.0
  9
$PUCSNAME
  2

  9
$PUCSORG
 10
0.0
 20
0.0
 30
0.0
  9
$PUCSXDIR
 10
1.0
 20
0.0
 30
0.0
  9
$PUCSYDIR
 10
0.0
 20
1.0
 30
0.0
  9
$USERI1
 70
     0
  9
$USERI2
 70
     0
  9
$USERI3
 70
     0
  9
$USERI4
 70
     0
  9
$USERI5
 70
     0
  9
$USERR1
 40
0.0
  9
$USERR2
 40
0.0
  9
$USERR3
 40
0.0
  9
$USERR4
 40
0.0
  9
$USERR5
 40
0.0
  9
$WORLDVIEW
 70
     1
  9
$SHADEDGE
 70
     3
  9
$SHADEDIF
 70
    70
  9
$TILEMODE
 70
     1
  9
$MAXACTVP
 70
    64
  9
$PLIMCHECK
 70
     0
  9
$PEXTMIN
 10
1.0000000000000000E+20
 20
1.0000000000000000E+20
 30
1.0000000000000000E+20
  9
$PEXTMAX
 10
-1.0000000000000000E+20
 20
-1.0000000000000000E+20
 30
-1.0000000000000000E+20
  9
$PLIMMIN
 10
0.0
 20
0.0
  9
$PLIMMAX
 10
12.0
 20
9.0
  9
$UNITMODE
 70
     0
  9
$VISRETAIN
 70
     1
  9
$PLINEGEN
 70
     0
  9
$PSLTSCALE
 70
     1
  0
ENDSEC
  0
SECTION
  2
TABLES
  0
TABLE
  2
VPORT
 70
     1
  0
VPORT
  2
*ACTIVE
 70
     0
 10
0.0
 20
0.0
 11
1.0
 21
1.0
 12
-9.737361403594555
 22
3.681424829782217
 13
0.0
 23
0.0
 14
1.0
 24
1.0
 15
0.0
 25
0.0
 16
-0.0000000000000142
 26
0.0
 36
47.3583404065521805
 17
124.5992927551268963
 27
-0.4457938671112061
 37
0.0
 40
28.9252749598007988
 41
2.0416666666666661
 42
50.0
 43
0.0
 44
0.0
 50
0.0
 51
0.0
 71
     0
 72
   100
 73
     1
 74
     1
 75
     0
 76
     0
 77
     0
 78
     0
  0
ENDTAB
  0
TABLE
  2
LTYPE
 70
     2
  0
LTYPE
  2
CONTINUOUS
 70
     0
  3
Solid line
 72
    65
 73
     0
 40
0.0
  0
LTYPE
  2
PHANTOM2
 70
     0
  3
___ _ _ ___ _ _ ___ _ _ ___ _ _
 72
    65
 73
     6
 40
1.25
 49
0.625
 49
-0.125
 49
0.125
 49
-0.125
 49
0.125
 49
-0.125
  0
ENDTAB
  0
TABLE
  2
LAYER
 70
     2
  0
LAYER
  2
0
 70
     0
 62
   255
  6
CONTINUOUS
  0
LAYER
  2
DEFPOINTS
 70
     0
 62
     7
  6
CONTINUOUS
  0
ENDTAB
  0
TABLE
  2
STYLE
 70
     1
  0
STYLE
  2
STANDARD
 70
     0
 40
0.0
 41
0.8
 50
0.0
 71
     0
 42
0.2
  3
txt
  4

  0
ENDTAB
  0
TABLE
  2
VIEW
 70
     0
  0
ENDTAB
  0
TABLE
  2
UCS
 70
     0
  0
ENDTAB
  0
TABLE
  2
APPID
 70
     9
  0
APPID
  2
ACAD
 70
     0
  0
APPID
  2
ACAD_MLEADERVER
 70
     0
  0
APPID
  2
ACAD_EXEMPT_FROM_CAD_STANDARDS
 70
     0
  0
APPID
  2
ACAD_DSTYLE_DIMJAG
 70
     0
  0
APPID
  2
ACAD_DSTYLE_DIMTALN
 70
     0
  0
APPID
  2
ACAD_NAV_VCDISPLAY
 70
     0
  0
APPID
  2
ACAECLAYERSTANDARD
 70
     0
  0
APPID
  2
ACCMTRANSPARENCY
 70
     0
  0
APPID
  2
ACDBATTR
 70
     0
  0
ENDTAB
  0
TABLE
  2
DIMSTYLE
 70
     1
  0
DIMSTYLE
  2
STANDARD
 70
     0
  3

  4

  5

  6

  7

 40
1.0
 41
0.1875
 42
0.0625
 43
0.38
 44
0.125
 45
0.0
 46
0.0
 47
0.01
 48
0.01
140
0.15625
141
0.09
142
0.0
143
25.3999999999999986
144
1.0
145
0.0
146
1.0
147
0.09
 71
     1
 72
     0
 73
     1
 74
     1
 75
     0
 76
     0
 77
     0
 78
     4
170
     0
171
     2
172
     0
173
     0
174
     0
175
     0
176
     0
177
     0
178
     0
  0
ENDTAB
  0
ENDSEC
  0
SECTION
  2
BLOCKS
  0
BLOCK
  8
0
  2
$MODEL_SPACE
 70
     0
 10
0.0
 20
0.0
 30
0.0
  3
$MODEL_SPACE
  1

  0
ENDBLK
  5
21
  8
0
  0
BLOCK
 67
     1
  8
0
  2
$PAPER_SPACE
 70
     0
 10
0.0
 20
0.0
 30
0.0
  3
$PAPER_SPACE
  1

  0
ENDBLK
  5
1D
 67
     1
  8
0
  0
BLOCK
  8
0
  2
_FILLED
 70
     0
 10
0.0
 20
0.0
 30
0.0
  3
_FILLED
  1

  0
SOLID
  5
52F8
  8
0
  6
BYBLOCK
 62
     0
 10
0.0
 20
0.0
 30
0.0
 11
-1.0
 21
0.1666666667
 31
0.0
 12
-1.0
 22
-0.1666666667
 32
0.0
 13
-1.0
 23
-0.1666666667
 33
0.0
  0
ENDBLK
  5
52F9
  8
0
  6
BYBLOCK
 62
     0
  0
ENDSEC
  0
SECTION
  2
ENTITIES
  0
ATTDEF
  5
4C62
  8
DEFPOINTS
 10
105.9930834908912942
 20
1.282643273425127
 30
0.0
 40
0.001
  1
K-14408BR-3
  3

  2
MODELNUMBER
 70
     0
1001
ACDBATTR
1070
     0
1070
     1
  0
ATTDEF
  5
4C63
  8
DEFPOINTS
 10
105.9930834908912942
 20
1.280976606758462
 30
0.0
 40
0.001
  1
PURIST
  3

  2
TRADENAME
 70
     0
1001
ACDBATTR
1070
     0
1070
     1
  0
ATTDEF
  5
4C64
  8
DEFPOINTS
 10
105.9930834908912942
 20
1.2793099400917971
 30
0.0
 40
0.001
  1
BATHROOM SINK FAUCET
  3

  2
PRODUCT
 70
     0
1001
ACDBATTR
1070
     0
1070
     1
  0
LINE
  5
5436
  8
0
 10
102.7297025404135979
 20
2.778822746874261
 30
0.0
 11
103.1497025406136032
 21
2.7788227468739768
 31
0.0
  0
ARC
  5
5437
  8
0
 10
102.7297025404135979
 20
2.768822746874263
 30
0.0
 40
0.0100000000000016
 50
89.999999999992653
 51
180.0
  0
LINE
  5
5438
  8
0
 10
102.719702540413607
 20
2.768822746874263
 30
0.0
 11
102.7197025404140049
 21
1.578822713974261
 31
0.0
  0
LINE
  5
5439
  8
0
 10
102.7297025404135979
 20
-0.2211772531257381
 30
0.0
 11
103.1497025397263059
 21
-0.2211772531254539
 31
0.0
  0
ARC
  5
543A
  8
0
 10
102.7297025413007958
 20
-0.2111772509837237
 30
0.0
 40
0.0100000021420088
 50
180.0000122728062024
 51
269.9999949163985207
  0
LINE
  5
543B
  8
0
 10
102.7197025391588028
 20
-0.211177253125733
 30
0.0
 11
102.7197025391588028
 21
0.9788227797742621
 31
0.0
  0
LINE
  5
543C
  8
0
 10
101.4397025396502983
 20
1.4888331114840689
 30
0.0
 11
101.4397025396502983
 21
1.068833186713064
 31
0.0
  0
ARC
  5
543D
  8
0
 10
101.4501193351626966
 20
1.0692492401843161
 30
0.0
 40
0.0104251009221586
 50
182.2872143447675057
 51
267.6227292231956767
  0
LINE
  5
543E
  8
0
 10
101.4496869092882037
 20
1.058833111484069
 30
0.0
 11
102.6396869600561956
 21
1.058824159231974
 31
0.0
  0
ARC
  5
543F
  8
0
 10
101.4503068281830025
 20
1.488229779691671
 30
0.0
 40
0.0106214379693048
 50
93.3459624680637461
 51
176.7436629355499917
  0
LINE
  5
5440
  8
0
 10
101.4496869092882037
 20
1.4988331114840669
 30
0.0
 11
102.6396869421882059
 21
1.498833111483648
 31
0.0
  0
ARC
  5
5441
  8
0
 10
102.6397202744328041
 20
1.5788153708563959
 30
0.0
 40
0.0799822663182827
 50
269.9761222446126112
 51
0.0052602868371743
  0
ARC
  5
5442
  8
0
 10
102.639700175350896
 20
0.978821796509564
 30
0.0
 40
0.0800023638139097
 50
0.0007041906622458
 51
90.009464478019197
  0
ARC
  5
5443
  8
0
 10
102.9397025404136059
 20
1.278822746874261
 30
0.0
 40
0.9900000000000012
 50
102.8395884068928012
 51
167.1597963623015062
  0
ARC
  5
5444
  8
0
 10
102.9397025404136059
 20
1.278822746874261
 30
0.0
 40
0.9900000000000012
 50
192.83920751222891
 51
257.1604115186142963
  0
ARC
  5
5445
  8
0
 10
102.9397092464656964
 20
1.278829753203325
 30
0.0
 40
0.545271885867384
 50
113.7959577075656057
 51
156.2044267507172037
  0
ARC
  5
5446
  8
0
 10
102.9397092464656964
 20
1.278829753203325
 30
0.0
 40
0.545271885867384
 50
203.7956581636310887
 51
246.204042292434309
  0
LINE
  5
5447
  8
0
 10
102.6962670880304955
 20
1.5222501801703381
 30
0.0
 11
102.9397025027990935
 21
1.278823001055577
 31
0.0
  0
LINE
  5
5448
  8
0
 10
102.9397025027990935
 20
1.278822772373239
 30
0.0
 11
102.6962712878591049
 21
1.0353911119144921
 31
0.0
  0
ARC
  5
5449
  8
0
 10
105.9917025404636064
 20
1.27882273213094
 30
0.0
 40
0.9899999402098345
 50
290.3020811326351804
 51
249.6979188673647911
  0
ARC
  5
544A
  8
0
 10
105.9917025404636064
 20
1.278822732130944
 30
0.0
 40
0.5450000000000058
 50
309.070323497068614
 51
230.9294607389458065
  0
ARC
  5
544B
  8
0
 10
105.9917025404636064
 20
1.9938227321309441
 30
0.0
 40
0.2199999999999989
 50
89.9629232644428356
 51
221.9605585849236888
  0
ARC
  5
544C
  8
0
 10
105.9917025404636064
 20
1.9938227321309441
 30
0.0
 40
0.1884144368000007
 50
89.9567077652437916
 51
222.2136006881441972
  0
ARC
  5
544D
  8
0
 10
105.9917025403574939
 20
1.278822733966009
 30
0.0
 40
0.5799999981649329
 50
89.9859364009715677
 51
103.6615723321017981
  0
ARC
  5
544E
  8
0
 10
105.9917026959119966
 20
1.2788220939910451
 30
0.0
 40
0.5800006567734113
 50
103.6615723321017981
 51
104.3514114052717048
  0
ARC
  5
544F
  8
0
 10
105.8429814873940984
 20
1.86009895647907
 30
0.0
 40
0.0200000004986783
 50
221.9605598031145917
 51
284.3514114052683226
  0
ARC
  5
5450
  8
0
 10
105.9917266950210006
 20
1.3141615644841591
 30
0.0
 40
0.570405691917116
 50
89.9881261228656939
 51
104.1634957706918954
  0
ARC
  5
5451
  8
0
 10
105.8539659840650984
 20
1.8442597304484989
 30
0.0
 40
0.0019924050240301
 50
292.0628898613907722
 51
346.796482022145085
  0
ARC
  5
5452
  8
0
 10
105.8255926694889979
 20
1.8509164692973881
 30
0.0
 40
0.031136137663127
 50
346.7964820221426976
 51
352.189994723507823
  0
ARC
  5
5453
  8
0
 10
105.8193217243177031
 20
1.848786467898712
 30
0.0
 40
0.0371776841896277
 50
356.7602841759887724
 51
6.5957195534012207
  0
ARC
  5
5454
  8
0
 10
105.7812017995904057
 20
1.8448779412898511
 30
0.0
 40
0.0754958800610545
 50
6.219358589260314
 51
13.8318440828241709
  0
ARC
  5
5455
  8
0
 10
105.8449371845070033
 20
1.8604826432666921
 30
0.0
 40
0.0098784243283684
 50
14.3261925491550706
 51
43.0637481028371809
  0
ARC
  5
5456
  8
0
 10
105.9919872693326965
 20
1.9938227321309441
 30
0.0
 40
0.2199999999999989
 50
318.0394414150762259
 51
90.0370767355571786
  0
ARC
  5
5457
  8
0
 10
105.9919872693326965
 20
1.9938227321309441
 30
0.0
 40
0.1884144368000007
 50
317.7863993118556891
 51
90.0432922347578568
  0
ARC
  5
5458
  8
0
 10
105.9919872694386953
 20
1.278822733966009
 30
0.0
 40
0.5799999981649329
 50
76.3384276678981735
 51
90.0140635990267839
  0
ARC
  5
5459
  8
0
 10
105.9919871138843064
 20
1.2788220939910451
 30
0.0
 40
0.5800006567734113
 50
75.6485885947283094
 51
76.3384276678981735
  0
ARC
  5
545A
  8
0
 10
106.1407083224022045
 20
1.86009895647907
 30
0.0
 40
0.0200000004986783
 50
255.6485885947317058
 51
318.0394401968853231
  0
ARC
  5
545B
  8
0
 10
105.9919631147752028
 20
1.3141615644841591
 30
0.0
 40
0.570405691917116
 50
75.8365042293081331
 51
90.0118738771343061
  0
ARC
  5
545C
  8
0
 10
106.1297238257311051
 20
1.8442597304484989
 30
0.0
 40
0.0019924050240301
 50
193.2035179778542044
 51
247.9371101386091141
  0
ARC
  5
545D
  8
0
 10
106.158097140307305
 20
1.8509164692973881
 30
0.0
 40
0.031136137663127
 50
187.8100052764920918
 51
193.2035179778571035
  0
ARC
  5
545E
  8
0
 10
106.1643680854785998
 20
1.848786467898712
 30
0.0
 40
0.0371776841896277
 50
173.4042804465987899
 51
183.2397158240111992
  0
ARC
  5
545F
  8
0
 10
106.2024880102058972
 20
1.8448779412898511
 30
0.0
 40
0.0754958800610545
 50
166.1681559171757954
 51
173.7806414107396904
  0
ARC
  5
5460
  8
0
 10
106.1387526252892002
 20
1.8604826432666921
 30
0.0
 40
0.0098784243283684
 50
136.9362518971630038
 51
165.6738074508448904
  0
LINE
  5
5461
  8
0
 10
105.6482017437677001
 20
1.27882273213094
 30
0.0
 11
105.6482017437677001
 21
-4.2201772678690608
 31
0.0
  0
ARC
  5
5462
  8
0
 10
105.9917031358075974
 20
-4.2201758610836322
 30
0.0
 40
0.3435013920427673
 50
180.0002346507747859
 51
269.9999006970584219
  0
LINE
  5
5463
  8
0
 10
106.3352017437676977
 20
1.27882273213094
 30
0.0
 11
106.3352017437676977
 21
-4.2201772678690608
 31
0.0
  0
ARC
  5
5464
  8
0
 10
105.9917031038110053
 20
-4.2201786131670529
 30
0.0
 40
0.3434986399592895
 50
269.9999060333017269
 51
0.0002243965138702
  0
ARC
  5
5465
  8
0
 10
105.991701743767706
 20
1.2788227468745781
 30
0.0
 40
0.3435000000000063
 50
359.9999975407627062
 51
180.0000024592372085
  0
ARC
  5
5466
  8
0
 10
103.1497025406135037
 20
2.768822746874263
 30
0.0
 40
0.0100000000000016
 50
0.0
 51
90.0000000000073328
  0
LINE
  5
5467
  8
0
 10
103.1597025406134946
 20
2.768822746874263
 30
0.0
 11
103.1597025406130967
 21
1.578822713974261
 31
0.0
  0
ARC
  5
5468
  8
0
 10
103.1497025397263059
 20
-0.2111772509837237
 30
0.0
 40
0.0100000021420088
 50
270.000005083601593
 51
359.9999877271936839
  0
LINE
  5
5469
  8
0
 10
103.1597025418682989
 20
-0.211177253125733
 30
0.0
 11
103.1597025418682989
 21
0.9788227797742621
 31
0.0
  0
LINE
  5
546A
  8
0
 10
104.4397025417119949
 20
1.4888331114840689
 30
0.0
 11
104.4397025417119949
 21
1.068833186713064
 31
0.0
  0
ARC
  5
546B
  8
0
 10
104.429352470639202
 20
1.069182620550893
 30
0.0
 40
0.010355968096649
 50
272.0237110264779972
 51
358.0663434819949771
  0
LINE
  5
546C
  8
0
 10
104.429718171738898
 20
1.058833111484069
 30
0.0
 11
103.2397181209709061
 21
1.058824159231974
 31
0.0
  0
ARC
  5
546D
  8
0
 10
104.4291276548615031
 20
1.488259135398166
 30
0.0
 40
0.0105904523249856
 50
3.1068105019614061
 51
86.8035660179892545
  0
LINE
  5
546E
  8
0
 10
104.429718171738898
 20
1.4988331114840669
 30
0.0
 11
103.2397181388388958
 21
1.498833111483648
 31
0.0
  0
ARC
  5
546F
  8
0
 10
103.2396848065942976
 20
1.5788153708563959
 30
0.0
 40
0.0799822663182827
 50
179.9947397131628009
 51
270.0238777553873888
  0
ARC
  5
5470
  8
0
 10
103.2397049056762057
 20
0.978821796509564
 30
0.0
 40
0.0800023638139097
 50
89.9905355219807888
 51
179.9992958093378093
  0
ARC
  5
5471
  8
0
 10
102.9397025406134958
 20
1.278822746874261
 30
0.0
 40
0.9900000000000012
 50
12.8402036376984796
 51
77.1604115931071703
  0
ARC
  5
5472
  8
0
 10
102.9397025406134958
 20
1.278822746874261
 30
0.0
 40
0.9900000000000012
 50
282.8395884813855901
 51
347.1607924877710047
  0
ARC
  5
5473
  8
0
 10
102.9396958345614053
 20
1.278829753203325
 30
0.0
 40
0.545271885867384
 50
23.7955732492828282
 51
66.2040422924343659
  0
ARC
  5
5474
  8
0
 10
102.9396958345614053
 20
1.278829753203325
 30
0.0
 40
0.545271885867384
 50
293.7959577075657194
 51
336.2043418363679166
  0
LINE
  5
5475
  8
0
 10
103.1831379929966062
 20
1.5222501801703381
 30
0.0
 11
102.939702578227994
 21
1.278823001055577
 31
0.0
  0
LINE
  5
5476
  8
0
 10
102.939702578227994
 20
1.278822772373239
 30
0.0
 11
103.1831337931679968
 21
1.0353911119144921
 31
0.0
  0
LINE
  5
5477
  8
0
 10
109.2537025405136006
 20
2.778822746874261
 30
0.0
 11
108.8337025403135954
 21
2.7788227468739768
 31
0.0
  0
ARC
  5
5478
  8
0
 10
109.2537025405136006
 20
2.768822746874263
 30
0.0
 40
0.0100000000000016
 50
0.0
 51
90.0000000000073328
  0
LINE
  5
5479
  8
0
 10
109.2637025405136058
 20
2.768822746874263
 30
0.0
 11
109.2637025405131936
 21
1.578822713974261
 31
0.0
  0
LINE
  5
547A
  8
0
 10
109.2537025405136006
 20
-0.2211772531257381
 30
0.0
 11
108.8337025412007932
 21
-0.2211772531254539
 31
0.0
  0
ARC
  5
547B
  8
0
 10
109.2537025396263033
 20
-0.2111772509837237
 30
0.0
 40
0.0100000021420088
 50
270.000005083601593
 51
359.9999877271936839
  0
LINE
  5
547C
  8
0
 10
109.2637025417682963
 20
-0.211177253125733
 30
0.0
 11
109.2637025417682963
 21
0.9788227797742621
 31
0.0
  0
LINE
  5
547D
  8
0
 10
110.5437025412768008
 20
1.4888331114840689
 30
0.0
 11
110.5437025412768008
 21
1.068833186713064
 31
0.0
  0
ARC
  5
547E
  8
0
 10
110.5319718924838952
 20
1.070561029996113
 30
0.0
 40
0.0118572156728521
 50
278.4690793817350141
 51
351.6209770503248819
  0
LINE
  5
547F
  8
0
 10
110.5337181716388955
 20
1.058833111484069
 30
0.0
 11
109.3437181208709035
 21
1.058824159231974
 31
0.0
  0
ARC
  5
5480
  8
0
 10
110.5333617773488015
 20
1.4884928923977829
 30
0.0
 40
0.0103463591491144
 50
1.8843954802238581
 51
88.0259791161319356
  0
LINE
  5
5481
  8
0
 10
110.5337181716388955
 20
1.4988331114840669
 30
0.0
 11
109.3437181387388932
 21
1.498833111483648
 31
0.0
  0
ARC
  5
5482
  8
0
 10
109.3436848064943945
 20
1.5788153708563959
 30
0.0
 40
0.0799822663182827
 50
179.9947397131628009
 51
270.0238777553873888
  0
ARC
  5
5483
  8
0
 10
109.3437049055762031
 20
0.978821796509564
 30
0.0
 40
0.0800023638139097
 50
89.9905355219807888
 51
179.9992958093378093
  0
ARC
  5
5484
  8
0
 10
109.0437025405136069
 20
1.278822746874261
 30
0.0
 40
0.9900000000000012
 50
12.8402036376984796
 51
77.1604115931071703
  0
ARC
  5
5485
  8
0
 10
109.0437025405136069
 20
1.278822746874261
 30
0.0
 40
0.9900000000000012
 50
282.8395884813855901
 51
347.1607924877710047
  0
ARC
  5
5486
  8
0
 10
109.0436958344614027
 20
1.278829753203325
 30
0.0
 40
0.545271885867384
 50
23.7955732492828282
 51
66.2040422924343659
  0
ARC
  5
5487
  8
0
 10
109.0436958344614027
 20
1.278829753203325
 30
0.0
 40
0.545271885867384
 50
293.7959577075657194
 51
336.2043418363688261
  0
LINE
  5
5488
  8
0
 10
109.2871379928966036
 20
1.5222501801703381
 30
0.0
 11
109.0437025781281051
 21
1.278823001055577
 31
0.0
  0
LINE
  5
5489
  8
0
 10
109.0437025781281051
 20
1.278822772373239
 30
0.0
 11
109.2871337930679942
 21
1.0353911119144921
 31
0.0
  0
ARC
  5
548A
  8
0
 10
108.8337025403135954
 20
2.768822746874263
 30
0.0
 40
0.0100000000000016
 50
89.999999999992653
 51
180.0
  0
LINE
  5
548B
  8
0
 10
108.8237025403136045
 20
2.768822746874263
 30
0.0
 11
108.8237025403140024
 21
1.578822713974261
 31
0.0
  0
ARC
  5
548C
  8
0
 10
108.8337025412007932
 20
-0.2111772509837237
 30
0.0
 40
0.0100000021420088
 50
180.0000122728062024
 51
269.9999949163985207
  0
LINE
  5
548D
  8
0
 10
108.8237025390588002
 20
-0.211177253125733
 30
0.0
 11
108.8237025390588002
 21
0.9788227797742621
 31
0.0
  0
LINE
  5
548E
  8
0
 10
107.5437025392151043
 20
1.4888331114840689
 30
0.0
 11
107.5437025392151043
 21
1.068833186713064
 31
0.0
  0
ARC
  5
548F
  8
0
 10
107.5539668361317069
 20
1.0690969811041771
 30
0.0
 40
0.0102676861401413
 50
181.4721884066161124
 51
268.4377570849640051
  0
LINE
  5
5490
  8
0
 10
107.5536869091882011
 20
1.058833111484069
 30
0.0
 11
108.7436869599563067
 21
1.058824159231974
 31
0.0
  0
ARC
  5
5491
  8
0
 10
107.5540998399912951
 20
1.488436443905008
 30
0.0
 40
0.0104048646602261
 50
92.2744560335725765
 51
177.8151674465601104
  0
LINE
  5
5492
  8
0
 10
107.5536869091882011
 20
1.4988331114840669
 30
0.0
 11
108.7436869420882033
 21
1.498833111483648
 31
0.0
  0
ARC
  5
5493
  8
0
 10
108.7437202743328015
 20
1.5788153708563959
 30
0.0
 40
0.0799822663182827
 50
269.9761222446126112
 51
0.0052602868371743
  0
ARC
  5
5494
  8
0
 10
108.7437001752510071
 20
0.978821796509564
 30
0.0
 40
0.0800023638139097
 50
0.0007041906622458
 51
90.009464478019197
  0
ARC
  5
5495
  8
0
 10
109.0437025403136033
 20
1.278822746874261
 30
0.0
 40
0.9900000000000012
 50
102.8395884068928012
 51
167.1597963623015062
  0
ARC
  5
5496
  8
0
 10
109.0437025403136033
 20
1.278822746874261
 30
0.0
 40
0.9900000000000012
 50
192.8392075122289953
 51
257.1604115186142963
  0
ARC
  5
5497
  8
0
 10
109.0437092463656938
 20
1.278829753203325
 30
0.0
 40
0.545271885867384
 50
113.7959577075656057
 51
156.2044267507172037
  0
ARC
  5
5498
  8
0
 10
109.0437092463656938
 20
1.278829753203325
 30
0.0
 40
0.545271885867384
 50
203.7956581636321118
 51
246.204042292434309
  0
LINE
  5
5499
  8
0
 10
108.8002670879304929
 20
1.5222501801703381
 30
0.0
 11
109.0437025026991051
 21
1.278823001055577
 31
0.0
  0
LINE
  5
549A
  8
0
 10
109.0437025026991051
 20
1.278822772373239
 30
0.0
 11
108.8002712877592018
 21
1.0353911119144921
 31
0.0
  0
ENDSEC
  0
EOF
