  0
SECTION
  2
HEADER
  9
$ACADVER
  1
AC1009
  9
$INSBASE
 10
3914.1958921323112008
 20
214.7850727666381943
 30
0.0
  9
$EXTMIN
 10
3908.8533907178530171
 20
214.7803851446763019
 30
0.0
  9
$EXTMAX
 10
3915.1858907178529989
 20
223.2850841456906892
 30
0.0
  9
$LIMMIN
 10
0.0
 20
0.0
  9
$LIMMAX
 10
11.6929133858000007
 20
8.2677165353999982
  9
$ORTHOMODE
 70
     0
  9
$REGENMODE
 70
     1
  9
$FILLMODE
 70
     1
  9
$QTEXTMODE
 70
     0
  9
$MIRRTEXT
 70
     0
  9
$DRAGMODE
 70
     2
  9
$LTSCALE
 40
0.6431102362
  9
$OSMODE
 70
  4095
  9
$ATTMODE
 70
     1
  9
$TEXTSIZE
 40
0.2
  9
$TRACEWID
 40
0.05
  9
$TEXTSTYLE
  7
STANDARD
  9
$CLAYER
  8
0
  9
$CELTYPE
  6
BYLAYER
  9
$CECOLOR
 62
   256
  9
$DIMSCALE
 40
1.0
  9
$DIMASZ
 40
0.1875
  9
$DIMEXO
 40
0.0625
  9
$DIMDLI
 40
0.4443307087
  9
$DIMRND
 40
0.0
  9
$DIMDLE
 40
0.0
  9
$DIMEXE
 40
0.125
  9
$DIMTP
 40
0.01
  9
$DIMTM
 40
0.01
  9
$DIMTXT
 40
2.0
  9
$DIMCEN
 40
0.1052362205
  9
$DIMTSZ
 40
0.0
  9
$DIMTOL
 70
     1
  9
$DIMLIM
 70
     0
  9
$DIMTIH
 70
     1
  9
$DIMTOH
 70
     1
  9
$DIMSE1
 70
     0
  9
$DIMSE2
 70
     0
  9
$DIMTAD
 70
     0
  9
$DIMZIN
 70
     0
  9
$DIMBLK
  1

  9
$DIMASO
 70
     1
  9
$DIMSHO
 70
     1
  9
$DIMPOST
  1
\X
  9
$DIMAPOST
  1

  9
$DIMALT
 70
     1
  9
$DIMALTD
 70
     2
  9
$DIMALTF
 40
25.3999999999999986
  9
$DIMLFAC
 40
1.0
  9
$DIMTOFL
 70
     0
  9
$DIMTVP
 40
0.0
  9
$DIMTIX
 70
     0
  9
$DIMSOXD
 70
     0
  9
$DIMSAH
 70
     0
  9
$DIMBLK1
  1

  9
$DIMBLK2
  1

  9
$DIMSTYLE
  2
STANDARD
  9
$DIMCLRD
 70
     0
  9
$DIMCLRE
 70
     0
  9
$DIMCLRT
 70
     0
  9
$DIMTFAC
 40
1.0
  9
$DIMGAP
 40
0.09
  9
$LUNITS
 70
     2
  9
$LUPREC
 70
     4
  9
$SKETCHINC
 40
0.1
  9
$FILLETRAD
 40
0.0
  9
$AUNITS
 70
     0
  9
$AUPREC
 70
     0
  9
$MENU
  1
.
  9
$ELEVATION
 40
0.0
  9
$PELEVATION
 40
0.0
  9
$THICKNESS
 40
0.0
  9
$LIMCHECK
 70
     0
  9
$BLIPMODE
 70
     0
  9
$CHAMFERA
 40
0.0
  9
$CHAMFERB
 40
0.0
  9
$SKPOLY
 70
     0
  9
$TDCREATE
 40
2458060.468368056230247
  9
$TDUPDATE
 40
2459430.2256481479853392
  9
$TDINDWG
 40
0.615597338
  9
$TDUSRTIMER
 40
0.615597338
  9
$USRTIMER
 70
     1
  9
$ANGBASE
 50
0.0
  9
$ANGDIR
 70
     0
  9
$PDMODE
 70
     0
  9
$PDSIZE
 40
0.3125
  9
$PLINEWID
 40
0.0
  9
$COORDS
 70
     1
  9
$SPLFRAME
 70
     0
  9
$SPLINETYPE
 70
     6
  9
$SPLINESEGS
 70
     8
  9
$ATTDIA
 70
     1
  9
$ATTREQ
 70
     1
  9
$HANDLING
 70
     1
  9
$HANDSEED
  5
B3E5
  9
$SURFTAB1
 70
     6
  9
$SURFTAB2
 70
     6
  9
$SURFTYPE
 70
     6
  9
$SURFU
 70
     6
  9
$SURFV
 70
     6
  9
$UCSNAME
  2

  9
$UCSORG
 10
0.0
 20
0.0
 30
0.0
  9
$UCSXDIR
 10
1.0
 20
0.0
 30
0.0
  9
$UCSYDIR
 10
0.0
 20
1.0
 30
0.0
  9
$PUCSNAME
  2

  9
$PUCSORG
 10
0.0
 20
0.0
 30
0.0
  9
$PUCSXDIR
 10
1.0
 20
0.0
 30
0.0
  9
$PUCSYDIR
 10
0.0
 20
1.0
 30
0.0
  9
$USERI1
 70
     0
  9
$USERI2
 70
     0
  9
$USERI3
 70
     0
  9
$USERI4
 70
     0
  9
$USERI5
 70
     0
  9
$USERR1
 40
0.0
  9
$USERR2
 40
0.0
  9
$USERR3
 40
0.0
  9
$USERR4
 40
0.0
  9
$USERR5
 40
0.0
  9
$WORLDVIEW
 70
     1
  9
$SHADEDGE
 70
     3
  9
$SHADEDIF
 70
    70
  9
$TILEMODE
 70
     1
  9
$MAXACTVP
 70
    64
  9
$PLIMCHECK
 70
     0
  9
$PEXTMIN
 10
1.0000000000000000E+20
 20
1.0000000000000000E+20
 30
1.0000000000000000E+20
  9
$PEXTMAX
 10
-1.0000000000000000E+20
 20
-1.0000000000000000E+20
 30
-1.0000000000000000E+20
  9
$PLIMMIN
 10
0.0
 20
0.0
  9
$PLIMMAX
 10
12.0
 20
9.0
  9
$UNITMODE
 70
     0
  9
$VISRETAIN
 70
     1
  9
$PLINEGEN
 70
     0
  9
$PSLTSCALE
 70
     1
  0
ENDSEC
  0
SECTION
  2
TABLES
  0
TABLE
  2
VPORT
 70
     1
  0
VPORT
  2
*ACTIVE
 70
     0
 10
0.0
 20
0.0
 11
1.0
 21
1.0
 12
7.7703293726168212
 22
-5.9318599929029823
 13
0.0
 23
0.0
 14
1.0
 24
1.0
 15
0.0
 25
0.0
 16
0.0
 26
0.0
 36
40.6091922439707318
 17
3912.01953125
 27
219.0327325503654947
 37
0.0
 40
25.6310553632518783
 41
2.0416666666666661
 42
50.0
 43
0.0
 44
0.0
 50
0.0
 51
0.0
 71
     0
 72
   100
 73
     1
 74
     1
 75
     0
 76
     0
 77
     0
 78
     0
  0
ENDTAB
  0
TABLE
  2
LTYPE
 70
     2
  0
LTYPE
  2
CONTINUOUS
 70
     0
  3
Solid line
 72
    65
 73
     0
 40
0.0
  0
LTYPE
  2
PHANTOM2
 70
     0
  3
___ _ _ ___ _ _ ___ _ _ ___ _ _
 72
    65
 73
     6
 40
1.25
 49
0.625
 49
-0.125
 49
0.125
 49
-0.125
 49
0.125
 49
-0.125
  0
ENDTAB
  0
TABLE
  2
LAYER
 70
     2
  0
LAYER
  2
0
 70
     0
 62
   255
  6
CONTINUOUS
  0
LAYER
  2
DEFPOINTS
 70
     0
 62
     7
  6
CONTINUOUS
  0
ENDTAB
  0
TABLE
  2
STYLE
 70
     1
  0
STYLE
  2
STANDARD
 70
     0
 40
0.0
 41
0.8
 50
0.0
 71
     0
 42
0.2
  3
txt
  4

  0
ENDTAB
  0
TABLE
  2
VIEW
 70
     0
  0
ENDTAB
  0
TABLE
  2
UCS
 70
     0
  0
ENDTAB
  0
TABLE
  2
APPID
 70
     9
  0
APPID
  2
ACAD
 70
     0
  0
APPID
  2
ACAD_MLEADERVER
 70
     0
  0
APPID
  2
ACAD_EXEMPT_FROM_CAD_STANDARDS
 70
     0
  0
APPID
  2
ACAD_NAV_VCDISPLAY
 70
     0
  0
APPID
  2
ACAECLAYERSTANDARD
 70
     0
  0
APPID
  2
ACCMTRANSPARENCY
 70
     0
  0
APPID
  2
ACAD_DSTYLE_DIMJAG
 70
     0
  0
APPID
  2
ACAD_DSTYLE_DIMTALN
 70
     0
  0
APPID
  2
ACDBATTR
 70
     0
  0
ENDTAB
  0
TABLE
  2
DIMSTYLE
 70
     1
  0
DIMSTYLE
  2
STANDARD
 70
     0
  3

  4

  5

  6

  7

 40
1.0
 41
0.1875
 42
0.0625
 43
0.38
 44
0.125
 45
0.0
 46
0.0
 47
0.01
 48
0.01
140
0.15625
141
0.09
142
0.0
143
25.3999999999999986
144
1.0
145
0.0
146
1.0
147
0.09
 71
     1
 72
     0
 73
     1
 74
     1
 75
     0
 76
     0
 77
     0
 78
     4
170
     0
171
     2
172
     0
173
     0
174
     0
175
     0
176
     0
177
     0
178
     0
  0
ENDTAB
  0
ENDSEC
  0
SECTION
  2
BLOCKS
  0
BLOCK
  8
0
  2
$MODEL_SPACE
 70
     0
 10
0.0
 20
0.0
 30
0.0
  3
$MODEL_SPACE
  1

  0
ENDBLK
  5
21
  8
0
  0
BLOCK
 67
     1
  8
0
  2
$PAPER_SPACE
 70
     0
 10
0.0
 20
0.0
 30
0.0
  3
$PAPER_SPACE
  1

  0
ENDBLK
  5
1D
 67
     1
  8
0
  0
BLOCK
  8
0
  2
_FILLED
 70
     0
 10
0.0
 20
0.0
 30
0.0
  3
_FILLED
  1

  0
SOLID
  5
6F59
  8
0
  6
BYBLOCK
 62
     0
 10
0.0
 20
0.0
 30
0.0
 11
-1.0
 21
0.1666666667
 31
0.0
 12
-1.0
 22
-0.1666666667
 32
0.0
 13
-1.0
 23
-0.1666666667
 33
0.0
  0
ENDBLK
  5
6F5A
  8
0
  6
BYBLOCK
 62
     0
  0
BLOCK
  8
0
  2
_CLOSED
 70
     0
 10
0.0
 20
0.0
 30
0.0
  3
_CLOSED
  1

  0
LINE
  5
9506
  8
0
  6
BYBLOCK
 62
     0
 10
0.0
 20
0.0
 30
0.0
 11
-1.0
 21
0.1666666667
 31
0.0
  0
LINE
  5
9507
  8
0
  6
BYBLOCK
 62
     0
 10
-1.0
 20
0.1666666667
 30
0.0
 11
-1.0
 21
-0.1666666667
 31
0.0
  0
LINE
  5
9508
  8
0
  6
BYBLOCK
 62
     0
 10
-1.0
 20
-0.1666666667
 30
0.0
 11
0.0
 21
0.0
 31
0.0
  0
LINE
  5
9509
  8
0
  6
BYBLOCK
 62
     0
 10
-1.0
 20
0.0
 30
0.0
 11
0.0
 21
0.0
 31
0.0
  0
ENDBLK
  5
950A
  8
0
  6
BYBLOCK
 62
     0
  0
ENDSEC
  0
SECTION
  2
ENTITIES
  0
ATTDEF
  5
3930
  8
DEFPOINTS
 10
3914.1848495578478833
 20
214.7837184780096891
 30
0.0
 40
0.001
  1
K-14406BR-4
  3

  2
MODELNUMBER
 70
     0
1001
ACDBATTR
1070
     0
1070
     1
  0
ATTDEF
  5
3931
  8
DEFPOINTS
 10
3914.1848495578478833
 20
214.7820518113429955
 30
0.0
 40
0.001
  1
PURIST
  3

  2
TRADENAME
 70
     0
1001
ACDBATTR
1070
     0
1070
     1
  0
ATTDEF
  5
3932
  8
DEFPOINTS
 10
3914.1848495578478833
 20
214.7803851446763019
 30
0.0
 40
0.001
  1
BATHROOM SINK FAUCET
  3

  2
PRODUCT
 70
     0
1001
ACDBATTR
1070
     0
1070
     1
  0
ARC
  5
B14E
  8
0
 10
3908.8641114659599225
 20
220.6025609708005106
 30
0.0
 40
0.0099707554693624
 50
179.9303737572035971
 51
270.168092819341723
  0
LINE
  5
B14F
  8
0
 10
3908.8641407178529334
 20
220.5925902582403921
 30
0.0
 11
3909.5296407178529989
 21
220.5925902582403921
 31
0.0
  0
ARC
  5
B150
  8
0
 10
3909.5296699697460099
 20
220.602560970800198
 30
0.0
 40
0.0099707554690922
 50
269.8319071790950261
 51
0.0696262443189421
  0
LINE
  5
B151
  8
0
 10
3909.5396407178541267
 20
220.602573087331109
 30
0.0
 11
3909.5396407178541267
 21
221.2875730873311966
 31
0.0
  0
ARC
  5
B152
  8
0
 10
3909.534621789574885
 20
221.2875652469818135
 30
0.0
 40
0.0050189344018305
 50
0.0895048786328482
 51
89.7839156837246009
  0
LINE
  5
B153
  8
0
 10
3908.8541407178531699
 20
220.602573087331109
 30
0.0
 11
3908.8541407178531699
 21
221.2875730873311966
 31
0.0
  0
ARC
  5
B154
  8
0
 10
3908.8591761773018334
 20
221.2875649519801016
 30
0.0
 40
0.0050354660206484
 50
94.6074371992469594
 51
179.9074323049692055
  0
LINE
  5
B155
  8
0
 10
3908.8533907178530171
 20
221.2925841456905971
 30
0.0
 11
3909.5403907178529153
 21
221.2925841456905971
 31
0.0
  0
LINE
  5
B156
  8
0
 10
3909.5403907178529153
 20
221.2925841456905971
 30
0.0
 11
3909.5403907178529153
 21
221.4725730873311988
 31
0.0
  0
LINE
  5
B157
  8
0
 10
3908.8533907178530171
 20
221.4725730873311988
 30
0.0
 11
3908.8533907178530171
 21
221.2925841456905971
 31
0.0
  0
ARC
  5
B158
  8
0
 10
3910.6658907178530171
 20
221.4725730873311988
 30
0.0
 40
1.1255000000000019
 50
90.0
 51
180.0
  0
LINE
  5
B159
  8
0
 10
3910.6658907178530171
 20
222.5980730873311018
 30
0.0
 11
3912.7268907178531663
 21
222.598073087331187
 31
0.0
  0
ARC
  5
B15A
  8
0
 10
3912.7268907178531663
 20
221.4725730873311988
 30
0.0
 40
1.1254999999999951
 50
0.0
 51
90.0
  0
LINE
  5
B15B
  8
0
 10
3913.8523907178528134
 20
221.4725730873311988
 30
0.0
 11
3913.8523907178528134
 21
218.5650730873312
 31
0.0
  0
ARC
  5
B15C
  8
0
 10
3913.6924095940789812
 20
218.5650652685424973
 30
0.0
 40
0.1599811239654949
 50
269.9932396520675866
 51
0.0028002277960821
  0
ARC
  5
B15D
  8
0
 10
3914.7258718232451429
 20
218.3900652609279973
 30
0.0
 40
0.0150188966478535
 50
0.029857046076248
 51
89.9279186984646941
  0
ARC
  5
B15E
  8
0
 10
3910.6659095957920727
 20
221.4725652678326071
 30
0.0
 40
1.8125188779563379
 50
90.0005967530993871
 51
179.9997528167725989
  0
LINE
  5
B15F
  8
0
 10
3910.6658907178530171
 20
223.2850841456906039
 30
0.0
 11
3912.7268907178531663
 21
223.2850841456906039
 31
0.0
  0
ARC
  5
B160
  8
0
 10
3912.7268718399141108
 20
221.4725652678326071
 30
0.0
 40
1.812518877956381
 50
0.0002471832274147
 51
89.9994032469005987
  0
LINE
  5
B161
  8
0
 10
3914.5393907178531663
 20
221.4725730873311988
 30
0.0
 11
3914.5393907178531663
 21
218.5650730873312
 31
0.0
  0
ARC
  5
B162
  8
0
 10
3914.6993718397270641
 20
218.5650652677551875
 30
0.0
 40
0.1599811220645603
 50
179.9971994901981134
 51
270.0000006808198805
  0
LINE
  5
B163
  8
0
 10
3914.7408907178541995
 20
218.3900730873311886
 30
0.0
 11
3914.740983941011109
 21
215.2570626433497978
 31
0.0
  0
ARC
  5
B164
  8
0
 10
3915.0208181112348029
 20
215.2450233965689961
 30
0.0
 40
0.2799392602942169
 50
181.5743813717677995
 51
270.0148605553852121
  0
ARC
  5
B165
  8
0
 10
3913.665909612462201
 20
218.3900652609279973
 30
0.0
 40
0.0150188966479026
 50
90.0720813016916395
 51
179.9701429537543902
  0
LINE
  5
B166
  8
0
 10
3913.6508907178531445
 20
218.3900730873311886
 30
0.0
 11
3913.6507974957021361
 21
215.2570950819836924
 31
0.0
  0
ARC
  5
B167
  8
0
 10
3913.3708997549820197
 20
215.2450883117321041
 30
0.0
 40
0.2800045964713694
 50
270.1004630467219272
 51
358.4126978019614853
  0
LINE
  5
B168
  8
0
 10
3913.2208907175518107
 20
214.965084145690696
 30
0.0
 11
3915.1708907181550785
 21
214.965084145690696
 31
0.0
  0
ARC
  5
B169
  8
0
 10
3915.1708718235458946
 20
214.9500652612302076
 30
0.0
 40
0.0150188963457474
 50
0.0298558941327216
 51
89.9279186979957075
  0
LINE
  5
B16A
  8
0
 10
3915.1858907178529989
 20
214.9500730873311909
 30
0.0
 11
3915.1858907148371145
 21
214.8000730873312136
 31
0.0
  0
ARC
  5
B16B
  8
0
 10
3915.1708901670631349
 20
214.8000733144029937
 30
0.0
 40
0.0150005477749841
 50
270.0021099558148876
 51
359.9991326812806278
  0
LINE
  5
B16C
  8
0
 10
3915.1708907194679341
 20
214.7850727666381943
 30
0.0
 11
3913.2208935451531033
 21
214.7850727666381943
 31
0.0
  0
ARC
  5
B16D
  8
0
 10
3913.2208929927128338
 20
214.80007504161469
 30
0.0
 40
0.0150022749867504
 50
180.0074636813940003
 51
270.0021098478425756
  0
LINE
  5
B16E
  8
0
 10
3913.2058907178529807
 20
214.8000730873312136
 30
0.0
 11
3913.20586891057701
 21
214.9500730857459985
 31
0.0
  0
ARC
  5
B16F
  8
0
 10
3913.2208856067550187
 20
214.9500674493249051
 30
0.0
 40
0.0150166972353311
 50
89.9805011608130343
 51
179.9784943958339909
  0
ARC
  5
B170
  8
0
 10
3913.6605646574689672
 20
215.2373192567582976
 30
0.0
 40
0.0097677583310776
 50
88.6572304567708329
 51
179.9243429663077052
  0
LINE
  5
B171
  8
0
 10
3913.6607935512529366
 20
215.247084332817991
 30
0.0
 11
3914.7309878844530431
 21
215.247084332817991
 31
0.0
  0
ARC
  5
B172
  8
0
 10
3914.730968254437812
 20
215.237064503017109
 30
0.0
 40
0.0100198490295845
 50
1.5306755481136289
 51
89.8877510288261448
  0
ARC
  5
B173
  8
0
 10
3914.7308417954241122
 20
215.2572267539985944
 30
0.0
 40
0.0101434732419212
 50
270.8252177545157906
 51
359.0729745524773762
  0
ARC
  5
B174
  8
0
 10
3913.6609393300359443
 20
215.2572259639636911
 30
0.0
 40
0.0101426788255309
 50
180.739370076917794
 51
269.1764702244461773
  0
LINE
  5
B175
  8
0
 10
3914.4159861163248024
 20
217.994492345410805
 30
0.0
 11
3914.4192957150107759
 21
217.2359930071847884
 31
0.0
  0
ARC
  5
B176
  8
0
 10
3914.6692928021161606
 20
217.2370836116475914
 30
0.0
 40
0.2499994659575288
 50
180.2499494580804082
 51
270.0001221720958142
  0
LINE
  5
B177
  8
0
 10
3913.9757023240181297
 20
217.9946353419078093
 30
0.0
 11
3913.9723921013710424
 21
217.2359930071847884
 31
0.0
  0
ARC
  5
B178
  8
0
 10
3913.7223950142611102
 20
217.2370836116535884
 30
0.0
 40
0.2499994659635671
 50
269.9998778292591055
 51
359.7500505405386093
  0
ARC
  5
B179
  8
0
 10
3913.6614568974619033
 20
216.9770836030745045
 30
0.0
 40
0.0100005426306141
 50
90.003086190847867
 51
178.9987267808745912
  0
LINE
  5
B17A
  8
0
 10
3913.6614563587909288
 20
216.9870841456906021
 30
0.0
 11
3914.7302314576909339
 21
216.9870841456906021
 31
0.0
  0
ARC
  5
B17B
  8
0
 10
3914.7302309190208689
 20
216.9770836031242141
 30
0.0
 40
0.0100005425809688
 50
1.0012729396093929
 51
89.9969138167342066
  0
ARC
  5
B17C
  8
0
 10
3913.7329633011531769
 20
216.9420838338515978
 30
0.0
 40
1.007880607038234
 50
358.0000001351643277
 51
1.9999999449678449
  0
ARC
  5
B17D
  8
0
 10
3914.7300543090609608
 20
216.9072644248159918
 30
0.0
 40
0.0101818201830771
 50
270.9968730533594794
 51
358.0012719161942982
  0
ARC
  5
B17E
  8
0
 10
3913.6616335074099879
 20
216.9072644248581128
 30
0.0
 40
0.0101818202250837
 50
181.9987283130917888
 51
269.0031270074101144
  0
LINE
  5
B17F
  8
0
 10
3913.6508462937808872
 20
216.8970841457490053
 30
0.0
 11
3914.7409351419451013
 21
216.8970841456905987
 31
0.0
  0
LINE
  5
B180
  8
0
 10
3913.6514578818441805
 20
216.9772583588060115
 30
0.0
 11
3913.6514578817909751
 21
216.906909310305906
 31
0.0
  0
LINE
  5
B181
  8
0
 10
3914.7571701073111399
 20
215.160072766638109
 30
0.0
 11
3915.130893718410789
 21
215.160072766638109
 31
0.0
  0
LINE
  5
B182
  8
0
 10
3915.1108937184108072
 20
215.6000727666381067
 30
0.0
 11
3914.7771699821109905
 21
215.6000727666381067
 31
0.0
  0
LINE
  5
B183
  8
0
 10
3914.7571699422110214
 20
215.5800727666380965
 30
0.0
 11
3914.7571699422110214
 21
215.160072766638109
 31
0.0
  0
LINE
  5
B184
  8
0
 10
3914.8328937184101051
 20
215.160072766638109
 30
0.0
 11
3914.8328937184101051
 21
215.0375374644289934
 31
0.0
  0
LINE
  5
B185
  8
0
 10
3914.9888937184109636
 20
215.160072766638109
 30
0.0
 11
3914.9888937184109636
 21
214.9669104292393058
 31
0.0
  0
LINE
  5
B186
  8
0
 10
3915.130893718410789
 20
215.160072766638109
 30
0.0
 11
3915.130893718410789
 21
215.5800727666380965
 31
0.0
  0
ARC
  5
B187
  8
0
 10
3915.1108937184108072
 20
215.5800727666380965
 30
0.0
 40
0.02
 50
0.0
 51
90.0
  0
ARC
  5
B188
  8
0
 10
3914.7771699420900404
 20
215.580072766759713
 30
0.0
 40
0.0199999998784997
 50
89.9998853468339632
 51
180.0000003481873136
  0
LINE
  5
B189
  8
0
 10
3913.6658907178530171
 20
218.4050841456906085
 30
0.0
 11
3914.1633960006161033
 21
218.4050841456906085
 31
0.0
  0
LINE
  5
B18A
  8
0
 10
3914.2283882640058437
 20
218.4050841456906085
 30
0.0
 11
3914.7258907178497793
 21
218.4050841456906085
 31
0.0
  0
CIRCLE
  5
B18B
  8
0
 10
3914.1958921323112008
 20
218.1420845076875139
 30
0.0
 40
0.2649996380468229
  0
ENDSEC
  0
EOF
