  0
SECTION
  2
HEADER
  9
$ACADVER
  1
AC1009
  9
$INSBASE
 10
3897.3811744186609758
 20
214.3882431453365029
 30
0.0
  9
$EXTMIN
 10
3890.2011713072110979
 20
214.3833633759147972
 30
0.0
  9
$EXTMAX
 10
3904.5611775301090347
 20
222.8882545243889126
 30
0.0
  9
$LIMMIN
 10
0.0
 20
0.0
  9
$LIMMAX
 10
11.6929133858000007
 20
8.2677165353999982
  9
$ORTHOMODE
 70
     0
  9
$REGENMODE
 70
     1
  9
$FILLMODE
 70
     1
  9
$QTEXTMODE
 70
     0
  9
$MIRRTEXT
 70
     0
  9
$DRAGMODE
 70
     2
  9
$LTSCALE
 40
0.6431102362
  9
$OSMODE
 70
  4095
  9
$ATTMODE
 70
     1
  9
$TEXTSIZE
 40
0.2
  9
$TRACEWID
 40
0.05
  9
$TEXTSTYLE
  7
STANDARD
  9
$CLAYER
  8
0
  9
$CELTYPE
  6
BYLAYER
  9
$CECOLOR
 62
   256
  9
$DIMSCALE
 40
1.0
  9
$DIMASZ
 40
0.1875
  9
$DIMEXO
 40
0.0625
  9
$DIMDLI
 40
0.4443307087
  9
$DIMRND
 40
0.0
  9
$DIMDLE
 40
0.0
  9
$DIMEXE
 40
0.125
  9
$DIMTP
 40
0.01
  9
$DIMTM
 40
0.01
  9
$DIMTXT
 40
2.0
  9
$DIMCEN
 40
0.1052362205
  9
$DIMTSZ
 40
0.0
  9
$DIMTOL
 70
     1
  9
$DIMLIM
 70
     0
  9
$DIMTIH
 70
     1
  9
$DIMTOH
 70
     1
  9
$DIMSE1
 70
     0
  9
$DIMSE2
 70
     0
  9
$DIMTAD
 70
     0
  9
$DIMZIN
 70
     0
  9
$DIMBLK
  1

  9
$DIMASO
 70
     1
  9
$DIMSHO
 70
     1
  9
$DIMPOST
  1
\X
  9
$DIMAPOST
  1

  9
$DIMALT
 70
     1
  9
$DIMALTD
 70
     2
  9
$DIMALTF
 40
25.3999999999999986
  9
$DIMLFAC
 40
1.0
  9
$DIMTOFL
 70
     0
  9
$DIMTVP
 40
0.0
  9
$DIMTIX
 70
     0
  9
$DIMSOXD
 70
     0
  9
$DIMSAH
 70
     0
  9
$DIMBLK1
  1

  9
$DIMBLK2
  1

  9
$DIMSTYLE
  2
STANDARD
  9
$DIMCLRD
 70
     0
  9
$DIMCLRE
 70
     0
  9
$DIMCLRT
 70
     0
  9
$DIMTFAC
 40
1.0
  9
$DIMGAP
 40
0.09
  9
$LUNITS
 70
     2
  9
$LUPREC
 70
     4
  9
$SKETCHINC
 40
0.1
  9
$FILLETRAD
 40
0.0
  9
$AUNITS
 70
     0
  9
$AUPREC
 70
     0
  9
$MENU
  1
.
  9
$ELEVATION
 40
0.0
  9
$PELEVATION
 40
0.0
  9
$THICKNESS
 40
0.0
  9
$LIMCHECK
 70
     0
  9
$BLIPMODE
 70
     0
  9
$CHAMFERA
 40
0.0
  9
$CHAMFERB
 40
0.0
  9
$SKPOLY
 70
     0
  9
$TDCREATE
 40
2458060.468368056230247
  9
$TDUPDATE
 40
2459430.2255092589184642
  9
$TDINDWG
 40
0.6190001157
  9
$TDUSRTIMER
 40
0.6190001157
  9
$USRTIMER
 70
     1
  9
$ANGBASE
 50
0.0
  9
$ANGDIR
 70
     0
  9
$PDMODE
 70
     0
  9
$PDSIZE
 40
0.3125
  9
$PLINEWID
 40
0.0
  9
$COORDS
 70
     1
  9
$SPLFRAME
 70
     0
  9
$SPLINETYPE
 70
     6
  9
$SPLINESEGS
 70
     8
  9
$ATTDIA
 70
     1
  9
$ATTREQ
 70
     1
  9
$HANDLING
 70
     1
  9
$HANDSEED
  5
B2DC
  9
$SURFTAB1
 70
     6
  9
$SURFTAB2
 70
     6
  9
$SURFTYPE
 70
     6
  9
$SURFU
 70
     6
  9
$SURFV
 70
     6
  9
$UCSNAME
  2

  9
$UCSORG
 10
0.0
 20
0.0
 30
0.0
  9
$UCSXDIR
 10
1.0
 20
0.0
 30
0.0
  9
$UCSYDIR
 10
0.0
 20
1.0
 30
0.0
  9
$PUCSNAME
  2

  9
$PUCSORG
 10
0.0
 20
0.0
 30
0.0
  9
$PUCSXDIR
 10
1.0
 20
0.0
 30
0.0
  9
$PUCSYDIR
 10
0.0
 20
1.0
 30
0.0
  9
$USERI1
 70
     0
  9
$USERI2
 70
     0
  9
$USERI3
 70
     0
  9
$USERI4
 70
     0
  9
$USERI5
 70
     0
  9
$USERR1
 40
0.0
  9
$USERR2
 40
0.0
  9
$USERR3
 40
0.0
  9
$USERR4
 40
0.0
  9
$USERR5
 40
0.0
  9
$WORLDVIEW
 70
     1
  9
$SHADEDGE
 70
     3
  9
$SHADEDIF
 70
    70
  9
$TILEMODE
 70
     1
  9
$MAXACTVP
 70
    64
  9
$PLIMCHECK
 70
     0
  9
$PEXTMIN
 10
1.0000000000000000E+20
 20
1.0000000000000000E+20
 30
1.0000000000000000E+20
  9
$PEXTMAX
 10
-1.0000000000000000E+20
 20
-1.0000000000000000E+20
 30
-1.0000000000000000E+20
  9
$PLIMMIN
 10
0.0
 20
0.0
  9
$PLIMMAX
 10
12.0
 20
9.0
  9
$UNITMODE
 70
     0
  9
$VISRETAIN
 70
     1
  9
$PLINEGEN
 70
     0
  9
$PSLTSCALE
 70
     1
  0
ENDSEC
  0
SECTION
  2
TABLES
  0
TABLE
  2
VPORT
 70
     1
  0
VPORT
  2
*ACTIVE
 70
     0
 10
0.0
 20
0.0
 11
1.0
 21
1.0
 12
7.1513714574331324
 22
-4.9862653375714219
 13
0.0
 23
0.0
 14
1.0
 24
1.0
 15
0.0
 25
0.0
 16
0.0
 26
0.0
 36
63.9162099977688101
 17
3897.3812255859379547
 27
218.6350792099300975
 37
0.0
 40
25.1850032039205409
 41
2.0416666666666661
 42
50.0
 43
0.0
 44
0.0
 50
0.0
 51
0.0
 71
     0
 72
   100
 73
     1
 74
     1
 75
     0
 76
     0
 77
     0
 78
     0
  0
ENDTAB
  0
TABLE
  2
LTYPE
 70
     2
  0
LTYPE
  2
CONTINUOUS
 70
     0
  3
Solid line
 72
    65
 73
     0
 40
0.0
  0
LTYPE
  2
PHANTOM2
 70
     0
  3
___ _ _ ___ _ _ ___ _ _ ___ _ _
 72
    65
 73
     6
 40
1.25
 49
0.625
 49
-0.125
 49
0.125
 49
-0.125
 49
0.125
 49
-0.125
  0
ENDTAB
  0
TABLE
  2
LAYER
 70
     2
  0
LAYER
  2
0
 70
     0
 62
   255
  6
CONTINUOUS
  0
LAYER
  2
DEFPOINTS
 70
     0
 62
     7
  6
CONTINUOUS
  0
ENDTAB
  0
TABLE
  2
STYLE
 70
     1
  0
STYLE
  2
STANDARD
 70
     0
 40
0.0
 41
0.8
 50
0.0
 71
     0
 42
0.2
  3
txt
  4

  0
ENDTAB
  0
TABLE
  2
VIEW
 70
     0
  0
ENDTAB
  0
TABLE
  2
UCS
 70
     0
  0
ENDTAB
  0
TABLE
  2
APPID
 70
     9
  0
APPID
  2
ACAD
 70
     0
  0
APPID
  2
ACAD_MLEADERVER
 70
     0
  0
APPID
  2
ACAD_EXEMPT_FROM_CAD_STANDARDS
 70
     0
  0
APPID
  2
ACAD_NAV_VCDISPLAY
 70
     0
  0
APPID
  2
ACAECLAYERSTANDARD
 70
     0
  0
APPID
  2
ACCMTRANSPARENCY
 70
     0
  0
APPID
  2
ACAD_DSTYLE_DIMJAG
 70
     0
  0
APPID
  2
ACAD_DSTYLE_DIMTALN
 70
     0
  0
APPID
  2
ACDBATTR
 70
     0
  0
ENDTAB
  0
TABLE
  2
DIMSTYLE
 70
     1
  0
DIMSTYLE
  2
STANDARD
 70
     0
  3

  4

  5

  6

  7

 40
1.0
 41
0.1875
 42
0.0625
 43
0.38
 44
0.125
 45
0.0
 46
0.0
 47
0.01
 48
0.01
140
0.15625
141
0.09
142
0.0
143
25.3999999999999986
144
1.0
145
0.0
146
1.0
147
0.09
 71
     1
 72
     0
 73
     1
 74
     1
 75
     0
 76
     0
 77
     0
 78
     4
170
     0
171
     2
172
     0
173
     0
174
     0
175
     0
176
     0
177
     0
178
     0
  0
ENDTAB
  0
ENDSEC
  0
SECTION
  2
BLOCKS
  0
BLOCK
  8
0
  2
$MODEL_SPACE
 70
     0
 10
0.0
 20
0.0
 30
0.0
  3
$MODEL_SPACE
  1

  0
ENDBLK
  5
21
  8
0
  0
BLOCK
 67
     1
  8
0
  2
$PAPER_SPACE
 70
     0
 10
0.0
 20
0.0
 30
0.0
  3
$PAPER_SPACE
  1

  0
ENDBLK
  5
1D
 67
     1
  8
0
  0
BLOCK
  8
0
  2
_FILLED
 70
     0
 10
0.0
 20
0.0
 30
0.0
  3
_FILLED
  1

  0
SOLID
  5
6F59
  8
0
  6
BYBLOCK
 62
     0
 10
0.0
 20
0.0
 30
0.0
 11
-1.0
 21
0.1666666667
 31
0.0
 12
-1.0
 22
-0.1666666667
 32
0.0
 13
-1.0
 23
-0.1666666667
 33
0.0
  0
ENDBLK
  5
6F5A
  8
0
  6
BYBLOCK
 62
     0
  0
BLOCK
  8
0
  2
_CLOSED
 70
     0
 10
0.0
 20
0.0
 30
0.0
  3
_CLOSED
  1

  0
LINE
  5
9506
  8
0
  6
BYBLOCK
 62
     0
 10
0.0
 20
0.0
 30
0.0
 11
-1.0
 21
0.1666666667
 31
0.0
  0
LINE
  5
9507
  8
0
  6
BYBLOCK
 62
     0
 10
-1.0
 20
0.1666666667
 30
0.0
 11
-1.0
 21
-0.1666666667
 31
0.0
  0
LINE
  5
9508
  8
0
  6
BYBLOCK
 62
     0
 10
-1.0
 20
-0.1666666667
 30
0.0
 11
0.0
 21
0.0
 31
0.0
  0
LINE
  5
9509
  8
0
  6
BYBLOCK
 62
     0
 10
-1.0
 20
0.0
 30
0.0
 11
0.0
 21
0.0
 31
0.0
  0
ENDBLK
  5
950A
  8
0
  6
BYBLOCK
 62
     0
  0
ENDSEC
  0
SECTION
  2
ENTITIES
  0
ATTDEF
  5
3930
  8
DEFPOINTS
 10
3897.3816713967257783
 20
214.3866967092482128
 30
0.0
 40
0.001
  1
K-14406BR-4
  3

  2
MODELNUMBER
 70
     0
1001
ACDBATTR
1070
     0
1070
     1
  0
ATTDEF
  5
3931
  8
DEFPOINTS
 10
3897.3816713967257783
 20
214.3850300425814908
 30
0.0
 40
0.001
  1
PURIST
  3

  2
TRADENAME
 70
     0
1001
ACDBATTR
1070
     0
1070
     1
  0
ATTDEF
  5
3932
  8
DEFPOINTS
 10
3897.3816713967257783
 20
214.3833633759147972
 30
0.0
 40
0.001
  1
BATHROOM SINK FAUCET
  3

  2
PRODUCT
 70
     0
1001
ACDBATTR
1070
     0
1070
     1
  0
ARC
  5
B04A
  8
0
 10
3892.6236719295839066
 20
217.495245996919806
 30
0.0
 40
0.0149907485933936
 50
225.8808479249227901
 51
269.9976657502033959
  0
ARC
  5
B04B
  8
0
 10
3889.8713869592779702
 20
214.6943464474462928
 30
0.0
 40
3.9118544779631832
 50
45.5001216819397101
 51
48.165274396958111
  0
ARC
  5
B04C
  8
0
 10
3892.3800408908459758
 20
217.2077460653866012
 30
0.0
 40
0.4201549368598224
 50
80.589983471287951
 51
97.9792621364963736
  0
ARC
  5
B04D
  8
0
 10
3892.4350305305051734
 20
217.5447665235398063
 30
0.0
 40
0.0786834628680458
 50
54.670038268858292
 51
79.9690951028416492
  0
ARC
  5
B04E
  8
0
 10
3892.3344656452190975
 20
217.5270040241717879
 30
0.0
 40
0.0976648122343967
 50
97.5003593747147335
 51
121.4271393035675999
  0
ARC
  5
B04F
  8
0
 10
3894.8068047570459385
 20
214.7804848081545117
 30
0.0
 40
3.791430627716986
 50
131.7220280493075961
 51
134.5051778158535001
  0
ARC
  5
B050
  8
0
 10
3892.1387740080408548
 20
217.4950032354306018
 30
0.0
 40
0.0147483446763886
 50
269.6010152126439721
 51
314.5014955151119125
  0
LINE
  5
B051
  8
0
 10
3892.1386713073247847
 20
217.4802552483388922
 30
0.0
 11
3890.2111713072249586
 21
217.4802552483388922
 31
0.0
  0
ARC
  5
B052
  8
0
 10
3890.2111700714731342
 20
217.490254012523593
 30
0.0
 40
0.0099987642610981
 50
179.9970668656038129
 51
270.0070812125014186
  0
LINE
  5
B053
  8
0
 10
3890.2011713072251951
 20
217.4902545243888881
 30
0.0
 11
3890.2011713072251951
 21
218.0002545243889926
 31
0.0
  0
ARC
  5
B054
  8
0
 10
3890.2111713072999919
 20
218.000254524358013
 30
0.0
 40
0.0100000000745126
 50
90.0000004285022186
 51
179.999999823146112
  0
LINE
  5
B055
  8
0
 10
3890.2111713072249586
 20
218.0102545244324972
 30
0.0
 11
3893.3411713072250677
 21
218.0102545244324972
 31
0.0
  0
ARC
  5
B056
  8
0
 10
3893.341169601177171
 20
218.0002504055640884
 30
0.0
 40
0.010004119013916
 50
0.0235894119219334
 51
89.9902290933200106
  0
LINE
  5
B057
  8
0
 10
3893.351173719343933
 20
218.0002545243889926
 30
0.0
 11
3893.3511737193430235
 21
217.4902558678224977
 31
0.0
  0
ARC
  5
B058
  8
0
 10
3893.3411694844389785
 20
217.4902594837305116
 30
0.0
 40
0.0100042355576979
 50
270.0104393735451822
 51
359.9792911435603742
  0
LINE
  5
B059
  8
0
 10
3893.3411713072250677
 20
217.4802552483388922
 30
0.0
 11
3892.6236713188559406
 21
217.4802552483388922
 31
0.0
  0
LINE
  5
B05A
  8
0
 10
3892.1605721867208558
 20
217.4957010773566992
 30
0.0
 11
3892.1577195003951601
 21
216.8391636970783054
 31
0.0
  0
LINE
  5
B05B
  8
0
 10
3892.1577195003951601
 20
216.8391636970783054
 30
0.0
 11
3892.6046231140448981
 21
216.8391636970677041
 31
0.0
  0
LINE
  5
B05C
  8
0
 10
3892.6046231140448981
 20
216.8391636970677041
 30
0.0
 11
3892.6017583411671694
 21
217.4957171072699111
 31
0.0
  0
ARC
  5
B05D
  8
0
 10
3891.9077218802099196
 20
216.8402545244227895
 30
0.0
 40
0.2500000000339231
 50
270.0000000032047751
 51
359.7499999946866751
  0
ARC
  5
B05E
  8
0
 10
3892.8546207342387788
 20
216.8402545244227042
 30
0.0
 40
0.250000000033848
 50
180.2500000077234859
 51
269.9999999967952249
  0
LINE
  5
B05F
  8
0
 10
3892.9155588567250561
 20
216.5902545243889108
 30
0.0
 11
3891.846783757825051
 21
216.5902545243889108
 31
0.0
  0
ARC
  5
B060
  8
0
 10
3891.846783757825051
 20
216.5802545243888915
 30
0.0
 40
0.0100000000000007
 50
90.0
 51
178.9999986497458906
  0
LINE
  5
B061
  8
0
 10
3891.8367852808769385
 20
216.5804290486888988
 30
0.0
 11
3891.8367852808250973
 21
216.510080000188907
 31
0.0
  0
ARC
  5
B062
  8
0
 10
3891.846783757859157
 20
216.5102545244743908
 30
0.0
 40
0.0100000000855242
 50
181.0000006857119104
 51
269.999985285379978
  0
ARC
  5
B063
  8
0
 10
3892.9155588567609811
 20
216.5802545244777093
 30
0.0
 40
0.0099999999111891
 50
1.000000850205305
 51
90.0000002081542334
  0
ARC
  5
B064
  8
0
 10
3891.9182907044801141
 20
216.5452545251683034
 30
0.0
 40
1.0078806027443521
 50
358.0000000507708933
 51
1.999999871934707
  0
ARC
  5
B065
  8
0
 10
3892.9153811495639275
 20
216.5104353604577909
 30
0.0
 40
0.0101823868958343
 50
271.0000000369274744
 51
358.0000000507628215
  0
LINE
  5
B066
  8
0
 10
3892.9261713072251041
 20
216.5002545243889074
 30
0.0
 11
3891.8361713072240491
 21
216.5002545243889074
 31
0.0
  0
LINE
  5
B067
  8
0
 10
3891.8361713072240491
 20
216.5002545243889074
 30
0.0
 11
3891.8361713072240491
 21
214.8602545243888926
 31
0.0
  0
ARC
  5
B068
  8
0
 10
3891.8461717354930443
 20
214.8602547006142061
 30
0.0
 40
0.01000042826959
 50
180.0010096533962098
 51
269.4630336866541143
  0
LINE
  5
B069
  8
0
 10
3891.8460780145501303
 20
214.8502547115162997
 30
0.0
 11
3892.9162684738239477
 21
214.8502547115162997
 31
0.0
  0
ARC
  5
B06A
  8
0
 10
3892.9162688945748414
 20
214.8601575985053955
 30
0.0
 40
0.0099028869981634
 50
269.9975656335967074
 51
0.5607993629467867
  0
LINE
  5
B06B
  8
0
 10
3892.9261713072251041
 20
214.8602545243888926
 30
0.0
 11
3892.9261713072251041
 21
216.5002545243889074
 31
0.0
  0
ARC
  5
B06C
  8
0
 10
3892.9162681501329644
 20
214.8402543843506862
 30
0.0
 40
0.0100003271707983
 50
1.4852669770555771
 51
89.9981454450947211
  0
ARC
  5
B06D
  8
0
 10
3893.2056806016671544
 20
214.8477640628275083
 30
0.0
 40
0.2795095385931641
 50
181.4864179394024859
 51
269.9980947615861169
  0
LINE
  5
B06E
  8
0
 10
3893.3564014412131655
 20
214.568254524388891
 30
0.0
 11
3891.4061713069231701
 21
214.568254524388891
 31
0.0
  0
ARC
  5
B06F
  8
0
 10
3891.4061713069231701
 20
214.5532545246906011
 30
0.0
 40
0.0149999996983024
 50
90.0
 51
180.0000011523993066
  0
LINE
  5
B070
  8
0
 10
3891.3911713072247949
 20
214.5532545243889047
 30
0.0
 11
3891.3911713102420435
 21
214.403254524388899
 31
0.0
  0
ARC
  5
B071
  8
0
 10
3891.4061907536060971
 20
214.4032625782695902
 30
0.0
 40
0.0150194455243102
 50
180.0307237302403962
 51
269.9258102798510777
  0
LINE
  5
B072
  8
0
 10
3891.4061713056089502
 20
214.3882431453365029
 30
0.0
 11
3893.3563945085120395
 21
214.3882431453365029
 31
0.0
  0
ARC
  5
B073
  8
0
 10
3893.3563917080628016
 20
214.4026909117592083
 30
0.0
 40
0.0144477666942107
 50
270.0111057956854097
 51
359.9041066746463002
  0
LINE
  5
B074
  8
0
 10
3893.3708394545210467
 20
214.402666731204306
 30
0.0
 11
3893.3708394545210467
 21
214.553829370652096
 31
0.0
  0
ARC
  5
B075
  8
0
 10
3893.3563984685829382
 20
214.5538135300685951
 30
0.0
 40
0.0144409946262329
 50
0.0628487704384173
 51
89.9882058563073031
  0
ARC
  5
B076
  8
0
 10
3891.8460775781168195
 20
214.8402543819121888
 30
0.0
 40
0.0100003296135628
 50
89.9974995013395045
 51
178.5147235045511138
  0
ARC
  5
B077
  8
0
 10
3891.5566744193802151
 20
214.8477545236403898
 30
0.0
 40
0.2794999992515112
 50
269.9999998492191935
 51
358.515487303296311
  0
ARC
  5
B078
  8
0
 10
3897.3811744186441501
 20
222.5447545243889067
 30
0.0
 40
0.3435000000000024
 50
0.0
 51
180.0
  0
LINE
  5
B079
  8
0
 10
3897.0376744186442011
 20
222.5447545243889067
 30
0.0
 11
3897.0376744186442011
 21
218.1682545243889138
 31
0.0
  0
ARC
  5
B07A
  8
0
 10
3896.8776744186438918
 20
218.1682545243889138
 30
0.0
 40
0.160000000000001
 50
270.0
 51
0.0
  0
ARC
  5
B07B
  8
0
 10
3896.8511744186321266
 20
217.9932545244168978
 30
0.0
 40
0.0149999999720034
 50
90.0000000000260485
 51
180.0000001069383018
  0
LINE
  5
B07C
  8
0
 10
3896.8361744186599935
 20
217.9932545243889876
 30
0.0
 11
3896.8361744186599935
 21
214.8482545243888922
 31
0.0
  0
ARC
  5
B07D
  8
0
 10
3896.5561744186297801
 20
214.8482545244193886
 30
0.0
 40
0.2800000000305105
 50
270.0000000028920795
 51
359.9999999937566031
  0
LINE
  5
B07E
  8
0
 10
3898.3561744302151055
 20
214.568254524388891
 30
0.0
 11
3896.4061744071182147
 21
214.568254524388891
 31
0.0
  0
ARC
  5
B07F
  8
0
 10
3896.4061744071059366
 20
214.5532545359430969
 30
0.0
 40
0.0149999884458105
 50
89.9999999556802663
 51
180.0000441337635095
  0
LINE
  5
B080
  8
0
 10
3896.3911744186598298
 20
214.5532545243889047
 30
0.0
 11
3896.3911744186598298
 21
214.4032545243890127
 31
0.0
  0
ARC
  5
B081
  8
0
 10
3896.4061940705978486
 20
214.4032627866274083
 30
0.0
 40
0.0150196542106527
 50
180.0315181300188954
 51
269.9248491193819177
  0
LINE
  5
B082
  8
0
 10
3896.4061743703709908
 20
214.3882431453365029
 30
0.0
 11
3898.3561744669509608
 21
214.3882431453365029
 31
0.0
  0
ARC
  5
B083
  8
0
 10
3897.0434244186440083
 20
220.8907545243889103
 30
0.0
 40
0.0049999999999981
 50
89.9999999999739515
 51
180.0000000000194973
  0
LINE
  5
B084
  8
0
 10
3897.0384244186438991
 20
220.8907545243889103
 30
0.0
 11
3897.0384244186438991
 21
220.2057545243889081
 31
0.0
  0
ARC
  5
B085
  8
0
 10
3897.0484139917980428
 20
220.2057502053910127
 30
0.0
 40
0.0099895740874011
 50
179.9752281369854927
 51
269.9391425945602236
  0
LINE
  5
B086
  8
0
 10
3897.9111744186889155
 20
218.0082545243888887
 30
0.0
 11
3896.8511744186321266
 21
218.0082545243888887
 31
0.0
  0
LINE
  5
B087
  8
0
 10
3897.724674418676841
 20
222.5447545243889067
 30
0.0
 11
3897.724674418676841
 21
218.1682545243889138
 31
0.0
  0
ARC
  5
B088
  8
0
 10
3897.8846744186771502
 20
218.1682545243889138
 30
0.0
 40
0.160000000000001
 50
180.0
 51
270.0
  0
ARC
  5
B089
  8
0
 10
3897.9111744186889155
 20
217.9932545244168978
 30
0.0
 40
0.0149999999720034
 50
359.9999998930617267
 51
89.9999999999739515
  0
LINE
  5
B08A
  8
0
 10
3897.9261744186601391
 20
217.9932545243889876
 30
0.0
 11
3897.9261744186601391
 21
214.8482545243888922
 31
0.0
  0
ARC
  5
B08B
  8
0
 10
3898.2061744186908072
 20
214.8482545244193886
 30
0.0
 40
0.2800000000305105
 50
180.0000000062433969
 51
269.9999999971079205
  0
ARC
  5
B08C
  8
0
 10
3898.3561744302151055
 20
214.5532545359430969
 30
0.0
 40
0.0149999884458105
 50
359.9999558662365189
 51
90.0000000443197337
  0
LINE
  5
B08D
  8
0
 10
3898.3711744186612123
 20
214.5532545243889047
 30
0.0
 11
3898.3711744186612123
 21
214.4032545243890127
 31
0.0
  0
ARC
  5
B08E
  8
0
 10
3898.3561547667218292
 20
214.4032627866274083
 30
0.0
 40
0.0150196542106527
 50
270.0751508806180823
 51
359.9684818699810762
  0
ARC
  5
B08F
  8
0
 10
3897.7189244186770338
 20
220.8907545243889103
 30
0.0
 40
0.0049999999999981
 50
359.9999999999789111
 51
90.0000000000260485
  0
LINE
  5
B090
  8
0
 10
3897.723924418677143
 20
220.8907545243889103
 30
0.0
 11
3897.7239244186757787
 21
220.2057545243889081
 31
0.0
  0
ARC
  5
B091
  8
0
 10
3897.7139348455229992
 20
220.2057502053910127
 30
0.0
 40
0.0099895740874011
 50
270.06085740543989
 51
0.0247718630144848
  0
LINE
  5
B092
  8
0
 10
3897.0484033812531379
 20
220.1957606369385871
 30
0.0
 11
3897.7139454560679042
 21
220.1957606369385871
 31
0.0
  0
LINE
  5
B093
  8
0
 10
3897.0376744186442011
 20
220.8957545243889058
 30
0.0
 11
3897.724674418676841
 21
220.8957545243889058
 31
0.0
  0
ARC
  5
B094
  8
0
 10
3902.1386769077371355
 20
217.495245996919806
 30
0.0
 40
0.0149907485933936
 50
270.0023342497964904
 51
314.1191520750771815
  0
ARC
  5
B095
  8
0
 10
3904.8909618780439814
 20
214.6943464474462928
 30
0.0
 40
3.9118544779631832
 50
131.8347256030419032
 51
134.499878318060297
  0
ARC
  5
B096
  8
0
 10
3902.3823079464741568
 20
217.2077460653866012
 30
0.0
 40
0.4201549368598224
 50
82.0207378635036548
 51
99.410016528712049
  0
ARC
  5
B097
  8
0
 10
3902.3273183068149592
 20
217.5447665235398063
 30
0.0
 40
0.0786834628680458
 50
100.0309048971582939
 51
125.3299617311416938
  0
ARC
  5
B098
  8
0
 10
3902.4278831921019446
 20
217.5270040241717879
 30
0.0
 40
0.0976648122343967
 50
58.572860696432322
 51
82.499640625285295
  0
ARC
  5
B099
  8
0
 10
3899.9555440802741941
 20
214.7804848081545117
 30
0.0
 40
3.791430627716986
 50
45.4948221841464218
 51
48.2779719506924323
  0
ARC
  5
B09A
  8
0
 10
3902.6235748292801873
 20
217.4950032354306018
 30
0.0
 40
0.0147483446763886
 50
225.4985044848880875
 51
270.3989847873560279
  0
LINE
  5
B09B
  8
0
 10
3902.6236775299958026
 20
217.4802552483388922
 30
0.0
 11
3904.5511775300960835
 21
217.4802552483388922
 31
0.0
  0
ARC
  5
B09C
  8
0
 10
3904.5511787658479079
 20
217.490254012523593
 30
0.0
 40
0.0099987642610981
 50
269.9929187874985814
 51
0.0029331343962236
  0
LINE
  5
B09D
  8
0
 10
3904.561177530095847
 20
217.4902545243888881
 30
0.0
 11
3904.561177530095847
 21
218.0002545243889926
 31
0.0
  0
ARC
  5
B09E
  8
0
 10
3904.5511775300210502
 20
218.000254524358013
 30
0.0
 40
0.0100000000745126
 50
0.0000001768539034
 51
89.999999571497753
  0
LINE
  5
B09F
  8
0
 10
3904.5511775300960835
 20
218.0102545244324972
 30
0.0
 11
3901.4211775300959744
 21
218.0102545244324972
 31
0.0
  0
ARC
  5
B0A0
  8
0
 10
3901.4211792361438711
 20
218.0002504055640884
 30
0.0
 40
0.010004119013916
 50
90.0097709066800036
 51
179.9764105880780107
  0
LINE
  5
B0A1
  8
0
 10
3901.4111751179780185
 20
218.0002545243889926
 30
0.0
 11
3901.4111751179780185
 21
217.4902558678224977
 31
0.0
  0
ARC
  5
B0A2
  8
0
 10
3901.4211793528820635
 20
217.4902594837305116
 30
0.0
 40
0.0100042355576979
 50
180.0207088564395121
 51
269.9895606264548178
  0
LINE
  5
B0A3
  8
0
 10
3901.4211775300959744
 20
217.4802552483388922
 30
0.0
 11
3902.1386775184651015
 21
217.4802552483388922
 31
0.0
  0
LINE
  5
B0A4
  8
0
 10
3902.6017766506001863
 20
217.4957010773566992
 30
0.0
 11
3902.6046293369258819
 21
216.8391636970783054
 31
0.0
  0
LINE
  5
B0A5
  8
0
 10
3902.6046293369258819
 20
216.8391636970783054
 30
0.0
 11
3902.157725723276144
 21
216.8391636970677041
 31
0.0
  0
LINE
  5
B0A6
  8
0
 10
3902.157725723276144
 20
216.8391636970677041
 30
0.0
 11
3902.1605904961538727
 21
217.4957171072699111
 31
0.0
  0
ARC
  5
B0A7
  8
0
 10
3902.854626957110213
 20
216.8402545244227895
 30
0.0
 40
0.2500000000339231
 50
180.2500000053132965
 51
269.9999999967952249
  0
ARC
  5
B0A8
  8
0
 10
3901.9077281030831728
 20
216.8402545244227042
 30
0.0
 40
0.250000000033848
 50
270.0000000032047751
 51
359.7499999922765141
  0
LINE
  5
B0A9
  8
0
 10
3901.846789980595986
 20
216.5902545243889108
 30
0.0
 11
3902.9155650794959911
 21
216.5902545243889108
 31
0.0
  0
ARC
  5
B0AA
  8
0
 10
3902.9155650794959911
 20
216.5802545243888915
 30
0.0
 40
0.0100000000000007
 50
1.000001350254053
 51
90.0
  0
LINE
  5
B0AB
  8
0
 10
3902.9255635564441036
 20
216.5804290486888988
 30
0.0
 11
3902.9255635564959448
 21
216.510080000188907
 31
0.0
  0
ARC
  5
B0AC
  8
0
 10
3902.915565079461885
 20
216.5102545244743908
 30
0.0
 40
0.0100000000855242
 50
270.000014714620022
 51
358.9999993142881181
  0
ARC
  5
B0AD
  8
0
 10
3901.8467899805600609
 20
216.5802545244777093
 30
0.0
 40
0.0099999999111891
 50
89.9999997918457666
 51
178.9999991497946894
  0
ARC
  5
B0AE
  8
0
 10
3902.844058132840928
 20
216.5452545251683034
 30
0.0
 40
1.0078806027443521
 50
178.0000001280652953
 51
181.9999999492291067
  0
ARC
  5
B0AF
  8
0
 10
3901.8469676877571146
 20
216.5104353604577909
 30
0.0
 40
0.0101823868958343
 50
181.9999999492372069
 51
268.9999999630725256
  0
LINE
  5
B0B0
  8
0
 10
3901.836177530095938
 20
216.5002545243889074
 30
0.0
 11
3902.9261775300960835
 21
216.5002545243889074
 31
0.0
  0
LINE
  5
B0B1
  8
0
 10
3902.9261775300960835
 20
216.5002545243889074
 30
0.0
 11
3902.9261775300960835
 21
214.8602545243888926
 31
0.0
  0
ARC
  5
B0B2
  8
0
 10
3902.9161771018279978
 20
214.8602547006142061
 30
0.0
 40
0.01000042826959
 50
270.5369663133458857
 51
359.998990346602227
  0
LINE
  5
B0B3
  8
0
 10
3902.9162708227709118
 20
214.8502547115162997
 30
0.0
 11
3901.8460803634970944
 21
214.8502547115162997
 31
0.0
  0
ARC
  5
B0B4
  8
0
 10
3901.8460799427448364
 20
214.8601575985053955
 30
0.0
 40
0.0099028869981634
 50
179.4392006370532044
 51
270.002434366403179
  0
LINE
  5
B0B5
  8
0
 10
3901.836177530095938
 20
214.8602545243888926
 30
0.0
 11
3901.836177530095938
 21
216.5002545243889074
 31
0.0
  0
ARC
  5
B0B6
  8
0
 10
3901.8460806871880777
 20
214.8402543843506862
 30
0.0
 40
0.0100003271707983
 50
90.0018545549052931
 51
178.514733022944398
  0
ARC
  5
B0B7
  8
0
 10
3901.5566682356538877
 20
214.8477640628275083
 30
0.0
 40
0.2795095385931641
 50
270.0019052384138831
 51
358.5135820605974004
  0
LINE
  5
B0B8
  8
0
 10
3901.4059473961069671
 20
214.568254524388891
 30
0.0
 11
3903.356177530397872
 21
214.568254524388891
 31
0.0
  0
ARC
  5
B0B9
  8
0
 10
3903.356177530397872
 20
214.5532545246906011
 30
0.0
 40
0.0149999996983024
 50
359.9999988476005797
 51
90.0
  0
LINE
  5
B0BA
  8
0
 10
3903.3711775300957925
 20
214.5532545243889047
 30
0.0
 11
3903.3711775270789985
 21
214.403254524388899
 31
0.0
  0
ARC
  5
B0BB
  8
0
 10
3903.356158083714945
 20
214.4032625782695902
 30
0.0
 40
0.0150194455243102
 50
270.0741897201488086
 51
359.9692762697595185
  0
LINE
  5
B0BC
  8
0
 10
3903.3561775317111824
 20
214.3882431453365029
 30
0.0
 11
3901.4059543288080931
 21
214.3882431453365029
 31
0.0
  0
ARC
  5
B0BD
  8
0
 10
3901.4059571292577857
 20
214.4026909117592083
 30
0.0
 40
0.0144477666942107
 50
180.0958933253535861
 51
269.9888942043144766
  0
LINE
  5
B0BE
  8
0
 10
3901.3915093827990859
 20
214.402666731204306
 30
0.0
 11
3901.3915093827990859
 21
214.553829370652096
 31
0.0
  0
ARC
  5
B0BF
  8
0
 10
3901.4059503687371944
 20
214.5538135300685951
 30
0.0
 40
0.0144409946262329
 50
90.0117941436926827
 51
179.9371512295614934
  0
ARC
  5
B0C0
  8
0
 10
3902.9162712592051321
 20
214.8402543819121888
 30
0.0
 40
0.0100003296135628
 50
1.485276495448854
 51
90.0025004986604955
  0
ARC
  5
B0C1
  8
0
 10
3903.2056744179421912
 20
214.8477545236403898
 30
0.0
 40
0.2794999992515112
 50
181.4845126967036038
 51
270.0000001507809202
  0
ENDSEC
  0
EOF
