  0
SECTION
  2
HEADER
  9
$ACADVER
  1
AC1009
  9
$INSBASE
 10
3870.7345006654350072
 20
212.4823049768791918
 30
0.0
  9
$EXTMIN
 10
3869.614584517980802
 20
206.6656969456711863
 30
0.0
  9
$EXTMAX
 10
3871.8544168128769343
 20
213.6023049456711931
 30
0.0
  9
$LIMMIN
 10
0.0
 20
0.0
  9
$LIMMAX
 10
11.6929133858000007
 20
8.2677165353999982
  9
$ORTHOMODE
 70
     0
  9
$REGENMODE
 70
     1
  9
$FILLMODE
 70
     1
  9
$QTEXTMODE
 70
     0
  9
$MIRRTEXT
 70
     0
  9
$DRAGMODE
 70
     2
  9
$LTSCALE
 40
0.6431102362
  9
$OSMODE
 70
  3839
  9
$ATTMODE
 70
     1
  9
$TEXTSIZE
 40
0.2
  9
$TRACEWID
 40
0.05
  9
$TEXTSTYLE
  7
STANDARD
  9
$CLAYER
  8
0
  9
$CELTYPE
  6
BYLAYER
  9
$CECOLOR
 62
   256
  9
$DIMSCALE
 40
1.0
  9
$DIMASZ
 40
0.1875
  9
$DIMEXO
 40
0.0625
  9
$DIMDLI
 40
0.4443307087
  9
$DIMRND
 40
0.0
  9
$DIMDLE
 40
0.0
  9
$DIMEXE
 40
0.125
  9
$DIMTP
 40
0.01
  9
$DIMTM
 40
0.01
  9
$DIMTXT
 40
2.0
  9
$DIMCEN
 40
0.1052362205
  9
$DIMTSZ
 40
0.0
  9
$DIMTOL
 70
     1
  9
$DIMLIM
 70
     0
  9
$DIMTIH
 70
     1
  9
$DIMTOH
 70
     1
  9
$DIMSE1
 70
     0
  9
$DIMSE2
 70
     0
  9
$DIMTAD
 70
     0
  9
$DIMZIN
 70
     0
  9
$DIMBLK
  1

  9
$DIMASO
 70
     1
  9
$DIMSHO
 70
     1
  9
$DIMPOST
  1
\X
  9
$DIMAPOST
  1

  9
$DIMALT
 70
     1
  9
$DIMALTD
 70
     2
  9
$DIMALTF
 40
25.3999999999999986
  9
$DIMLFAC
 40
1.0
  9
$DIMTOFL
 70
     0
  9
$DIMTVP
 40
0.0
  9
$DIMTIX
 70
     0
  9
$DIMSOXD
 70
     0
  9
$DIMSAH
 70
     0
  9
$DIMBLK1
  1

  9
$DIMBLK2
  1

  9
$DIMSTYLE
  2
STANDARD
  9
$DIMCLRD
 70
     0
  9
$DIMCLRE
 70
     0
  9
$DIMCLRT
 70
     0
  9
$DIMTFAC
 40
1.0
  9
$DIMGAP
 40
0.09
  9
$LUNITS
 70
     2
  9
$LUPREC
 70
     4
  9
$SKETCHINC
 40
0.1
  9
$FILLETRAD
 40
0.0
  9
$AUNITS
 70
     0
  9
$AUPREC
 70
     0
  9
$MENU
  1
.
  9
$ELEVATION
 40
0.0
  9
$PELEVATION
 40
0.0
  9
$THICKNESS
 40
0.0
  9
$LIMCHECK
 70
     0
  9
$BLIPMODE
 70
     0
  9
$CHAMFERA
 40
0.0
  9
$CHAMFERB
 40
0.0
  9
$SKPOLY
 70
     0
  9
$TDCREATE
 40
2458060.468368056230247
  9
$TDUPDATE
 40
2459233.7396296299993992
  9
$TDINDWG
 40
0.5784445602
  9
$TDUSRTIMER
 40
0.5784445602
  9
$USRTIMER
 70
     1
  9
$ANGBASE
 50
0.0
  9
$ANGDIR
 70
     0
  9
$PDMODE
 70
     0
  9
$PDSIZE
 40
0.3125
  9
$PLINEWID
 40
0.0
  9
$COORDS
 70
     1
  9
$SPLFRAME
 70
     0
  9
$SPLINETYPE
 70
     6
  9
$SPLINESEGS
 70
     8
  9
$ATTDIA
 70
     1
  9
$ATTREQ
 70
     1
  9
$HANDLING
 70
     1
  9
$HANDSEED
  5
B0E9
  9
$SURFTAB1
 70
     6
  9
$SURFTAB2
 70
     6
  9
$SURFTYPE
 70
     6
  9
$SURFU
 70
     6
  9
$SURFV
 70
     6
  9
$UCSNAME
  2

  9
$UCSORG
 10
0.0
 20
0.0
 30
0.0
  9
$UCSXDIR
 10
1.0
 20
0.0
 30
0.0
  9
$UCSYDIR
 10
0.0
 20
1.0
 30
0.0
  9
$PUCSNAME
  2

  9
$PUCSORG
 10
0.0
 20
0.0
 30
0.0
  9
$PUCSXDIR
 10
1.0
 20
0.0
 30
0.0
  9
$PUCSYDIR
 10
0.0
 20
1.0
 30
0.0
  9
$USERI1
 70
     0
  9
$USERI2
 70
     0
  9
$USERI3
 70
     0
  9
$USERI4
 70
     0
  9
$USERI5
 70
     0
  9
$USERR1
 40
0.0
  9
$USERR2
 40
0.0
  9
$USERR3
 40
0.0
  9
$USERR4
 40
0.0
  9
$USERR5
 40
0.0
  9
$WORLDVIEW
 70
     1
  9
$SHADEDGE
 70
     3
  9
$SHADEDIF
 70
    70
  9
$TILEMODE
 70
     1
  9
$MAXACTVP
 70
    64
  9
$PLIMCHECK
 70
     0
  9
$PEXTMIN
 10
1.0000000000000000E+20
 20
1.0000000000000000E+20
 30
1.0000000000000000E+20
  9
$PEXTMAX
 10
-1.0000000000000000E+20
 20
-1.0000000000000000E+20
 30
-1.0000000000000000E+20
  9
$PLIMMIN
 10
0.0
 20
0.0
  9
$PLIMMAX
 10
12.0
 20
9.0
  9
$UNITMODE
 70
     0
  9
$VISRETAIN
 70
     1
  9
$PLINEGEN
 70
     0
  9
$PSLTSCALE
 70
     1
  0
ENDSEC
  0
SECTION
  2
TABLES
  0
TABLE
  2
VPORT
 70
     1
  0
VPORT
  2
*ACTIVE
 70
     0
 10
0.0
 20
0.0
 11
1.0
 21
1.0
 12
-3.3801881158619831
 22
-2.5395454709193639
 13
0.0
 23
0.0
 14
1.0
 24
1.0
 15
0.0
 25
0.0
 16
0.0
 26
0.0
 36
0.03537411500283
 17
3874.1146887812910791
 27
212.6735464165905967
 37
0.0
 40
7.0052872871287484
 41
2.9735537190082639
 42
50.0
 43
0.0
 44
0.0
 50
0.0
 51
0.0
 71
     0
 72
   100
 73
     1
 74
     1
 75
     0
 76
     0
 77
     0
 78
     0
  0
ENDTAB
  0
TABLE
  2
LTYPE
 70
     2
  0
LTYPE
  2
CONTINUOUS
 70
     0
  3
Solid line
 72
    65
 73
     0
 40
0.0
  0
LTYPE
  2
PHANTOM2
 70
     0
  3
___ _ _ ___ _ _ ___ _ _ ___ _ _
 72
    65
 73
     6
 40
1.25
 49
0.625
 49
-0.125
 49
0.125
 49
-0.125
 49
0.125
 49
-0.125
  0
ENDTAB
  0
TABLE
  2
LAYER
 70
     2
  0
LAYER
  2
0
 70
     0
 62
   255
  6
CONTINUOUS
  0
LAYER
  2
DEFPOINTS
 70
     0
 62
     7
  6
CONTINUOUS
  0
ENDTAB
  0
TABLE
  2
STYLE
 70
     1
  0
STYLE
  2
STANDARD
 70
     0
 40
0.0
 41
0.8
 50
0.0
 71
     0
 42
0.2
  3
txt
  4

  0
ENDTAB
  0
TABLE
  2
VIEW
 70
     0
  0
ENDTAB
  0
TABLE
  2
UCS
 70
     0
  0
ENDTAB
  0
TABLE
  2
APPID
 70
     9
  0
APPID
  2
ACAD
 70
     0
  0
APPID
  2
ACAD_MLEADERVER
 70
     0
  0
APPID
  2
ACAD_EXEMPT_FROM_CAD_STANDARDS
 70
     0
  0
APPID
  2
ACAD_NAV_VCDISPLAY
 70
     0
  0
APPID
  2
ACAECLAYERSTANDARD
 70
     0
  0
APPID
  2
ACCMTRANSPARENCY
 70
     0
  0
APPID
  2
ACAD_DSTYLE_DIMJAG
 70
     0
  0
APPID
  2
ACAD_DSTYLE_DIMTALN
 70
     0
  0
APPID
  2
ACDBATTR
 70
     0
  0
ENDTAB
  0
TABLE
  2
DIMSTYLE
 70
     1
  0
DIMSTYLE
  2
STANDARD
 70
     0
  3

  4

  5

  6

  7

 40
1.0
 41
0.1875
 42
0.0625
 43
0.38
 44
0.125
 45
0.0
 46
0.0
 47
0.01
 48
0.01
140
0.15625
141
0.09
142
0.0
143
25.3999999999999986
144
1.0
145
0.0
146
1.0
147
0.09
 71
     1
 72
     0
 73
     1
 74
     1
 75
     0
 76
     0
 77
     0
 78
     4
170
     0
171
     2
172
     0
173
     0
174
     0
175
     0
176
     0
177
     0
178
     0
  0
ENDTAB
  0
ENDSEC
  0
SECTION
  2
BLOCKS
  0
BLOCK
  8
0
  2
$MODEL_SPACE
 70
     0
 10
0.0
 20
0.0
 30
0.0
  3
$MODEL_SPACE
  1

  0
ENDBLK
  5
21
  8
0
  0
BLOCK
 67
     1
  8
0
  2
$PAPER_SPACE
 70
     0
 10
0.0
 20
0.0
 30
0.0
  3
$PAPER_SPACE
  1

  0
ENDBLK
  5
1D
 67
     1
  8
0
  0
BLOCK
  8
0
  2
_FILLED
 70
     0
 10
0.0
 20
0.0
 30
0.0
  3
_FILLED
  1

  0
SOLID
  5
6F59
  8
0
  6
BYBLOCK
 62
     0
 10
0.0
 20
0.0
 30
0.0
 11
-1.0
 21
0.1666666667
 31
0.0
 12
-1.0
 22
-0.1666666667
 32
0.0
 13
-1.0
 23
-0.1666666667
 33
0.0
  0
ENDBLK
  5
6F5A
  8
0
  6
BYBLOCK
 62
     0
  0
BLOCK
  8
0
  2
_CLOSED
 70
     0
 10
0.0
 20
0.0
 30
0.0
  3
_CLOSED
  1

  0
LINE
  5
9506
  8
0
  6
BYBLOCK
 62
     0
 10
0.0
 20
0.0
 30
0.0
 11
-1.0
 21
0.1666666667
 31
0.0
  0
LINE
  5
9507
  8
0
  6
BYBLOCK
 62
     0
 10
-1.0
 20
0.1666666667
 30
0.0
 11
-1.0
 21
-0.1666666667
 31
0.0
  0
LINE
  5
9508
  8
0
  6
BYBLOCK
 62
     0
 10
-1.0
 20
-0.1666666667
 30
0.0
 11
0.0
 21
0.0
 31
0.0
  0
LINE
  5
9509
  8
0
  6
BYBLOCK
 62
     0
 10
-1.0
 20
0.0
 30
0.0
 11
0.0
 21
0.0
 31
0.0
  0
ENDBLK
  5
950A
  8
0
  6
BYBLOCK
 62
     0
  0
ENDSEC
  0
SECTION
  2
ENTITIES
  0
ATTDEF
  5
3930
  8
DEFPOINTS
 10
3870.7349600385659869
 20
212.4860139244098036
 30
0.0
 40
0.001
  1
K-14402BR-4AND
  3

  2
MODELNUMBER
 70
     0
1001
ACDBATTR
1070
     0
1070
     1
  0
ATTDEF
  5
3931
  8
DEFPOINTS
 10
3870.7349600385659869
 20
212.48434725774311
 30
0.0
 40
0.001
  1
PURIST
  3

  2
TRADENAME
 70
     0
1001
ACDBATTR
1070
     0
1070
     1
  0
ATTDEF
  5
3932
  8
DEFPOINTS
 10
3870.7349600385659869
 20
212.4826805910763881
 30
0.0
 40
0.001
  1
BATHROOM SINK FAUCET
  3

  2
PRODUCT
 70
     0
1001
ACDBATTR
1070
     0
1070
     1
  0
LINE
  5
AED5
  8
0
 10
3870.3295006654848294
 20
206.9969593828330119
 30
0.0
 11
3870.3295006654848294
 21
211.6663867641694026
 31
0.0
  0
ARC
  5
AED6
  8
0
 10
3870.7352036568349831
 20
212.4816860273186023
 30
0.0
 40
1.120619138854378
 50
90.0359430260998153
 51
248.7747946220493986
  0
ARC
  5
AED7
  8
0
 10
3870.7345006654850295
 20
212.4812947344335043
 30
0.0
 40
0.9100000000000001
 50
100.0760201834855962
 51
250.4293934536667052
  0
ARC
  5
AED8
  8
0
 10
3870.7345006654850295
 20
212.4812947344335043
 30
0.0
 40
0.9100000000000001
 50
283.9903364714588747
 51
284.4681398691395771
  0
ARC
  5
AED9
  8
0
 10
3870.7345006654850295
 20
212.4812947344335043
 30
0.0
 40
0.8822310971554653
 50
284.4401031438251835
 51
255.5598968494948053
  0
LINE
  5
AEDA
  8
0
 10
3870.565344756982995
 20
213.3534548237699084
 30
0.0
 11
3870.5653447453842091
 21
213.3599411900511029
 31
0.0
  0
ARC
  5
AEDB
  8
0
 10
3870.5853938271129664
 20
213.3599412259042936
 30
0.0
 40
0.0200490817297504
 50
102.8298848182651994
 51
180.0001024602470068
  0
ARC
  5
AEDC
  8
0
 10
3870.5737949435419978
 20
213.3227972802932015
 30
0.0
 40
0.0357516686411513
 50
103.6716873311412996
 51
121.3996149870857977
  0
ARC
  5
AEDD
  8
0
 10
3870.5576102024701868
 20
213.5436303500449924
 30
0.0
 40
0.190332745809932
 50
269.26486039201518
 51
279.479678111476801
  0
ARC
  5
AEDE
  8
0
 10
3870.7388129494629538
 20
212.1827737609652047
 30
0.0
 40
1.1826555849954541
 50
90.2089164635297465
 51
97.2795695065252914
  0
LINE
  5
AEDF
  8
0
 10
3871.1395006653851851
 20
206.9969593828330119
 30
0.0
 11
3871.1395006653851851
 21
211.6663867641694026
 31
0.0
  0
ARC
  5
AEE0
  8
0
 10
3870.7337976740200247
 20
212.4816860273161012
 30
0.0
 40
1.120619138856898
 50
291.2252053786730812
 51
89.9640569732227249
  0
LINE
  5
AEE1
  8
0
 10
3870.9036565738870195
 20
213.3534548237699084
 30
0.0
 11
3870.9036565854848959
 21
213.3599411900511029
 31
0.0
  0
ARC
  5
AEE2
  8
0
 10
3870.8836075037561386
 20
213.3599412259042936
 30
0.0
 40
0.0200490817297504
 50
359.9998975397513732
 51
77.1701151817347721
  0
ARC
  5
AEE3
  8
0
 10
3870.8952063873280167
 20
213.3227972802932015
 30
0.0
 40
0.0357516686411513
 50
58.6003850129142165
 51
76.3283126688587146
  0
ARC
  5
AEE4
  8
0
 10
3870.9113911283998277
 20
213.5436303500449924
 30
0.0
 40
0.190332745809932
 50
260.520321888523199
 51
270.73513960798482
  0
ARC
  5
AEE5
  8
0
 10
3870.7301883814061512
 20
212.1827737609652047
 30
0.0
 40
1.1826555849954541
 50
82.7204304934747086
 51
89.7910835364702535
  0
ARC
  5
AEE6
  8
0
 10
3870.7345006654350072
 20
207.0789037743406027
 30
0.0
 40
0.41320682866944
 50
191.4383401287255992
 51
348.5616598712744008
  0
ARC
  5
AEE7
  8
0
 10
3870.7344997802788384
 20
212.4816008603172861
 30
0.0
 40
0.2203627109377544
 50
3.2838081295566881
 51
176.7081660898936093
  0
ARC
  5
AEE8
  8
0
 10
3870.7345006654350072
 20
212.4823049768791918
 30
0.0
 40
0.2249390517442368
 50
347.9711289990361252
 51
192.0288710010601108
  0
ARC
  5
AEE9
  8
0
 10
3870.7345006654350072
 20
212.8018554328749019
 30
0.0
 40
0.5976970303415855
 50
75.1127590129592306
 51
104.8872409870406983
  0
LINE
  5
AEEE
  8
0
 10
3870.9545006654348072
 20
209.2423049768790975
 30
0.0
 11
3870.9545006654348072
 21
212.4942236532860136
 31
0.0
  0
LINE
  5
AEEF
  8
0
 10
3870.5145006654352073
 20
209.2423049768790975
 30
0.0
 11
3870.5145006654352073
 21
212.4942544700710982
 31
0.0
  0
ARC
  5
AEF1
  8
0
 10
3870.5245006654340614
 20
209.2423049768790975
 30
0.0
 40
0.0100000000000046
 50
180.0
 51
270.0
  0
ARC
  5
AEF2
  8
0
 10
3870.9445006654350436
 20
209.2423049768790975
 30
0.0
 40
0.0099999999999932
 50
270.0
 51
0.0
  0
ARC
  5
AF8B
  8
0
 10
3870.9900506763319754
 20
211.6464380393856004
 30
0.0
 40
0.0541953740034619
 50
229.0074988983359958
 51
352.238486116876004
  0
LINE
  5
AF8C
  8
0
 10
3870.9445006654350436
 20
209.2323049768791918
 30
0.0
 11
3870.5245006654340614
 21
209.2323049768791918
 31
0.0
  0
ARC
  5
AF8D
  8
0
 10
3870.8408815222192061
 20
207.2134623442117061
 30
0.0
 40
0.2988790734996604
 50
319.2169836143140174
 51
357.6102644839190248
  0
ARC
  5
AF8E
  8
0
 10
3870.6281198086508084
 20
207.2134623442117061
 30
0.0
 40
0.2988790734996604
 50
182.3897355160810037
 51
220.7830163856860111
  0
ARC
  5
AF8F
  8
0
 10
3870.7345006654350072
 20
207.3326005994659909
 30
0.0
 40
0.4577194437141605
 50
223.3778851347800867
 51
316.6221148652198281
  0
LINE
  5
AF90
  8
0
 10
3870.9545006654348072
 20
211.611832841053797
 30
0.0
 11
3871.0437495545038473
 21
211.6391189515697988
 31
0.0
  0
LINE
  5
AF91
  8
0
 10
3871.0437495545038473
 20
211.6391189515697988
 30
0.0
 11
3871.0402963454348537
 21
211.6504138896792142
 31
0.0
  0
LINE
  5
AF92
  8
0
 10
3871.0402963454348537
 20
211.6504138896792142
 30
0.0
 11
3870.9545006654348072
 21
211.6237940065167038
 31
0.0
  0
ARC
  5
AF93
  8
0
 10
3870.4789506545380391
 20
211.6464380393856004
 30
0.0
 40
0.0541953740034619
 50
187.761513883123996
 51
310.9925011016638905
  0
LINE
  5
AF94
  8
0
 10
3870.5145006654361168
 20
211.611832841053797
 30
0.0
 11
3870.4252517763661672
 21
211.6391189515697988
 31
0.0
  0
LINE
  5
AF95
  8
0
 10
3870.4252517763661672
 20
211.6391189515697988
 30
0.0
 11
3870.4287049854351608
 21
211.6504138896792142
 31
0.0
  0
LINE
  5
AF96
  8
0
 10
3870.4287049854351608
 20
211.6504138896792142
 30
0.0
 11
3870.5145006654361168
 21
211.6237940065167038
 31
0.0
  0
ARC
  5
AF9D
  8
0
 10
3870.7345006654850295
 20
212.4812947344335043
 30
0.0
 40
0.9100000000000001
 50
289.5706065383420196
 51
79.9239798256969465
  0
ARC
  5
AF9E
  8
0
 10
3870.7345006654850295
 20
212.4812947344335043
 30
0.0
 40
0.9100000000000001
 50
255.5318601262779907
 51
256.0096635220781991
  0
ENDSEC
  0
EOF
