  0
SECTION
  2
HEADER
  9
$ACADVER
  1
AC1009
  9
$INSBASE
 10
3874.1088071630838385
 20
212.6765838569077971
 30
0.0
  9
$EXTMIN
 10
3872.9888906748078625
 20
212.6713797499238865
 30
0.0
  9
$EXTMAX
 10
3875.2287236513611788
 20
220.4178040299823067
 30
0.0
  9
$LIMMIN
 10
0.0
 20
0.0
  9
$LIMMAX
 10
11.6929133858000007
 20
8.2677165353999982
  9
$ORTHOMODE
 70
     0
  9
$REGENMODE
 70
     1
  9
$FILLMODE
 70
     1
  9
$QTEXTMODE
 70
     0
  9
$MIRRTEXT
 70
     0
  9
$DRAGMODE
 70
     2
  9
$LTSCALE
 40
0.6431102362
  9
$OSMODE
 70
  3839
  9
$ATTMODE
 70
     1
  9
$TEXTSIZE
 40
0.2
  9
$TRACEWID
 40
0.05
  9
$TEXTSTYLE
  7
STANDARD
  9
$CLAYER
  8
0
  9
$CELTYPE
  6
BYLAYER
  9
$CECOLOR
 62
   256
  9
$DIMSCALE
 40
1.0
  9
$DIMASZ
 40
0.1875
  9
$DIMEXO
 40
0.0625
  9
$DIMDLI
 40
0.4443307087
  9
$DIMRND
 40
0.0
  9
$DIMDLE
 40
0.0
  9
$DIMEXE
 40
0.125
  9
$DIMTP
 40
0.01
  9
$DIMTM
 40
0.01
  9
$DIMTXT
 40
2.0
  9
$DIMCEN
 40
0.1052362205
  9
$DIMTSZ
 40
0.0
  9
$DIMTOL
 70
     1
  9
$DIMLIM
 70
     0
  9
$DIMTIH
 70
     1
  9
$DIMTOH
 70
     1
  9
$DIMSE1
 70
     0
  9
$DIMSE2
 70
     0
  9
$DIMTAD
 70
     0
  9
$DIMZIN
 70
     0
  9
$DIMBLK
  1

  9
$DIMASO
 70
     1
  9
$DIMSHO
 70
     1
  9
$DIMPOST
  1
\X
  9
$DIMAPOST
  1

  9
$DIMALT
 70
     1
  9
$DIMALTD
 70
     2
  9
$DIMALTF
 40
25.3999999999999986
  9
$DIMLFAC
 40
1.0
  9
$DIMTOFL
 70
     0
  9
$DIMTVP
 40
0.0
  9
$DIMTIX
 70
     0
  9
$DIMSOXD
 70
     0
  9
$DIMSAH
 70
     0
  9
$DIMBLK1
  1

  9
$DIMBLK2
  1

  9
$DIMSTYLE
  2
STANDARD
  9
$DIMCLRD
 70
     0
  9
$DIMCLRE
 70
     0
  9
$DIMCLRT
 70
     0
  9
$DIMTFAC
 40
1.0
  9
$DIMGAP
 40
0.09
  9
$LUNITS
 70
     2
  9
$LUPREC
 70
     4
  9
$SKETCHINC
 40
0.1
  9
$FILLETRAD
 40
0.0
  9
$AUNITS
 70
     0
  9
$AUPREC
 70
     0
  9
$MENU
  1
.
  9
$ELEVATION
 40
0.0
  9
$PELEVATION
 40
0.0
  9
$THICKNESS
 40
0.0
  9
$LIMCHECK
 70
     0
  9
$BLIPMODE
 70
     0
  9
$CHAMFERA
 40
0.0
  9
$CHAMFERB
 40
0.0
  9
$SKPOLY
 70
     0
  9
$TDCREATE
 40
2458060.468368056230247
  9
$TDUPDATE
 40
2459233.7398958331905305
  9
$TDINDWG
 40
0.5766390045999999
  9
$TDUSRTIMER
 40
0.5766390045999999
  9
$USRTIMER
 70
     1
  9
$ANGBASE
 50
0.0
  9
$ANGDIR
 70
     0
  9
$PDMODE
 70
     0
  9
$PDSIZE
 40
0.3125
  9
$PLINEWID
 40
0.0
  9
$COORDS
 70
     1
  9
$SPLFRAME
 70
     0
  9
$SPLINETYPE
 70
     6
  9
$SPLINESEGS
 70
     8
  9
$ATTDIA
 70
     1
  9
$ATTREQ
 70
     1
  9
$HANDLING
 70
     1
  9
$HANDSEED
  5
AFCB
  9
$SURFTAB1
 70
     6
  9
$SURFTAB2
 70
     6
  9
$SURFTYPE
 70
     6
  9
$SURFU
 70
     6
  9
$SURFV
 70
     6
  9
$UCSNAME
  2

  9
$UCSORG
 10
0.0
 20
0.0
 30
0.0
  9
$UCSXDIR
 10
1.0
 20
0.0
 30
0.0
  9
$UCSYDIR
 10
0.0
 20
1.0
 30
0.0
  9
$PUCSNAME
  2

  9
$PUCSORG
 10
0.0
 20
0.0
 30
0.0
  9
$PUCSXDIR
 10
1.0
 20
0.0
 30
0.0
  9
$PUCSYDIR
 10
0.0
 20
1.0
 30
0.0
  9
$USERI1
 70
     0
  9
$USERI2
 70
     0
  9
$USERI3
 70
     0
  9
$USERI4
 70
     0
  9
$USERI5
 70
     0
  9
$USERR1
 40
0.0
  9
$USERR2
 40
0.0
  9
$USERR3
 40
0.0
  9
$USERR4
 40
0.0
  9
$USERR5
 40
0.0
  9
$WORLDVIEW
 70
     1
  9
$SHADEDGE
 70
     3
  9
$SHADEDIF
 70
    70
  9
$TILEMODE
 70
     1
  9
$MAXACTVP
 70
    64
  9
$PLIMCHECK
 70
     0
  9
$PEXTMIN
 10
1.0000000000000000E+20
 20
1.0000000000000000E+20
 30
1.0000000000000000E+20
  9
$PEXTMAX
 10
-1.0000000000000000E+20
 20
-1.0000000000000000E+20
 30
-1.0000000000000000E+20
  9
$PLIMMIN
 10
0.0
 20
0.0
  9
$PLIMMAX
 10
12.0
 20
9.0
  9
$UNITMODE
 70
     0
  9
$VISRETAIN
 70
     1
  9
$PLINEGEN
 70
     0
  9
$PSLTSCALE
 70
     1
  0
ENDSEC
  0
SECTION
  2
TABLES
  0
TABLE
  2
VPORT
 70
     1
  0
VPORT
  2
*ACTIVE
 70
     0
 10
0.0
 20
0.0
 11
1.0
 21
1.0
 12
-0.0058816182070149
 22
3.8710454733625421
 13
0.0
 23
0.0
 14
1.0
 24
1.0
 15
0.0
 25
0.0
 16
0.0
 26
0.0
 36
0.03537411500283
 17
3874.1146887812910791
 27
212.6735464165905967
 37
0.0
 40
7.823121550158036
 41
2.9735537190082639
 42
50.0
 43
0.0
 44
0.0
 50
0.0
 51
0.0
 71
     0
 72
   100
 73
     1
 74
     1
 75
     0
 76
     0
 77
     0
 78
     0
  0
ENDTAB
  0
TABLE
  2
LTYPE
 70
     2
  0
LTYPE
  2
CONTINUOUS
 70
     0
  3
Solid line
 72
    65
 73
     0
 40
0.0
  0
LTYPE
  2
PHANTOM2
 70
     0
  3
___ _ _ ___ _ _ ___ _ _ ___ _ _
 72
    65
 73
     6
 40
1.25
 49
0.625
 49
-0.125
 49
0.125
 49
-0.125
 49
0.125
 49
-0.125
  0
ENDTAB
  0
TABLE
  2
LAYER
 70
     2
  0
LAYER
  2
0
 70
     0
 62
   255
  6
CONTINUOUS
  0
LAYER
  2
DEFPOINTS
 70
     0
 62
     7
  6
CONTINUOUS
  0
ENDTAB
  0
TABLE
  2
STYLE
 70
     1
  0
STYLE
  2
STANDARD
 70
     0
 40
0.0
 41
0.8
 50
0.0
 71
     0
 42
0.2
  3
txt
  4

  0
ENDTAB
  0
TABLE
  2
VIEW
 70
     0
  0
ENDTAB
  0
TABLE
  2
UCS
 70
     0
  0
ENDTAB
  0
TABLE
  2
APPID
 70
     9
  0
APPID
  2
ACAD
 70
     0
  0
APPID
  2
ACAD_MLEADERVER
 70
     0
  0
APPID
  2
ACAD_EXEMPT_FROM_CAD_STANDARDS
 70
     0
  0
APPID
  2
ACAD_NAV_VCDISPLAY
 70
     0
  0
APPID
  2
ACAECLAYERSTANDARD
 70
     0
  0
APPID
  2
ACCMTRANSPARENCY
 70
     0
  0
APPID
  2
ACAD_DSTYLE_DIMJAG
 70
     0
  0
APPID
  2
ACAD_DSTYLE_DIMTALN
 70
     0
  0
APPID
  2
ACDBATTR
 70
     0
  0
ENDTAB
  0
TABLE
  2
DIMSTYLE
 70
     1
  0
DIMSTYLE
  2
STANDARD
 70
     0
  3

  4

  5

  6

  7

 40
1.0
 41
0.1875
 42
0.0625
 43
0.38
 44
0.125
 45
0.0
 46
0.0
 47
0.01
 48
0.01
140
0.15625
141
0.09
142
0.0
143
25.3999999999999986
144
1.0
145
0.0
146
1.0
147
0.09
 71
     1
 72
     0
 73
     1
 74
     1
 75
     0
 76
     0
 77
     0
 78
     4
170
     0
171
     2
172
     0
173
     0
174
     0
175
     0
176
     0
177
     0
178
     0
  0
ENDTAB
  0
ENDSEC
  0
SECTION
  2
BLOCKS
  0
BLOCK
  8
0
  2
$MODEL_SPACE
 70
     0
 10
0.0
 20
0.0
 30
0.0
  3
$MODEL_SPACE
  1

  0
ENDBLK
  5
21
  8
0
  0
BLOCK
 67
     1
  8
0
  2
$PAPER_SPACE
 70
     0
 10
0.0
 20
0.0
 30
0.0
  3
$PAPER_SPACE
  1

  0
ENDBLK
  5
1D
 67
     1
  8
0
  0
BLOCK
  8
0
  2
_FILLED
 70
     0
 10
0.0
 20
0.0
 30
0.0
  3
_FILLED
  1

  0
SOLID
  5
6F59
  8
0
  6
BYBLOCK
 62
     0
 10
0.0
 20
0.0
 30
0.0
 11
-1.0
 21
0.1666666667
 31
0.0
 12
-1.0
 22
-0.1666666667
 32
0.0
 13
-1.0
 23
-0.1666666667
 33
0.0
  0
ENDBLK
  5
6F5A
  8
0
  6
BYBLOCK
 62
     0
  0
BLOCK
  8
0
  2
_CLOSED
 70
     0
 10
0.0
 20
0.0
 30
0.0
  3
_CLOSED
  1

  0
LINE
  5
9506
  8
0
  6
BYBLOCK
 62
     0
 10
0.0
 20
0.0
 30
0.0
 11
-1.0
 21
0.1666666667
 31
0.0
  0
LINE
  5
9507
  8
0
  6
BYBLOCK
 62
     0
 10
-1.0
 20
0.1666666667
 30
0.0
 11
-1.0
 21
-0.1666666667
 31
0.0
  0
LINE
  5
9508
  8
0
  6
BYBLOCK
 62
     0
 10
-1.0
 20
-0.1666666667
 30
0.0
 11
0.0
 21
0.0
 31
0.0
  0
LINE
  5
9509
  8
0
  6
BYBLOCK
 62
     0
 10
-1.0
 20
0.0
 30
0.0
 11
0.0
 21
0.0
 31
0.0
  0
ENDBLK
  5
950A
  8
0
  6
BYBLOCK
 62
     0
  0
ENDSEC
  0
SECTION
  2
ENTITIES
  0
ATTDEF
  5
3930
  8
DEFPOINTS
 10
3874.1093554477988619
 20
212.6747130832571884
 30
0.0
 40
0.001
  1
K-14402BR-4AND
  3

  2
MODELNUMBER
 70
     0
1001
ACDBATTR
1070
     0
1070
     1
  0
ATTDEF
  5
3931
  8
DEFPOINTS
 10
3874.1093554477988619
 20
212.6730464165904948
 30
0.0
 40
0.001
  1
PURIST
  3

  2
TRADENAME
 70
     0
1001
ACDBATTR
1070
     0
1070
     1
  0
ATTDEF
  5
3932
  8
DEFPOINTS
 10
3874.1093554477988619
 20
212.6713797499238865
 30
0.0
 40
0.001
  1
BATHROOM SINK FAUCET
  3

  2
PRODUCT
 70
     0
1001
ACDBATTR
1070
     0
1070
     1
  0
CIRCLE
  5
AAA1
  8
0
 10
3874.3668427092511592
 20
218.7727597209467945
 30
0.0
 40
0.0333917401312077
  0
ARC
  5
AAA2
  8
0
 10
3874.3497458930651192
 20
218.7722838872371085
 30
0.0
 40
0.0356422003801666
 50
293.146987687847286
 51
69.5149235108136594
  0
CIRCLE
  5
AAA3
  8
0
 10
3873.8507714640791164
 20
218.7727597209467945
 30
0.0
 40
0.0333917401312077
  0
CIRCLE
  5
AAA5
  8
0
 10
3874.3668427092511592
 20
218.7727597209467945
 30
0.0
 40
0.0333917401312077
  0
LINE
  5
AAA7
  8
0
 10
3873.018807163135989
 20
212.6765838569077971
 30
0.0
 11
3875.1988071630339618
 21
212.6765838569077971
 31
0.0
  0
LINE
  5
AAA8
  8
0
 10
3873.1988071631340063
 20
213.0265838569079051
 30
0.0
 11
3873.1988071631340063
 21
218.1315838569078096
 31
0.0
  0
LINE
  5
AAA9
  8
0
 10
3873.01880716313417
 20
212.846583856907813
 30
0.0
 11
3875.1988071630339618
 21
212.846583856907813
 31
0.0
  0
ARC
  5
AAAA
  8
0
 10
3873.0187480701138156
 20
212.7064411937375041
 30
0.0
 40
0.0298573953074926
 50
179.726231015303199
 51
270.1133984690653733
  0
ARC
  5
AAAB
  8
0
 10
3873.0187480701138156
 20
212.816726520078106
 30
0.0
 40
0.0298573953075017
 50
89.8866015330711718
 51
180.2737689868106088
  0
LINE
  5
AAAD
  8
0
 10
3873.1988071631340063
 20
218.1315838569078096
 30
0.0
 11
3875.0188071630341256
 21
218.1315838569078096
 31
0.0
  0
LINE
  5
AAAE
  8
0
 10
3873.2302876324138197
 20
218.1528034095979081
 30
0.0
 11
3874.9873265409160012
 21
218.1528034095979081
 31
0.0
  0
ARC
  5
AAAF
  8
0
 10
3873.2303385575701213
 20
218.1825555608103002
 30
0.0
 40
0.0297521947953323
 50
177.5560240044181057
 51
269.9019299954480857
  0
LINE
  5
AAB0
  8
0
 10
3873.2006134255148027
 20
218.1838242685979026
 30
0.0
 11
3873.2265762414917845
 21
218.9289191810748889
 31
0.0
  0
LINE
  5
AAB1
  8
0
 10
3873.2565524037659088
 20
218.9578721730823929
 30
0.0
 11
3874.9610617695639121
 21
218.9578721730823929
 31
0.0
  0
LINE
  5
AAB2
  8
0
 10
3873.9085978481962229
 20
219.5328050073983945
 30
0.0
 11
3874.3090163251331433
 21
219.5328050073983945
 31
0.0
  0
LINE
  5
AAB3
  8
0
 10
3873.7038071631341154
 20
216.2815838569077869
 30
0.0
 11
3873.7038071631341154
 21
215.2656005048945929
 31
0.0
  0
ARC
  5
AAB4
  8
0
 10
3873.2565580761061028
 20
218.9278720590984051
 30
0.0
 40
0.0300001145201206
 50
90.0108333305278165
 51
177.9997456844575936
  0
LINE
  5
AAB5
  8
0
 10
3873.8891311353140736
 20
219.5131526022979074
 30
0.0
 11
3873.885202072120137
 21
219.288066438039408
 31
0.0
  0
ARC
  5
AAB6
  8
0
 10
3873.5352553834150058
 20
219.2941750437979067
 30
0.0
 40
0.3500000000000004
 50
286.0024471922089901
 51
358.9999568569991766
  0
ARC
  5
AAB7
  8
0
 10
3873.9085907812118421
 20
219.5133444174385033
 30
0.0
 40
0.0194605912429415
 50
89.9791934199164984
 51
180.5647503631012114
  0
ARC
  5
AAB8
  8
0
 10
3873.9100648841022121
 20
219.5540486121361994
 30
0.0
 40
0.0212941996000396
 50
176.649323859697887
 51
266.0495533055747046
  0
ARC
  5
AAB9
  8
0
 10
3874.1140747908848425
 20
215.6829029788393939
 30
0.0
 40
0.6531824356226172
 50
244.1572411163384118
 51
269.537929839836977
  0
ARC
  5
AABA
  8
0
 10
3873.9566545438628964
 20
215.3376339293664898
 30
0.0
 40
0.2739647461260457
 50
214.4960867788778955
 51
242.3109785801829901
  0
ARC
  5
AABB
  8
0
 10
3873.8777840459979416
 20
215.2762588306217992
 30
0.0
 40
0.1743030569956239
 50
183.5057232942540111
 51
212.551406229652514
  0
ARC
  5
AABC
  8
0
 10
3873.8987737031211509
 20
215.244613307245487
 30
0.0
 40
0.1960928713124855
 50
121.6872261349007971
 51
173.8560467059938901
  0
ARC
  5
AABD
  8
0
 10
3874.1119515996888367
 20
214.8689714705166978
 30
0.0
 40
0.6279174369079698
 50
90.2869225933010853
 51
120.2345240949989034
  0
ARC
  5
AABE
  8
0
 10
3873.9147418435090913
 20
215.2638174209201907
 30
0.0
 40
0.1106367466054095
 50
157.4802279406478931
 51
238.8460131141141005
  0
ARC
  5
AABF
  8
0
 10
3873.9791012832151864
 20
215.2260926736746001
 30
0.0
 40
0.1848188622273377
 50
108.4826069084570008
 51
154.3170326982115057
  0
ARC
  5
AAC0
  8
0
 10
3874.1040892248479395
 20
214.9512987844746874
 30
0.0
 40
0.4860791292478765
 50
89.4438720421674276
 51
112.1895734126251938
  0
ARC
  5
AAC1
  8
0
 10
3873.9634699935390927
 20
215.2751882174790978
 30
0.0
 40
0.1178798387947407
 50
188.1664349037642125
 51
233.7486491574624949
  0
ARC
  5
AAC2
  8
0
 10
3873.9401206976199319
 20
215.2718374939192074
 30
0.0
 40
0.0942913465092771
 50
129.0684283971270929
 51
188.1664349037642125
  0
ARC
  5
AAC3
  8
0
 10
3874.1088071630838385
 20
215.0385781008897936
 30
0.0
 40
0.3820438582806973
 50
53.3384497523674099
 51
126.6615502476545032
  0
ARC
  5
AAC4
  8
0
 10
3873.9274261700020361
 20
215.5272443274849081
 30
0.0
 40
0.2266904358740153
 50
123.5253024735027054
 51
170.5575900999940018
  0
ARC
  5
AAC5
  8
0
 10
3874.1066192146249705
 20
215.1810733530934954
 30
0.0
 40
0.6156635993978088
 50
89.7963815361993198
 51
119.6313994339508042
  0
LINE
  5
AAC6
  8
0
 10
3875.0188071630341256
 20
213.0265838569079051
 30
0.0
 11
3875.0188071630341256
 21
218.1315838569078096
 31
0.0
  0
ARC
  5
AAC7
  8
0
 10
3875.1988662560538614
 20
212.7064411937375041
 30
0.0
 40
0.0298573953074653
 50
269.8866015309085924
 51
0.2737689798620262
  0
ARC
  5
AAC8
  8
0
 10
3875.1988662560538614
 20
212.8167265200781912
 30
0.0
 40
0.0298573953074601
 50
359.726231020138016
 51
90.1133984669549051
  0
ARC
  5
AAC9
  8
0
 10
3875.1988071630339618
 20
213.0265838569079051
 30
0.0
 40
0.1799999999999997
 50
180.0
 51
270.0
  0
ARC
  5
AACA
  8
0
 10
3874.9872756157601543
 20
218.1825555608103002
 30
0.0
 40
0.0297521947953323
 50
270.0980700045519143
 51
2.4439759955819351
  0
LINE
  5
AACB
  8
0
 10
3875.0170007478150183
 20
218.1838242685979026
 30
0.0
 11
3874.991037931837127
 21
218.9289191810748889
 31
0.0
  0
LINE
  5
AACC
  8
0
 10
3874.5138071630349259
 20
216.2815838569077869
 30
0.0
 11
3874.5138071630349259
 21
215.2656005048945929
 31
0.0
  0
ARC
  5
AACD
  8
0
 10
3874.9610560972228086
 20
218.9278720590984051
 30
0.0
 40
0.0300001145201206
 50
2.0002543155423531
 51
89.9891666694721977
  0
LINE
  5
AACE
  8
0
 10
3874.3284830380148378
 20
219.5131526022979074
 30
0.0
 11
3874.3324121012101386
 21
219.288066438039408
 31
0.0
  0
ARC
  5
AACF
  8
0
 10
3874.6823587899148151
 20
219.2941750437979067
 30
0.0
 40
0.3500000000000004
 50
181.000043143000795
 51
253.9975528077910099
  0
ARC
  5
AAD0
  8
0
 10
3874.3090232486460991
 20
219.5133442753237034
 30
0.0
 40
0.0194607333062116
 50
359.4356721908275745
 51
90.0203840261447539
  0
ARC
  5
AAD1
  8
0
 10
3874.3075442683680194
 20
219.5540585515319094
 30
0.0
 40
0.021304461724153
 50
273.9620760253743015
 51
3.5829961885367778
  0
ARC
  5
AAD2
  8
0
 10
3874.1035395352828345
 20
215.6829029788393939
 30
0.0
 40
0.6531824356226172
 50
270.462070160163023
 51
295.8427588836614746
  0
ARC
  5
AAD3
  8
0
 10
3874.2609597823061449
 20
215.3376339293664898
 30
0.0
 40
0.2739647461260457
 50
297.6890214198169815
 51
325.5039132211206834
  0
ARC
  5
AAD4
  8
0
 10
3874.3398302801720092
 20
215.2762588306217992
 30
0.0
 40
0.1743030569956239
 50
327.4485937703461786
 51
356.4942767057460173
  0
ARC
  5
AAD5
  8
0
 10
3874.3188406230469809
 20
215.244613307245487
 30
0.0
 40
0.1960928713124855
 50
6.1439532940060539
 51
58.31277386509921
  0
ARC
  5
AAD6
  8
0
 10
3874.1056627264802046
 20
214.8689714705166978
 30
0.0
 40
0.6279174369079698
 50
59.7654759050010327
 51
89.7130774066989147
  0
ARC
  5
AAD7
  8
0
 10
3874.1088071630838385
 20
215.5267932217863915
 30
0.0
 40
0.4371166221948558
 50
234.906765228940202
 51
305.0932347710635781
  0
ARC
  5
AAD8
  8
0
 10
3874.30287248265995
 20
215.2638174209201907
 30
0.0
 40
0.1106367466054095
 50
301.1539868858858995
 51
22.5197720593520891
  0
ARC
  5
AAD9
  8
0
 10
3874.2385130429529454
 20
215.2260926736746001
 30
0.0
 40
0.1848188622273377
 50
25.6829673017885192
 51
71.517393091542985
  0
ARC
  5
AADA
  8
0
 10
3874.1135251013211018
 20
214.9512987844746874
 30
0.0
 40
0.4860791292478765
 50
67.810426587374792
 51
90.5561279578325724
  0
ARC
  5
AADB
  8
0
 10
3874.1088071630838385
 20
215.4992610615551882
 30
0.0
 40
0.3848252108633529
 50
236.0266884677689916
 51
303.9733115322281947
  0
ARC
  5
AADC
  8
0
 10
3874.2541443326290391
 20
215.2751882174790978
 30
0.0
 40
0.1178798387947407
 50
306.2513508425375903
 51
351.8335650962358159
  0
ARC
  5
AADD
  8
0
 10
3874.2774936285491094
 20
215.2718374939192074
 30
0.0
 40
0.0942913465092771
 50
351.8335650962358159
 51
50.9315716028729284
  0
ARC
  5
AADE
  8
0
 10
3874.2901881561660957
 20
215.5272443274849081
 30
0.0
 40
0.2266904358740153
 50
9.4424099000059734
 51
56.4746975264972875
  0
ARC
  5
AADF
  8
0
 10
3874.1109951115431613
 20
215.1810733530934954
 30
0.0
 40
0.6156635993978088
 50
60.3686005660492029
 51
90.2036184638006659
  0
ARC
  5
AAE0
  8
0
 10
3874.1088071630838385
 20
216.2815838569578091
 30
0.0
 40
0.4049999999500012
 50
359.9999999929261207
 51
180.0000000070739077
  0
ARC
  5
AAE1
  8
0
 10
3873.333807163135134
 20
218.1815838569077926
 30
0.0
 40
0.060000000000014
 50
303.4872822177920284
 51
331.3358794375733964
  0
ARC
  5
AAE2
  8
0
 10
3874.8838071630339073
 20
218.1815838569077926
 30
0.0
 40
0.060000000000014
 50
208.6641205624266036
 51
236.512717782208
  0
LINE
  5
AAE3
  8
0
 10
3873.8460488976488705
 20
215.278268238573105
 30
0.0
 11
3873.8462260921592133
 21
215.3214110000809001
 31
0.0
  0
ARC
  5
AAE4
  8
0
 10
3873.9526497596548325
 20
215.311362416475788
 30
0.0
 40
0.1068970113506239
 50
146.581713978593001
 51
174.6060911082138034
  0
ARC
  5
AAE5
  8
0
 10
3873.9315596580490819
 20
215.3277084084535886
 30
0.0
 40
0.0993434924725581
 50
173.4028168015184974
 51
210.5254468494840978
  0
CIRCLE
  5
AAE6
  8
0
 10
3874.1088070866649105
 20
220.1978040299823078
 30
0.0
 40
0.2200000000000002
  0
CIRCLE
  5
AAE7
  8
0
 10
3874.1088070866649105
 20
220.1978040299823078
 30
0.0
 40
0.1788854382
  0
LINE
  5
AAE8
  8
0
 10
3873.8888070866651105
 20
219.5552931942889074
 30
0.0
 11
3873.8888070866651105
 21
220.1978040299823078
 31
0.0
  0
LINE
  5
AAE9
  8
0
 10
3874.3288070866651651
 20
219.5553899595909115
 30
0.0
 11
3874.3288070866651651
 21
220.1978040299823078
 31
0.0
  0
LINE
  5
AAEA
  8
0
 10
3875.2287233105262203
 20
212.8165838569042023
 30
0.0
 11
3875.2287233105262203
 21
212.706583856910413
 31
0.0
  0
LINE
  5
AAEB
  8
0
 10
3872.9888910156419115
 20
212.8165838569042023
 30
0.0
 11
3872.9888910156419115
 21
212.706583856910413
 31
0.0
  0
LINE
  5
AAEC
  8
0
 10
3874.3715654285178971
 20
215.2782682385823989
 30
0.0
 11
3874.371388234009828
 21
215.3214110000801895
 31
0.0
  0
ARC
  5
AAED
  8
0
 10
3874.2649645665142089
 20
215.3113624164753901
 30
0.0
 40
0.1068970113506239
 50
5.3939088916426527
 51
33.4182860216567832
  0
ARC
  5
AAEE
  8
0
 10
3874.2860546681199594
 20
215.3277084084531054
 30
0.0
 40
0.0993434924725581
 50
329.4745531502189806
 51
6.5971831983846698
  0
ARC
  5
AAEF
  8
0
 10
3873.9716734427779556
 20
215.2652145286673999
 30
0.0
 40
0.0991960866075505
 50
182.7072589940918874
 51
230.2664240357908056
  0
ARC
  5
AAF0
  8
0
 10
3873.983042618187028
 20
215.2507165302810961
 30
0.0
 40
0.1108895662713707
 50
113.1195079249695965
 51
174.9232293846513073
  0
ARC
  5
AAF1
  8
0
 10
3874.0993190344552204
 20
215.0805939707018979
 30
0.0
 40
0.315568396642246
 50
93.8570677155751838
 51
120.4271528782853977
  0
ARC
  5
AAF2
  8
0
 10
3874.1088071630838385
 20
215.4639643858920977
 30
0.0
 40
0.3403832415819516
 50
233.9022631781685106
 51
306.0977368218315178
  0
ARC
  5
AAF3
  8
0
 10
3874.2459408833910857
 20
215.2652145286673999
 30
0.0
 40
0.0991960866075505
 50
309.7335759642091944
 51
357.2927410059079989
  0
ARC
  5
AAF4
  8
0
 10
3874.2345717079820133
 20
215.2507165302810961
 30
0.0
 40
0.1108895662713707
 50
5.0767706153486261
 51
66.8804920750304035
  0
ARC
  5
AAF5
  8
0
 10
3874.1182952917138209
 20
215.0805939707018979
 30
0.0
 40
0.315568396642246
 50
59.5728471217145668
 51
86.1429322841898824
  0
LINE
  5
AAF6
  8
0
 10
3874.0952658564128797
 20
215.1658722473077887
 30
0.0
 11
3874.0822938813348628
 21
215.1529824837078024
 31
0.0
  0
ARC
  5
AAF7
  8
0
 10
3874.0760401676097899
 20
215.1592760838931895
 30
0.0
 40
0.0088723355798629
 50
269.9790252196966094
 51
314.8178639522034814
  0
LINE
  5
AAF8
  8
0
 10
3874.0760369196341344
 20
215.1504037489077916
 30
0.0
 11
3874.0481584479980484
 21
215.1504139546306931
 31
0.0
  0
ARC
  5
AAF9
  8
0
 10
3874.0481617131899839
 20
215.1593333191428883
 30
0.0
 40
0.0089193651099378
 50
225.3976668055238122
 51
269.9790252196966094
  0
LINE
  5
AAFA
  8
0
 10
3874.0418986951349325
 20
215.1529827539077928
 30
0.0
 11
3874.0288824913391181
 21
215.1658722473077887
 31
0.0
  0
LINE
  5
AAFB
  8
0
 10
3874.0869025213951318
 20
215.1701459802555974
 30
0.0
 11
3874.0748253263350307
 21
215.158147727407794
 31
0.0
  0
LINE
  5
AAFC
  8
0
 10
3874.0748253263350307
 20
215.158147727407794
 30
0.0
 11
3874.0493673617352215
 21
215.158147727407794
 31
0.0
  0
LINE
  5
AAFD
  8
0
 10
3874.0493673617352215
 20
215.158147727407794
 30
0.0
 11
3874.0372878920729818
 21
215.1701472078659094
 31
0.0
  0
LINE
  5
AAFE
  8
0
 10
3874.0372878920729818
 20
215.1701472078659094
 30
0.0
 11
3874.0481557684338441
 21
215.1813407456077982
 31
0.0
  0
LINE
  5
AAFF
  8
0
 10
3874.0800014866240417
 20
215.1769974308897986
 30
0.0
 11
3874.0748253263350307
 21
215.1718540116077918
 31
0.0
  0
LINE
  5
AB00
  8
0
 10
3874.0748253263350307
 20
215.1718540116077918
 30
0.0
 11
3874.0493673617352215
 21
215.1718540116077918
 31
0.0
  0
LINE
  5
AB01
  8
0
 10
3874.0493673617352215
 20
215.1718540116077918
 30
0.0
 11
3874.0440022619968659
 21
215.1770616567594914
 31
0.0
  0
LINE
  5
AB02
  8
0
 10
3874.0493673617352215
 20
215.1718540116077918
 30
0.0
 11
3874.0493673617352215
 21
215.158147727407794
 31
0.0
  0
LINE
  5
AB03
  8
0
 10
3874.0748253263350307
 20
215.1718540116077918
 30
0.0
 11
3874.0748253263350307
 21
215.158147727407794
 31
0.0
  0
LINE
  5
AB04
  8
0
 10
3874.1088071630838385
 20
215.1658722473077887
 30
0.0
 11
3874.0948692651340934
 21
215.1658717263078131
 31
0.0
  0
ARC
  5
AB05
  8
0
 10
3874.0948689330398338
 20
215.1747559707999926
 30
0.0
 40
0.008884244498413
 50
225.2065771625048001
 51
270.0021417218850956
  0
LINE
  5
AB06
  8
0
 10
3874.088609514134987
 20
215.1684512523077899
 30
0.0
 11
3874.0756267392180234
 21
215.1813407456077982
 31
0.0
  0
ARC
  5
AB07
  8
0
 10
3874.0280930326421185
 20
215.1778252795427875
 30
0.0
 40
0.0119790744486375
 50
273.7787108187263811
 51
320.136782005274199
  0
LINE
  5
AB08
  8
0
 10
3874.0952658564128797
 20
215.1968041411464014
 30
0.0
 11
3874.0822938813348628
 21
215.1839143775463867
 31
0.0
  0
ARC
  5
AB09
  8
0
 10
3874.0760401676097899
 20
215.1902079777318022
 30
0.0
 40
0.0088723355798629
 50
269.9790252196966094
 51
314.8178639522034814
  0
LINE
  5
AB0A
  8
0
 10
3874.0760369196341344
 20
215.1813356427464043
 30
0.0
 11
3874.0481584479980484
 21
215.1813458484691921
 31
0.0
  0
ARC
  5
AB0B
  8
0
 10
3874.0481617131899839
 20
215.190265212981501
 30
0.0
 40
0.0089193651099378
 50
225.3976668055238122
 51
269.9790252196966094
  0
LINE
  5
AB0C
  8
0
 10
3874.0418986951349325
 20
215.1839146477464055
 30
0.0
 11
3874.0288824913391181
 21
215.1968041411464014
 31
0.0
  0
LINE
  5
AB0D
  8
0
 10
3874.0869025213951318
 20
215.2010778740942101
 30
0.0
 11
3874.0748253263350307
 21
215.1890796212464068
 31
0.0
  0
LINE
  5
AB0E
  8
0
 10
3874.0748253263350307
 20
215.1890796212464068
 30
0.0
 11
3874.0493673617352215
 21
215.1890796212464068
 31
0.0
  0
LINE
  5
AB0F
  8
0
 10
3874.0493673617352215
 20
215.1890796212464068
 30
0.0
 11
3874.0372878920729818
 21
215.2010791017044085
 31
0.0
  0
LINE
  5
AB10
  8
0
 10
3874.0372878920729818
 20
215.2010791017044085
 30
0.0
 11
3874.0490294741612161
 21
215.2131725262048008
 31
0.0
  0
LINE
  5
AB11
  8
0
 10
3874.0800014866240417
 20
215.2079293247282976
 30
0.0
 11
3874.0748253263350307
 21
215.2027859054464045
 31
0.0
  0
LINE
  5
AB12
  8
0
 10
3874.0748253263350307
 20
215.2027859054464045
 30
0.0
 11
3874.0493673617352215
 21
215.2027859054464045
 31
0.0
  0
LINE
  5
AB13
  8
0
 10
3874.0493673617352215
 20
215.2027859054464045
 30
0.0
 11
3874.0440022619968659
 21
215.2079935505979904
 31
0.0
  0
LINE
  5
AB14
  8
0
 10
3874.0493673617352215
 20
215.2027859054464045
 30
0.0
 11
3874.0493673617352215
 21
215.1890796212464068
 31
0.0
  0
LINE
  5
AB15
  8
0
 10
3874.0748253263350307
 20
215.2027859054464045
 30
0.0
 11
3874.0748253263350307
 21
215.1890796212464068
 31
0.0
  0
LINE
  5
AB16
  8
0
 10
3874.1088071630838385
 20
215.1968041411464014
 30
0.0
 11
3874.0948692651340934
 21
215.1968036201463974
 31
0.0
  0
ARC
  5
AB17
  8
0
 10
3874.0948689330398338
 20
215.2056878646386053
 30
0.0
 40
0.008884244498413
 50
225.2065771625048001
 51
270.0021417218850956
  0
LINE
  5
AB18
  8
0
 10
3874.088609514134987
 20
215.1993831461464026
 30
0.0
 11
3874.0747298163978485
 21
215.2131631178494899
 31
0.0
  0
ARC
  5
AB19
  8
0
 10
3874.0280930326421185
 20
215.2087571733814002
 30
0.0
 40
0.0119790744486375
 50
273.7787108187263811
 51
320.136782005274199
  0
LINE
  5
AB1A
  8
0
 10
3874.0952658564128797
 20
215.2286311377463903
 30
0.0
 11
3874.0822938813348628
 21
215.215741374146404
 31
0.0
  0
ARC
  5
AB1B
  8
0
 10
3874.0760401676097899
 20
215.2220349743317911
 30
0.0
 40
0.0088723355798629
 50
269.9790252196966094
 51
314.8178639522034814
  0
LINE
  5
AB1C
  8
0
 10
3874.0760369196341344
 20
215.2131626393463932
 30
0.0
 11
3874.0481584479980484
 21
215.2131728450692094
 31
0.0
  0
ARC
  5
AB1D
  8
0
 10
3874.0481617131899839
 20
215.2220922095814899
 30
0.0
 40
0.0089193651099378
 50
225.3976668055238122
 51
269.9790252196966094
  0
LINE
  5
AB1E
  8
0
 10
3874.0418986951349325
 20
215.2157416443463944
 30
0.0
 11
3874.0288824913391181
 21
215.2286311377463903
 31
0.0
  0
LINE
  5
AB1F
  8
0
 10
3874.0869025213951318
 20
215.2329048706941137
 30
0.0
 11
3874.0748253263350307
 21
215.2209066178463956
 31
0.0
  0
LINE
  5
AB20
  8
0
 10
3874.0748253263350307
 20
215.2209066178463956
 30
0.0
 11
3874.0493673617352215
 21
215.2209066178463956
 31
0.0
  0
LINE
  5
AB21
  8
0
 10
3874.0493673617352215
 20
215.2209066178463956
 30
0.0
 11
3874.0372878920729818
 21
215.232906098304511
 31
0.0
  0
LINE
  5
AB22
  8
0
 10
3874.0372878920729818
 20
215.232906098304511
 30
0.0
 11
3874.0473384199399334
 21
215.2432577952938004
 31
0.0
  0
LINE
  5
AB23
  8
0
 10
3874.0800014866240417
 20
215.2397563213284002
 30
0.0
 11
3874.0748253263350307
 21
215.2346129020463934
 31
0.0
  0
LINE
  5
AB24
  8
0
 10
3874.0748253263350307
 20
215.2346129020463934
 30
0.0
 11
3874.0493673617352215
 21
215.2346129020463934
 31
0.0
  0
LINE
  5
AB25
  8
0
 10
3874.0493673617352215
 20
215.2346129020463934
 30
0.0
 11
3874.0440022619968659
 21
215.239820547198093
 31
0.0
  0
LINE
  5
AB26
  8
0
 10
3874.0493673617352215
 20
215.2346129020463934
 30
0.0
 11
3874.0493673617352215
 21
215.2209066178463956
 31
0.0
  0
LINE
  5
AB27
  8
0
 10
3874.0748253263350307
 20
215.2346129020463934
 30
0.0
 11
3874.0748253263350307
 21
215.2209066178463956
 31
0.0
  0
LINE
  5
AB28
  8
0
 10
3874.1088071630838385
 20
215.2286311377463903
 30
0.0
 11
3874.0948692651340934
 21
215.2286306167463863
 31
0.0
  0
ARC
  5
AB29
  8
0
 10
3874.0948689330398338
 20
215.2375148612385942
 30
0.0
 40
0.008884244498413
 50
225.2065771625048001
 51
270.0021417218850956
  0
LINE
  5
AB2A
  8
0
 10
3874.088609514134987
 20
215.2312101427463915
 30
0.0
 11
3874.0765105410519027
 21
215.2432221843548064
 31
0.0
  0
ARC
  5
AB2B
  8
0
 10
3874.0280930326421185
 20
215.2405841699813891
 30
0.0
 40
0.0119790744486375
 50
273.7787108187263811
 51
320.136782005274199
  0
LINE
  5
AB2C
  8
0
 10
3874.0952645166307775
 20
215.2586781347463898
 30
0.0
 11
3874.0822925415532154
 21
215.2457883711464035
 31
0.0
  0
ARC
  5
AB2D
  8
0
 10
3874.0760388278281425
 20
215.2520819713317906
 30
0.0
 40
0.0088723355798629
 50
269.9790252196966094
 51
314.8178639522034814
  0
LINE
  5
AB2E
  8
0
 10
3874.0760355798529417
 20
215.2432096363463927
 30
0.0
 11
3874.0481571082159462
 21
215.2432198420692089
 31
0.0
  0
ARC
  5
AB2F
  8
0
 10
3874.0481603734078817
 20
215.2521392065814894
 30
0.0
 40
0.0089193651099378
 50
225.3976668055238122
 51
269.9790252196966094
  0
LINE
  5
AB30
  8
0
 10
3874.0418973553528303
 20
215.2457886413463939
 30
0.0
 11
3874.028881151557016
 21
215.2586781347463898
 31
0.0
  0
LINE
  5
AB31
  8
0
 10
3874.0869011816130296
 20
215.2629518676941132
 30
0.0
 11
3874.0748239865529285
 21
215.2509536148463951
 31
0.0
  0
LINE
  5
AB32
  8
0
 10
3874.0748239865529285
 20
215.2509536148463951
 30
0.0
 11
3874.0493660219531193
 21
215.2509536148463951
 31
0.0
  0
LINE
  5
AB33
  8
0
 10
3874.0493660219531193
 20
215.2509536148463951
 30
0.0
 11
3874.0372865522917891
 21
215.2629530953045105
 31
0.0
  0
LINE
  5
AB34
  8
0
 10
3874.0372865522917891
 20
215.2629530953045105
 30
0.0
 11
3874.0481643353609797
 21
215.2741568366139973
 31
0.0
  0
LINE
  5
AB35
  8
0
 10
3874.0800001468419396
 20
215.2698033183283997
 30
0.0
 11
3874.0748239865529285
 21
215.2646598990463929
 31
0.0
  0
LINE
  5
AB36
  8
0
 10
3874.0748239865529285
 20
215.2646598990463929
 30
0.0
 11
3874.0493660219531193
 21
215.2646598990463929
 31
0.0
  0
LINE
  5
AB37
  8
0
 10
3874.0493660219531193
 20
215.2646598990463929
 30
0.0
 11
3874.0440009222161279
 21
215.2698675441980924
 31
0.0
  0
LINE
  5
AB38
  8
0
 10
3874.0493660219531193
 20
215.2646598990463929
 30
0.0
 11
3874.0493660219531193
 21
215.2509536148463951
 31
0.0
  0
LINE
  5
AB39
  8
0
 10
3874.0748239865529285
 20
215.2646598990463929
 30
0.0
 11
3874.0748239865529285
 21
215.2509536148463951
 31
0.0
  0
LINE
  5
AB3A
  8
0
 10
3874.1088058233031006
 20
215.2586781347463898
 30
0.0
 11
3874.0948679253529008
 21
215.2586776137464142
 31
0.0
  0
ARC
  5
AB3B
  8
0
 10
3874.0948675932590959
 20
215.2675618582385937
 30
0.0
 40
0.008884244498413
 50
225.2065771625048001
 51
270.0021417218850956
  0
LINE
  5
AB3C
  8
0
 10
3874.0886081743528848
 20
215.261257139746391
 30
0.0
 11
3874.0756252476408008
 21
215.2741467837508935
 31
0.0
  0
ARC
  5
AB3D
  8
0
 10
3874.0280916928600163
 20
215.2706311669813886
 30
0.0
 40
0.0119790744486375
 50
273.7787108187263811
 51
320.136782005274199
  0
LINE
  5
AB3E
  8
0
 10
3874.0952658564128797
 20
215.2896151314463964
 30
0.0
 11
3874.0822938813348628
 21
215.2767253678464101
 31
0.0
  0
ARC
  5
AB3F
  8
0
 10
3874.0760401676097899
 20
215.2830189680317972
 30
0.0
 40
0.0088723355798629
 50
269.9790252196966094
 51
314.8178639522034814
  0
LINE
  5
AB40
  8
0
 10
3874.0760369196341344
 20
215.2741466330463993
 30
0.0
 11
3874.0481584479980484
 21
215.2741568387691871
 31
0.0
  0
ARC
  5
AB41
  8
0
 10
3874.0481617131899839
 20
215.283076203281496
 30
0.0
 40
0.0089193651099378
 50
225.3976668055238122
 51
269.9790252196966094
  0
LINE
  5
AB42
  8
0
 10
3874.0418986951349325
 20
215.2767256380464005
 30
0.0
 11
3874.0288824913391181
 21
215.2896151314463964
 31
0.0
  0
LINE
  5
AB43
  8
0
 10
3874.0869025213951318
 20
215.2938888643940913
 30
0.0
 11
3874.0748253263350307
 21
215.2818906115464017
 31
0.0
  0
LINE
  5
AB44
  8
0
 10
3874.0748253263350307
 20
215.2818906115464017
 30
0.0
 11
3874.0493673617352215
 21
215.2818906115464017
 31
0.0
  0
LINE
  5
AB45
  8
0
 10
3874.0493673617352215
 20
215.2818906115464017
 30
0.0
 11
3874.0372878920729818
 21
215.2938900920044887
 31
0.0
  0
LINE
  5
AB46
  8
0
 10
3874.0372878920729818
 20
215.2938900920044887
 30
0.0
 11
3874.0481656747629131
 21
215.3050938329236033
 31
0.0
  0
LINE
  5
AB47
  8
0
 10
3874.0800014866240417
 20
215.3007403150282926
 30
0.0
 11
3874.0748253263350307
 21
215.2955968957463995
 31
0.0
  0
LINE
  5
AB48
  8
0
 10
3874.0748253263350307
 20
215.2955968957463995
 30
0.0
 11
3874.0493673617352215
 21
215.2955968957463995
 31
0.0
  0
LINE
  5
AB49
  8
0
 10
3874.0493673617352215
 20
215.2955968957463995
 30
0.0
 11
3874.0440022619968659
 21
215.300804540898099
 31
0.0
  0
LINE
  5
AB4A
  8
0
 10
3874.0493673617352215
 20
215.2955968957463995
 30
0.0
 11
3874.0493673617352215
 21
215.2818906115464017
 31
0.0
  0
LINE
  5
AB4B
  8
0
 10
3874.0748253263350307
 20
215.2955968957463995
 30
0.0
 11
3874.0748253263350307
 21
215.2818906115464017
 31
0.0
  0
LINE
  5
AB4C
  8
0
 10
3874.1088071630838385
 20
215.2896151314463964
 30
0.0
 11
3874.0948692651340934
 21
215.2896146104463924
 31
0.0
  0
ARC
  5
AB4D
  8
0
 10
3874.0948689330398338
 20
215.2984988549386003
 30
0.0
 40
0.008884244498413
 50
225.2065771625048001
 51
270.0021417218850956
  0
LINE
  5
AB4E
  8
0
 10
3874.088609514134987
 20
215.2921941364463976
 30
0.0
 11
3874.0756265878158047
 21
215.3050837800603006
 31
0.0
  0
ARC
  5
AB4F
  8
0
 10
3874.0280930326421185
 20
215.3015681636813952
 30
0.0
 40
0.0119790744486375
 50
273.7787108187263811
 51
320.136782005274199
  0
LINE
  5
AB50
  8
0
 10
3874.0952658564128797
 20
215.3205521282463906
 30
0.0
 11
3874.0822938813348628
 21
215.3076623646464043
 31
0.0
  0
ARC
  5
AB51
  8
0
 10
3874.0760401676097899
 20
215.3139559648317913
 30
0.0
 40
0.0088723355798629
 50
269.9790252196966094
 51
314.8178639522034814
  0
LINE
  5
AB52
  8
0
 10
3874.0760369196341344
 20
215.3050836298463935
 30
0.0
 11
3874.0481584479980484
 21
215.3050938355692949
 31
0.0
  0
ARC
  5
AB53
  8
0
 10
3874.0481617131899839
 20
215.3140132000814901
 30
0.0
 40
0.0089193651099378
 50
225.3976668055238122
 51
269.9790252196966094
  0
LINE
  5
AB54
  8
0
 10
3874.0418986951349325
 20
215.3076626348463947
 30
0.0
 11
3874.0288824913391181
 21
215.3205521282463906
 31
0.0
  0
LINE
  5
AB55
  8
0
 10
3874.0869025213951318
 20
215.3248258611941992
 30
0.0
 11
3874.0748253263350307
 21
215.3128276083463959
 31
0.0
  0
LINE
  5
AB56
  8
0
 10
3874.0748253263350307
 20
215.3128276083463959
 30
0.0
 11
3874.0493673617352215
 21
215.3128276083463959
 31
0.0
  0
LINE
  5
AB57
  8
0
 10
3874.0493673617352215
 20
215.3128276083463959
 30
0.0
 11
3874.0372878920729818
 21
215.3248270888043976
 31
0.0
  0
LINE
  5
AB58
  8
0
 10
3874.0372878920729818
 20
215.3248270888043976
 30
0.0
 11
3874.0481656747629131
 21
215.3360308297237111
 31
0.0
  0
LINE
  5
AB59
  8
0
 10
3874.0800014866240417
 20
215.3316773118284004
 30
0.0
 11
3874.0748253263350307
 21
215.3265338925463936
 31
0.0
  0
LINE
  5
AB5A
  8
0
 10
3874.0748253263350307
 20
215.3265338925463936
 30
0.0
 11
3874.0493673617352215
 21
215.3265338925463936
 31
0.0
  0
LINE
  5
AB5B
  8
0
 10
3874.0493673617352215
 20
215.3265338925463936
 30
0.0
 11
3874.0440022619968659
 21
215.3317415376980932
 31
0.0
  0
LINE
  5
AB5C
  8
0
 10
3874.0493673617352215
 20
215.3265338925463936
 30
0.0
 11
3874.0493673617352215
 21
215.3128276083463959
 31
0.0
  0
LINE
  5
AB5D
  8
0
 10
3874.0748253263350307
 20
215.3265338925463936
 30
0.0
 11
3874.0748253263350307
 21
215.3128276083463959
 31
0.0
  0
LINE
  5
AB5E
  8
0
 10
3874.1088071630838385
 20
215.3205521282463906
 30
0.0
 11
3874.0948692651340934
 21
215.3205516072463865
 31
0.0
  0
ARC
  5
AB5F
  8
0
 10
3874.0948689330398338
 20
215.3294358517385945
 30
0.0
 40
0.008884244498413
 50
225.2065771625048001
 51
270.0021417218850956
  0
LINE
  5
AB60
  8
0
 10
3874.088609514134987
 20
215.3231311332463918
 30
0.0
 11
3874.0756265878158047
 21
215.3360207768602947
 31
0.0
  0
ARC
  5
AB61
  8
0
 10
3874.0280930326421185
 20
215.3325051604813893
 30
0.0
 40
0.0119790744486375
 50
273.7787108187263811
 51
320.136782005274199
  0
LINE
  5
AB62
  8
0
 10
3874.0952658564128797
 20
215.3514891250464132
 30
0.0
 11
3874.0822938813348628
 21
215.3385993614463985
 31
0.0
  0
ARC
  5
AB63
  8
0
 10
3874.0760401676097899
 20
215.3448929616318139
 30
0.0
 40
0.0088723355798629
 50
269.9790252196966094
 51
314.8178639522034814
  0
LINE
  5
AB64
  8
0
 10
3874.0760369196341344
 20
215.3360206266463877
 30
0.0
 11
3874.0481584479980484
 21
215.3360308323692038
 31
0.0
  0
ARC
  5
AB65
  8
0
 10
3874.0481617131899839
 20
215.3449501968815127
 30
0.0
 40
0.0089193651099378
 50
225.3976668055238122
 51
269.9790252196966094
  0
LINE
  5
AB66
  8
0
 10
3874.0418986951349325
 20
215.3385996316463888
 30
0.0
 11
3874.0288824913391181
 21
215.3514891250464132
 31
0.0
  0
LINE
  5
AB67
  8
0
 10
3874.0869025213951318
 20
215.3557628579941934
 30
0.0
 11
3874.0748253263350307
 21
215.3437646051463901
 31
0.0
  0
LINE
  5
AB68
  8
0
 10
3874.0748253263350307
 20
215.3437646051463901
 30
0.0
 11
3874.0493673617352215
 21
215.3437646051463901
 31
0.0
  0
LINE
  5
AB69
  8
0
 10
3874.0493673617352215
 20
215.3437646051463901
 30
0.0
 11
3874.0372878920729818
 21
215.3557640856045055
 31
0.0
  0
LINE
  5
AB6A
  8
0
 10
3874.0372878920729818
 20
215.3557640856045055
 30
0.0
 11
3874.0481656746669614
 21
215.3669678264236893
 31
0.0
  0
LINE
  5
AB6B
  8
0
 10
3874.0800014866240417
 20
215.3626143086283946
 30
0.0
 11
3874.0748253263350307
 21
215.3574708893463878
 31
0.0
  0
LINE
  5
AB6C
  8
0
 10
3874.0748253263350307
 20
215.3574708893463878
 30
0.0
 11
3874.0493673617352215
 21
215.3574708893463878
 31
0.0
  0
LINE
  5
AB6D
  8
0
 10
3874.0493673617352215
 20
215.3574708893463878
 30
0.0
 11
3874.0440022619968659
 21
215.3626785344980874
 31
0.0
  0
LINE
  5
AB6E
  8
0
 10
3874.0493673617352215
 20
215.3574708893463878
 30
0.0
 11
3874.0493673617352215
 21
215.3437646051463901
 31
0.0
  0
LINE
  5
AB6F
  8
0
 10
3874.0748253263350307
 20
215.3574708893463878
 30
0.0
 11
3874.0748253263350307
 21
215.3437646051463901
 31
0.0
  0
LINE
  5
AB70
  8
0
 10
3874.1088071630838385
 20
215.3514891250464132
 30
0.0
 11
3874.0948692651340934
 21
215.3514886040464091
 31
0.0
  0
ARC
  5
AB71
  8
0
 10
3874.0948689330398338
 20
215.3603728485385886
 30
0.0
 40
0.008884244498413
 50
225.2065771625048001
 51
270.0021417218850956
  0
LINE
  5
AB72
  8
0
 10
3874.088609514134987
 20
215.3540681300463859
 30
0.0
 11
3874.0756265879172133
 21
215.3669577735601877
 31
0.0
  0
ARC
  5
AB73
  8
0
 10
3874.0280930326421185
 20
215.3634421572814119
 30
0.0
 40
0.0119790744486375
 50
273.7787108187263811
 51
320.136782005274199
  0
LINE
  5
AB74
  8
0
 10
3874.0952658564128797
 20
215.3824261217463913
 30
0.0
 11
3874.0822938813348628
 21
215.3695363581464051
 31
0.0
  0
ARC
  5
AB75
  8
0
 10
3874.0760401676097899
 20
215.3758299583317068
 30
0.0
 40
0.0088723355798629
 50
269.9790252196966094
 51
314.8178639522034814
  0
LINE
  5
AB76
  8
0
 10
3874.0760369196341344
 20
215.3669576233463943
 30
0.0
 11
3874.0481584479980484
 21
215.3669678290692104
 31
0.0
  0
ARC
  5
AB77
  8
0
 10
3874.0481617131899839
 20
215.3758871935814909
 30
0.0
 40
0.0089193651099378
 50
225.3976668055238122
 51
269.9790252196966094
  0
LINE
  5
AB78
  8
0
 10
3874.0418986951349325
 20
215.3695366283463954
 30
0.0
 11
3874.0288824913391181
 21
215.3824261217463913
 31
0.0
  0
LINE
  5
AB79
  8
0
 10
3874.0869025213951318
 20
215.3866998546940863
 30
0.0
 11
3874.0748253263350307
 21
215.3747016018463967
 31
0.0
  0
LINE
  5
AB7A
  8
0
 10
3874.0748253263350307
 20
215.3747016018463967
 30
0.0
 11
3874.0493673617352215
 21
215.3747016018463967
 31
0.0
  0
LINE
  5
AB7B
  8
0
 10
3874.0493673617352215
 20
215.3747016018463967
 30
0.0
 11
3874.0372878920729818
 21
215.3867010823045121
 31
0.0
  0
LINE
  5
AB7C
  8
0
 10
3874.0372878920729818
 20
215.3867010823045121
 30
0.0
 11
3874.0412401269559268
 21
215.3907717478928987
 31
0.0
  0
LINE
  5
AB7D
  8
0
 10
3874.0800014866240417
 20
215.3935513053284012
 30
0.0
 11
3874.0748253263350307
 21
215.3884078860463944
 31
0.0
  0
LINE
  5
AB7E
  8
0
 10
3874.0748253263350307
 20
215.3884078860463944
 30
0.0
 11
3874.0493673617352215
 21
215.3884078860463944
 31
0.0
  0
LINE
  5
AB7F
  8
0
 10
3874.0493673617352215
 20
215.3884078860463944
 30
0.0
 11
3874.0460447576861043
 21
215.391632978535597
 31
0.0
  0
LINE
  5
AB80
  8
0
 10
3874.0493673617352215
 20
215.3884078860463944
 30
0.0
 11
3874.0493673617352215
 21
215.3747016018463967
 31
0.0
  0
LINE
  5
AB81
  8
0
 10
3874.0748253263350307
 20
215.3884078860463944
 30
0.0
 11
3874.0748253263350307
 21
215.3747016018463967
 31
0.0
  0
LINE
  5
AB82
  8
0
 10
3874.1088071630838385
 20
215.3824261217463913
 30
0.0
 11
3874.0948692651340934
 21
215.3824256007463873
 31
0.0
  0
ARC
  5
AB83
  8
0
 10
3874.0948689330398338
 20
215.3913098452385952
 30
0.0
 40
0.008884244498413
 50
225.2065771625048001
 51
270.0021417218850956
  0
LINE
  5
AB84
  8
0
 10
3874.088609514134987
 20
215.3850051267463925
 30
0.0
 11
3874.0780914751298951
 21
215.3954475933338983
 31
0.0
  0
ARC
  5
AB85
  8
0
 10
3874.0280930326421185
 20
215.3943791539813901
 30
0.0
 40
0.0119790744486375
 50
273.7787108187263811
 51
320.136782005274199
  0
LINE
  5
AB86
  8
0
 10
3874.0288824913391181
 20
215.1968041411464014
 30
0.0
 11
3874.0018885587301156
 21
215.1968041411464014
 31
0.0
  0
LINE
  5
AB87
  8
0
 10
3874.0288824913391181
 20
215.2286311377463903
 30
0.0
 11
3874.0018885587301156
 21
215.2286311377463903
 31
0.0
  0
LINE
  5
AB88
  8
0
 10
3874.028881151557016
 20
215.2586781347463898
 30
0.0
 11
3874.0014462873527918
 21
215.2586776137464142
 31
0.0
  0
LINE
  5
AB89
  8
0
 10
3874.0288824913391181
 20
215.2896151314463964
 30
0.0
 11
3874.0014462873527918
 21
215.2896146104463924
 31
0.0
  0
LINE
  5
AB8A
  8
0
 10
3874.0288824913391181
 20
215.3205521282463906
 30
0.0
 11
3874.0018885587301156
 21
215.3205521282463906
 31
0.0
  0
LINE
  5
AB8B
  8
0
 10
3874.0288824913391181
 20
215.3514891250464132
 30
0.0
 11
3874.0014462873527918
 21
215.3514886040464091
 31
0.0
  0
LINE
  5
AB8C
  8
0
 10
3874.0401869358988733
 20
215.1856097433156094
 30
0.0
 11
3874.0281145073349762
 21
215.1736162258077911
 31
0.0
  0
LINE
  5
AB8D
  8
0
 10
3874.0281145073349762
 20
215.1736162258077911
 30
0.0
 11
3874.0026565427338028
 21
215.1736162258077911
 31
0.0
  0
LINE
  5
AB8E
  8
0
 10
3874.0332770323188925
 20
215.1924523802312876
 30
0.0
 11
3874.0281145073349762
 21
215.1873225100077889
 31
0.0
  0
LINE
  5
AB8F
  8
0
 10
3874.0281145073349762
 20
215.1873225100077889
 30
0.0
 11
3874.0026565427338028
 21
215.1873225100077889
 31
0.0
  0
LINE
  5
AB90
  8
0
 10
3874.0281145073349762
 20
215.1873225100077889
 30
0.0
 11
3874.0281145073349762
 21
215.1736162258077911
 31
0.0
  0
LINE
  5
AB91
  8
0
 10
3874.0288824913391181
 20
215.1658722473077887
 30
0.0
 11
3874.001447627134894
 21
215.1658717263078131
 31
0.0
  0
LINE
  5
AB92
  8
0
 10
3874.0406355858549432
 20
215.2169924574851905
 30
0.0
 11
3874.0281145073349762
 21
215.2045532226078137
 31
0.0
  0
LINE
  5
AB93
  8
0
 10
3874.0281145073349762
 20
215.2045532226078137
 30
0.0
 11
3874.0026565427338028
 21
215.2045532226078137
 31
0.0
  0
LINE
  5
AB94
  8
0
 10
3874.0337256345310379
 20
215.2238351416798992
 30
0.0
 11
3874.0281145073349762
 21
215.2182595068078115
 31
0.0
  0
LINE
  5
AB95
  8
0
 10
3874.0281145073349762
 20
215.2182595068078115
 30
0.0
 11
3874.0026565427338028
 21
215.2182595068078115
 31
0.0
  0
LINE
  5
AB96
  8
0
 10
3874.0281145073349762
 20
215.2182595068078115
 30
0.0
 11
3874.0281145073349762
 21
215.2045532226078137
 31
0.0
  0
LINE
  5
AB97
  8
0
 10
3874.0401917023950773
 20
215.2474884721555952
 30
0.0
 11
3874.0281145073349762
 21
215.2354902193077919
 31
0.0
  0
LINE
  5
AB98
  8
0
 10
3874.0281145073349762
 20
215.2354902193077919
 30
0.0
 11
3874.0026565427338028
 21
215.2354902193077919
 31
0.0
  0
LINE
  5
AB99
  8
0
 10
3874.0332906676239872
 20
215.2543399227897964
 30
0.0
 11
3874.0281145073349762
 21
215.2491965035077897
 31
0.0
  0
LINE
  5
AB9A
  8
0
 10
3874.0281145073349762
 20
215.2491965035077897
 30
0.0
 11
3874.0026565427338028
 21
215.2491965035077897
 31
0.0
  0
LINE
  5
AB9B
  8
0
 10
3874.0281145073349762
 20
215.2491965035077897
 30
0.0
 11
3874.0281145073349762
 21
215.2354902193077919
 31
0.0
  0
LINE
  5
AB9C
  8
0
 10
3874.0401917023950773
 20
215.2784254689555894
 30
0.0
 11
3874.0281145073349762
 21
215.2664272161077861
 31
0.0
  0
LINE
  5
AB9D
  8
0
 10
3874.0281145073349762
 20
215.2664272161077861
 30
0.0
 11
3874.0026565427338028
 21
215.2664272161077861
 31
0.0
  0
LINE
  5
AB9E
  8
0
 10
3874.0332906676239872
 20
215.2852769195897906
 30
0.0
 11
3874.0281145073349762
 21
215.2801335003078123
 31
0.0
  0
LINE
  5
AB9F
  8
0
 10
3874.0281145073349762
 20
215.2801335003078123
 30
0.0
 11
3874.0026565427338028
 21
215.2801335003078123
 31
0.0
  0
LINE
  5
ABA0
  8
0
 10
3874.0281145073349762
 20
215.2801335003078123
 30
0.0
 11
3874.0281145073349762
 21
215.2664272161077861
 31
0.0
  0
LINE
  5
ABA1
  8
0
 10
3874.0401917023950773
 20
215.3093624656555107
 30
0.0
 11
3874.0281145073349762
 21
215.2973642128077927
 31
0.0
  0
LINE
  5
ABA2
  8
0
 10
3874.0281145073349762
 20
215.2973642128077927
 30
0.0
 11
3874.0026565427338028
 21
215.2973642128077927
 31
0.0
  0
LINE
  5
ABA3
  8
0
 10
3874.0332906676239872
 20
215.3162139162897972
 30
0.0
 11
3874.0281145073349762
 21
215.3110704970077904
 31
0.0
  0
LINE
  5
ABA4
  8
0
 10
3874.0281145073349762
 20
215.3110704970077904
 30
0.0
 11
3874.0026565427338028
 21
215.3110704970077904
 31
0.0
  0
LINE
  5
ABA5
  8
0
 10
3874.0281145073349762
 20
215.3110704970077904
 30
0.0
 11
3874.0281145073349762
 21
215.2973642128077927
 31
0.0
  0
LINE
  5
ABA6
  8
0
 10
3874.0401917023950773
 20
215.3712364592556128
 30
0.0
 11
3874.0281145073349762
 21
215.3592382064078095
 31
0.0
  0
LINE
  5
ABA7
  8
0
 10
3874.0281145073349762
 20
215.3592382064078095
 30
0.0
 11
3874.0026565427338028
 21
215.3592382064078095
 31
0.0
  0
LINE
  5
ABA8
  8
0
 10
3874.0332906676239872
 20
215.3780879098897003
 30
0.0
 11
3874.0281145073349762
 21
215.3729444906078072
 31
0.0
  0
LINE
  5
ABA9
  8
0
 10
3874.0281145073349762
 20
215.3729444906078072
 30
0.0
 11
3874.0026565427338028
 21
215.3729444906078072
 31
0.0
  0
LINE
  5
ABAA
  8
0
 10
3874.0281145073349762
 20
215.3729444906078072
 30
0.0
 11
3874.0281145073349762
 21
215.3592382064078095
 31
0.0
  0
ARC
  5
ABAB
  8
0
 10
3873.9918830383958266
 20
215.1631706981555965
 30
0.0
 40
0.0054224132569383
 50
179.9949335976342866
 51
295.0786661877302208
  0
LINE
  5
ABAC
  8
0
 10
3873.9941813944569731
 20
215.1582594737724037
 30
0.0
 11
3874.0018885587301156
 21
215.1658722473077887
 31
0.0
  0
LINE
  5
ABAD
  8
0
 10
3873.9864606251599071
 20
215.1631711776346947
 30
0.0
 11
3873.9934831579957972
 21
215.1701472078659094
 31
0.0
  0
LINE
  5
ABAE
  8
0
 10
3873.9934831579957972
 20
215.1701472078659094
 30
0.0
 11
3873.9826152816349349
 21
215.1813407456077982
 31
0.0
  0
LINE
  5
ABAF
  8
0
 10
3873.9747342252389899
 20
215.1813429643609936
 30
0.0
 11
3873.986460625134896
 21
215.176762537767388
 31
0.0
  0
LINE
  5
ABB0
  8
0
 10
3873.986460625134896
 20
215.176762537767388
 30
0.0
 11
3873.9864606251599071
 21
215.1631711776346947
 31
0.0
  0
LINE
  5
ABB1
  8
0
 10
3873.9501211058859553
 20
215.1763610384379035
 30
0.0
 11
3873.9551443108512103
 21
215.1813407456077982
 31
0.0
  0
ARC
  5
ABB2
  8
0
 10
3874.0026780174280248
 20
215.1778252795427875
 30
0.0
 40
0.0119790744486375
 50
219.863217994725801
 51
266.2212891812735052
  0
LINE
  5
ABB3
  8
0
 10
3873.9359030322261788
 20
215.1968036201874099
 30
0.0
 11
3873.9484771687348257
 21
215.1839143775463867
 31
0.0
  0
ARC
  5
ABB4
  8
0
 10
3873.9547308824589891
 20
215.1902079777318022
 30
0.0
 40
0.0088723355798629
 50
225.1821360477964902
 51
270.0209747803033906
  0
LINE
  5
ABB5
  8
0
 10
3873.9547341304350994
 20
215.1813356427464043
 30
0.0
 11
3873.9826126020711854
 21
215.1813458484691921
 31
0.0
  0
ARC
  5
ABB6
  8
0
 10
3873.9826093368787951
 20
215.190265212981501
 30
0.0
 40
0.0089193651099378
 50
270.0209747803033906
 51
314.6023331944750794
  0
LINE
  5
ABB7
  8
0
 10
3873.9888723549338465
 20
215.1839146477464055
 30
0.0
 11
3874.0018885587301156
 21
215.1968041411464014
 31
0.0
  0
LINE
  5
ABB8
  8
0
 10
3873.9438685286750115
 20
215.2010778740942101
 30
0.0
 11
3873.9559457237342031
 21
215.1890796212464068
 31
0.0
  0
LINE
  5
ABB9
  8
0
 10
3873.9559457237342031
 20
215.1890796212464068
 30
0.0
 11
3873.9814036883349218
 21
215.1890796212464068
 31
0.0
  0
LINE
  5
ABBA
  8
0
 10
3873.9814036883349218
 20
215.1890796212464068
 30
0.0
 11
3873.9934831579957972
 21
215.2010791017044085
 31
0.0
  0
LINE
  5
ABBB
  8
0
 10
3873.9934831579957972
 20
215.2010791017044085
 30
0.0
 11
3873.9817415759080177
 21
215.2131725262048008
 31
0.0
  0
LINE
  5
ABBC
  8
0
 10
3873.950769563445192
 20
215.2079293247282976
 30
0.0
 11
3873.9559457237342031
 21
215.2027859054464045
 31
0.0
  0
LINE
  5
ABBD
  8
0
 10
3873.9559457237342031
 20
215.2027859054464045
 30
0.0
 11
3873.9814036883349218
 21
215.2027859054464045
 31
0.0
  0
LINE
  5
ABBE
  8
0
 10
3873.9814036883349218
 20
215.2027859054464045
 30
0.0
 11
3873.9867687880719131
 21
215.2079935505979904
 31
0.0
  0
LINE
  5
ABBF
  8
0
 10
3873.9814036883349218
 20
215.2027859054464045
 30
0.0
 11
3873.9814036883349218
 21
215.1890796212464068
 31
0.0
  0
LINE
  5
ABC0
  8
0
 10
3873.9559457237342031
 20
215.2027859054464045
 30
0.0
 11
3873.9559457237342031
 21
215.1890796212464068
 31
0.0
  0
ARC
  5
ABC1
  8
0
 10
3873.9359021170289452
 20
215.2056878646386053
 30
0.0
 40
0.008884244498413
 50
269.997858278115018
 51
314.7934228374951999
  0
LINE
  5
ABC2
  8
0
 10
3873.942161535933792
 20
215.1993831461464026
 30
0.0
 11
3873.956041233670021
 21
215.2131631178494899
 31
0.0
  0
ARC
  5
ABC3
  8
0
 10
3874.0026780174280248
 20
215.2087571733814002
 30
0.0
 40
0.0119790744486375
 50
219.863217994725801
 51
266.2212891812735052
  0
LINE
  5
ABC4
  8
0
 10
3873.9359031228032109
 20
215.2277513436692118
 30
0.0
 11
3873.9487307354879704
 21
215.2154991824918966
 31
0.0
  0
ARC
  5
ABC5
  8
0
 10
3873.9547308824589891
 20
215.2220349743317911
 30
0.0
 40
0.0088723355798629
 50
225.1821360477964902
 51
270.0209747803033906
  0
LINE
  5
ABC6
  8
0
 10
3873.9547341304350994
 20
215.2131626393463932
 30
0.0
 11
3873.9826126020711854
 21
215.2131728450692094
 31
0.0
  0
ARC
  5
ABC7
  8
0
 10
3873.9826093368787951
 20
215.2220922095814899
 30
0.0
 40
0.0089193651099378
 50
270.0209747803033906
 51
314.6023331944750794
  0
LINE
  5
ABC8
  8
0
 10
3873.9888723549338465
 20
215.2157416443463944
 30
0.0
 11
3874.0018885587301156
 21
215.2286311377463903
 31
0.0
  0
LINE
  5
ABC9
  8
0
 10
3873.9438685286750115
 20
215.2329048706941137
 30
0.0
 11
3873.9559457237342031
 21
215.2209066178463956
 31
0.0
  0
LINE
  5
ABCA
  8
0
 10
3873.9559457237342031
 20
215.2209066178463956
 30
0.0
 11
3873.9814036883349218
 21
215.2209066178463956
 31
0.0
  0
LINE
  5
ABCB
  8
0
 10
3873.9814036883349218
 20
215.2209066178463956
 30
0.0
 11
3873.9934831579957972
 21
215.232906098304511
 31
0.0
  0
LINE
  5
ABCC
  8
0
 10
3873.9934831579957972
 20
215.232906098304511
 30
0.0
 11
3873.9834326301288456
 21
215.2432577952938004
 31
0.0
  0
LINE
  5
ABCD
  8
0
 10
3873.950769563445192
 20
215.2397563213284002
 30
0.0
 11
3873.9559457237342031
 21
215.2346129020463934
 31
0.0
  0
LINE
  5
ABCE
  8
0
 10
3873.9559457237342031
 20
215.2346129020463934
 30
0.0
 11
3873.9814036883349218
 21
215.2346129020463934
 31
0.0
  0
LINE
  5
ABCF
  8
0
 10
3873.9814036883349218
 20
215.2346129020463934
 30
0.0
 11
3873.9867687880719131
 21
215.239820547198093
 31
0.0
  0
LINE
  5
ABD0
  8
0
 10
3873.9814036883349218
 20
215.2346129020463934
 30
0.0
 11
3873.9814036883349218
 21
215.2209066178463956
 31
0.0
  0
LINE
  5
ABD1
  8
0
 10
3873.9559457237342031
 20
215.2346129020463934
 30
0.0
 11
3873.9559457237342031
 21
215.2209066178463956
 31
0.0
  0
ARC
  5
ABD2
  8
0
 10
3873.9270272957837733
 20
215.2512028664519903
 30
0.0
 40
0.0250749721056272
 50
290.7304268966350946
 51
307.1252629160339893
  0
LINE
  5
ABD3
  8
0
 10
3873.942161535933792
 20
215.2312101427463915
 30
0.0
 11
3873.9542605090168763
 21
215.2432221843548064
 31
0.0
  0
ARC
  5
ABD4
  8
0
 10
3874.0026780174280248
 20
215.2405841699813891
 30
0.0
 40
0.0119790744486375
 50
219.863217994725801
 51
266.2212891812735052
  0
LINE
  5
ABD5
  8
0
 10
3873.9359044625839488
 20
215.2577983406692113
 30
0.0
 11
3873.9484785085160183
 21
215.2457883711464035
 31
0.0
  0
ARC
  5
ABD6
  8
0
 10
3873.9547322222410912
 20
215.2520819713317906
 30
0.0
 40
0.0088723355798629
 50
225.1821360477964902
 51
270.0209747803033906
  0
LINE
  5
ABD7
  8
0
 10
3873.9547354702158373
 20
215.2432096363463927
 30
0.0
 11
3873.9826139418528328
 21
215.2432198420692089
 31
0.0
  0
ARC
  5
ABD8
  8
0
 10
3873.9826106766608973
 20
215.2521392065814894
 30
0.0
 40
0.0089193651099378
 50
270.0209747803033906
 51
314.6023331944750794
  0
LINE
  5
ABD9
  8
0
 10
3873.9888736947159487
 20
215.2457886413463939
 30
0.0
 11
3874.0018898985122178
 21
215.2586781347463898
 31
0.0
  0
LINE
  5
ABDA
  8
0
 10
3873.9438698684571136
 20
215.2629518676941132
 30
0.0
 11
3873.9559470635158505
 21
215.2509536148463951
 31
0.0
  0
LINE
  5
ABDB
  8
0
 10
3873.9559470635158505
 20
215.2509536148463951
 30
0.0
 11
3873.9814050281161144
 21
215.2509536148463951
 31
0.0
  0
LINE
  5
ABDC
  8
0
 10
3873.9814050281161144
 20
215.2509536148463951
 30
0.0
 11
3873.9934844977769899
 21
215.2629530953045105
 31
0.0
  0
LINE
  5
ABDD
  8
0
 10
3873.9934844977769899
 20
215.2629530953045105
 30
0.0
 11
3873.9826067147077993
 21
215.2741568366139973
 31
0.0
  0
LINE
  5
ABDE
  8
0
 10
3873.9507709032268394
 20
215.2698033183283997
 30
0.0
 11
3873.9559470635158505
 21
215.2646598990463929
 31
0.0
  0
LINE
  5
ABDF
  8
0
 10
3873.9559470635158505
 20
215.2646598990463929
 30
0.0
 11
3873.9814050281161144
 21
215.2646598990463929
 31
0.0
  0
LINE
  5
ABE0
  8
0
 10
3873.9814050281161144
 20
215.2646598990463929
 30
0.0
 11
3873.9867701278531058
 21
215.2698675441980924
 31
0.0
  0
LINE
  5
ABE1
  8
0
 10
3873.9814050281161144
 20
215.2646598990463929
 30
0.0
 11
3873.9814050281161144
 21
215.2509536148463951
 31
0.0
  0
LINE
  5
ABE2
  8
0
 10
3873.9559470635158505
 20
215.2646598990463929
 30
0.0
 11
3873.9559470635158505
 21
215.2509536148463951
 31
0.0
  0
ARC
  5
ABE3
  8
0
 10
3873.9345173162018909
 20
215.2676997102948064
 30
0.0
 40
0.009998064590083
 50
277.9750282682027773
 51
319.8806615444967179
  0
LINE
  5
ABE4
  8
0
 10
3873.9421628757158942
 20
215.261257139746391
 30
0.0
 11
3873.9551458024279782
 21
215.2741467837508935
 31
0.0
  0
ARC
  5
ABE5
  8
0
 10
3874.0026793572092174
 20
215.2706311669813886
 30
0.0
 40
0.0119790744486375
 50
219.863217994725801
 51
266.2212891812735052
  0
LINE
  5
ABE6
  8
0
 10
3873.9359031228032109
 20
215.2887353373691894
 30
0.0
 11
3873.9484771687348257
 21
215.2767253678464101
 31
0.0
  0
ARC
  5
ABE7
  8
0
 10
3873.9547308824589891
 20
215.2830189680317972
 30
0.0
 40
0.0088723355798629
 50
225.1821360477964902
 51
270.0209747803033906
  0
LINE
  5
ABE8
  8
0
 10
3873.9547341304350994
 20
215.2741466330463993
 30
0.0
 11
3873.9826126020711854
 21
215.2741568387691871
 31
0.0
  0
ARC
  5
ABE9
  8
0
 10
3873.9826093368787951
 20
215.283076203281496
 30
0.0
 40
0.0089193651099378
 50
270.0209747803033906
 51
314.6023331944750794
  0
LINE
  5
ABEA
  8
0
 10
3873.9888723549338465
 20
215.2767256380464005
 30
0.0
 11
3874.0018885587301156
 21
215.2896151314463964
 31
0.0
  0
LINE
  5
ABEB
  8
0
 10
3873.9438685286750115
 20
215.2938888643940913
 30
0.0
 11
3873.9559457237342031
 21
215.2818906115464017
 31
0.0
  0
LINE
  5
ABEC
  8
0
 10
3873.9559457237342031
 20
215.2818906115464017
 30
0.0
 11
3873.9814036883349218
 21
215.2818906115464017
 31
0.0
  0
LINE
  5
ABED
  8
0
 10
3873.9814036883349218
 20
215.2818906115464017
 30
0.0
 11
3873.9934831579957972
 21
215.2938900920044887
 31
0.0
  0
LINE
  5
ABEE
  8
0
 10
3873.9934831579957972
 20
215.2938900920044887
 30
0.0
 11
3873.9826053753058659
 21
215.3050938329236033
 31
0.0
  0
LINE
  5
ABEF
  8
0
 10
3873.950769563445192
 20
215.3007403150282926
 30
0.0
 11
3873.9559457237342031
 21
215.2955968957463995
 31
0.0
  0
LINE
  5
ABF0
  8
0
 10
3873.9559457237342031
 20
215.2955968957463995
 30
0.0
 11
3873.9814036883349218
 21
215.2955968957463995
 31
0.0
  0
LINE
  5
ABF1
  8
0
 10
3873.9814036883349218
 20
215.2955968957463995
 30
0.0
 11
3873.9867687880719131
 21
215.300804540898099
 31
0.0
  0
LINE
  5
ABF2
  8
0
 10
3873.9814036883349218
 20
215.2955968957463995
 30
0.0
 11
3873.9814036883349218
 21
215.2818906115464017
 31
0.0
  0
LINE
  5
ABF3
  8
0
 10
3873.9559457237342031
 20
215.2955968957463995
 30
0.0
 11
3873.9559457237342031
 21
215.2818906115464017
 31
0.0
  0
ARC
  5
ABF4
  8
0
 10
3873.9344445269430253
 20
215.2987659889629128
 30
0.0
 40
0.0101361468653803
 50
278.2736105299115934
 51
319.5820792827622085
  0
LINE
  5
ABF5
  8
0
 10
3873.942161535933792
 20
215.2921941364463976
 30
0.0
 11
3873.9551444622520648
 21
215.3050837800603006
 31
0.0
  0
ARC
  5
ABF6
  8
0
 10
3874.0026780174280248
 20
215.3015681636813952
 30
0.0
 40
0.0119790744486375
 50
219.863217994725801
 51
266.2212891812735052
  0
LINE
  5
ABF7
  8
0
 10
3873.9359031228032109
 20
215.3196723341692973
 30
0.0
 11
3873.9484771687348257
 21
215.3076623646464043
 31
0.0
  0
ARC
  5
ABF8
  8
0
 10
3873.9547308824589891
 20
215.3139559648317913
 30
0.0
 40
0.0088723355798629
 50
225.1821360477964902
 51
270.0209747803033906
  0
LINE
  5
ABF9
  8
0
 10
3873.9547341304350994
 20
215.3050836298463935
 30
0.0
 11
3873.9826126020711854
 21
215.3050938355692949
 31
0.0
  0
ARC
  5
ABFA
  8
0
 10
3873.9826093368787951
 20
215.3140132000814901
 30
0.0
 40
0.0089193651099378
 50
270.0209747803033906
 51
314.6023331944750794
  0
LINE
  5
ABFB
  8
0
 10
3873.9888723549338465
 20
215.3076626348463947
 30
0.0
 11
3874.0018885587301156
 21
215.3205521282463906
 31
0.0
  0
LINE
  5
ABFC
  8
0
 10
3873.9438685286750115
 20
215.3248258611941992
 30
0.0
 11
3873.9559457237342031
 21
215.3128276083463959
 31
0.0
  0
LINE
  5
ABFD
  8
0
 10
3873.9559457237342031
 20
215.3128276083463959
 30
0.0
 11
3873.9814036883349218
 21
215.3128276083463959
 31
0.0
  0
LINE
  5
ABFE
  8
0
 10
3873.9814036883349218
 20
215.3128276083463959
 30
0.0
 11
3873.9934831579957972
 21
215.3248270888043976
 31
0.0
  0
LINE
  5
ABFF
  8
0
 10
3873.9934831579957972
 20
215.3248270888043976
 30
0.0
 11
3873.9826053753058659
 21
215.3360308297237111
 31
0.0
  0
LINE
  5
AC00
  8
0
 10
3873.950769563445192
 20
215.3316773118284004
 30
0.0
 11
3873.9559457237342031
 21
215.3265338925463936
 31
0.0
  0
LINE
  5
AC01
  8
0
 10
3873.9559457237342031
 20
215.3265338925463936
 30
0.0
 11
3873.9814036883349218
 21
215.3265338925463936
 31
0.0
  0
LINE
  5
AC02
  8
0
 10
3873.9814036883349218
 20
215.3265338925463936
 30
0.0
 11
3873.9867687880719131
 21
215.3317415376980932
 31
0.0
  0
LINE
  5
AC03
  8
0
 10
3873.9814036883349218
 20
215.3265338925463936
 30
0.0
 11
3873.9814036883349218
 21
215.3128276083463959
 31
0.0
  0
LINE
  5
AC04
  8
0
 10
3873.9559457237342031
 20
215.3265338925463936
 30
0.0
 11
3873.9559457237342031
 21
215.3128276083463959
 31
0.0
  0
ARC
  5
AC05
  8
0
 10
3873.9333872565871388
 20
215.3316160297212889
 30
0.0
 40
0.0122057956011742
 50
281.8951072246917988
 51
315.9605825880046837
  0
LINE
  5
AC06
  8
0
 10
3873.942161535933792
 20
215.3231311332463918
 30
0.0
 11
3873.9551444622520648
 21
215.3360207768602947
 31
0.0
  0
ARC
  5
AC07
  8
0
 10
3874.0026780174280248
 20
215.3325051604813893
 30
0.0
 40
0.0119790744486375
 50
219.863217994725801
 51
266.2212891812735052
  0
LINE
  5
AC08
  8
0
 10
3873.9359072619840845
 20
215.3510896048753125
 30
0.0
 11
3873.9484771687348257
 21
215.3385993614463985
 31
0.0
  0
ARC
  5
AC09
  8
0
 10
3873.9547308824589891
 20
215.3448929616318139
 30
0.0
 40
0.0088723355798629
 50
225.1821360477964902
 51
270.0209747803033906
  0
LINE
  5
AC0A
  8
0
 10
3873.9547341304350994
 20
215.3360206266463877
 30
0.0
 11
3873.9826126020711854
 21
215.3360308323692038
 31
0.0
  0
ARC
  5
AC0B
  8
0
 10
3873.9826093368787951
 20
215.3449501968815127
 30
0.0
 40
0.0089193651099378
 50
270.0209747803033906
 51
314.6023331944750794
  0
LINE
  5
AC0C
  8
0
 10
3873.9888723549338465
 20
215.3385996316463888
 30
0.0
 11
3874.0018885587301156
 21
215.3514891250464132
 31
0.0
  0
LINE
  5
AC0D
  8
0
 10
3873.944217865544033
 20
215.3554158045544114
 30
0.0
 11
3873.9559457237342031
 21
215.3437646051463901
 31
0.0
  0
LINE
  5
AC0E
  8
0
 10
3873.9559457237342031
 20
215.3437646051463901
 30
0.0
 11
3873.9814036883349218
 21
215.3437646051463901
 31
0.0
  0
LINE
  5
AC0F
  8
0
 10
3873.9814036883349218
 20
215.3437646051463901
 30
0.0
 11
3873.9934831579957972
 21
215.3557640856045055
 31
0.0
  0
LINE
  5
AC10
  8
0
 10
3873.9934831579957972
 20
215.3557640856045055
 30
0.0
 11
3873.9826053754018176
 21
215.3669678264236893
 31
0.0
  0
LINE
  5
AC11
  8
0
 10
3873.9531368764760373
 20
215.3602619696725071
 30
0.0
 11
3873.9559457237342031
 21
215.3574708893463878
 31
0.0
  0
LINE
  5
AC12
  8
0
 10
3873.9559457237342031
 20
215.3574708893463878
 30
0.0
 11
3873.9814036883349218
 21
215.3574708893463878
 31
0.0
  0
LINE
  5
AC13
  8
0
 10
3873.9814036883349218
 20
215.3574708893463878
 30
0.0
 11
3873.9867687880719131
 21
215.3626785344980874
 31
0.0
  0
LINE
  5
AC14
  8
0
 10
3873.9814036883349218
 20
215.3574708893463878
 30
0.0
 11
3873.9814036883349218
 21
215.3437646051463901
 31
0.0
  0
LINE
  5
AC15
  8
0
 10
3873.9559457237342031
 20
215.3574708893463878
 30
0.0
 11
3873.9559457237342031
 21
215.3437646051463901
 31
0.0
  0
ARC
  5
AC16
  8
0
 10
3874.0026780174280248
 20
215.3634421572814119
 30
0.0
 40
0.0119790744486375
 50
219.863217994725801
 51
266.2212891812735052
  0
LINE
  5
AC17
  8
0
 10
3873.9667416840538863
 20
215.3669620190595992
 30
0.0
 11
3873.9826126020711854
 21
215.3669678290692104
 31
0.0
  0
ARC
  5
AC18
  8
0
 10
3873.9826093368787951
 20
215.3758871935814909
 30
0.0
 40
0.0089193651099378
 50
270.0209747803033906
 51
314.6023331944750794
  0
LINE
  5
AC19
  8
0
 10
3873.9888723549338465
 20
215.3695366283463954
 30
0.0
 11
3873.9993453102210879
 21
215.3799076313028138
 31
0.0
  0
LINE
  5
AC1A
  8
0
 10
3873.9905841141708152
 20
215.1856097433156094
 30
0.0
 11
3874.0026565427338028
 21
215.1736162258077911
 31
0.0
  0
LINE
  5
AC1B
  8
0
 10
3873.9974940177521603
 20
215.1924523802314866
 30
0.0
 11
3874.0026565427338028
 21
215.1873225100077889
 31
0.0
  0
LINE
  5
AC1C
  8
0
 10
3874.0026565427338028
 20
215.1873225100077889
 30
0.0
 11
3874.0026565427338028
 21
215.1736162258077911
 31
0.0
  0
LINE
  5
AC1D
  8
0
 10
3873.9901354642152
 20
215.2169924574855031
 30
0.0
 11
3874.0026565427338028
 21
215.2045532226078137
 31
0.0
  0
LINE
  5
AC1E
  8
0
 10
3873.9970454155391053
 20
215.2238351416798992
 30
0.0
 11
3874.0026565427338028
 21
215.2182595068078115
 31
0.0
  0
LINE
  5
AC1F
  8
0
 10
3874.0026565427338028
 20
215.2182595068078115
 30
0.0
 11
3874.0026565427338028
 21
215.2045532226078137
 31
0.0
  0
LINE
  5
AC20
  8
0
 10
3873.9905793476750659
 20
215.2474884721555952
 30
0.0
 11
3874.0026565427338028
 21
215.2354902193077919
 31
0.0
  0
LINE
  5
AC21
  8
0
 10
3873.9974803824447918
 20
215.2543399227897964
 30
0.0
 11
3874.0026565427338028
 21
215.2491965035077897
 31
0.0
  0
LINE
  5
AC22
  8
0
 10
3874.0026565427338028
 20
215.2491965035077897
 30
0.0
 11
3874.0026565427338028
 21
215.2354902193077919
 31
0.0
  0
LINE
  5
AC23
  8
0
 10
3873.9905793476750659
 20
215.2784254689555894
 30
0.0
 11
3874.0026565427338028
 21
215.2664272161077861
 31
0.0
  0
LINE
  5
AC24
  8
0
 10
3873.9974803824447918
 20
215.2852769195897906
 30
0.0
 11
3874.0026565427338028
 21
215.2801335003078123
 31
0.0
  0
LINE
  5
AC25
  8
0
 10
3874.0026565427338028
 20
215.2801335003078123
 30
0.0
 11
3874.0026565427338028
 21
215.2664272161077861
 31
0.0
  0
LINE
  5
AC26
  8
0
 10
3873.9905793476750659
 20
215.3093624656555107
 30
0.0
 11
3874.0026565427338028
 21
215.2973642128077927
 31
0.0
  0
LINE
  5
AC27
  8
0
 10
3873.9974803824447918
 20
215.3162139162897972
 30
0.0
 11
3874.0026565427338028
 21
215.3110704970077904
 31
0.0
  0
LINE
  5
AC28
  8
0
 10
3874.0026565427338028
 20
215.3110704970077904
 30
0.0
 11
3874.0026565427338028
 21
215.2973642128077927
 31
0.0
  0
LINE
  5
AC29
  8
0
 10
3873.9905793476750659
 20
215.3712364592556128
 30
0.0
 11
3874.0026565427338028
 21
215.3592382064078095
 31
0.0
  0
LINE
  5
AC2A
  8
0
 10
3873.9974803824447918
 20
215.3780879098897003
 30
0.0
 11
3874.0026565427338028
 21
215.3729444906078072
 31
0.0
  0
LINE
  5
AC2B
  8
0
 10
3874.0026565427338028
 20
215.3729444906078072
 30
0.0
 11
3874.0026565427338028
 21
215.3592382064078095
 31
0.0
  0
ARC
  5
AC2C
  8
0
 10
3873.9491344357211347
 20
215.1819705176305888
 30
0.0
 40
0.005695592579206
 50
176.5283143394538001
 51
279.975902952413719
  0
LINE
  5
AC2D
  8
0
 10
3873.9434492954351299
 20
215.1823154158078069
 30
0.0
 11
3873.9434492954351299
 21
215.1889103860845012
 31
0.0
  0
ARC
  5
AC2E
  8
0
 10
3873.9199842958610134
 20
215.2046673053112897
 30
0.0
 40
0.0084608911808288
 50
180.7725729313482077
 51
248.2409512105967906
  0
LINE
  5
AC2F
  8
0
 10
3873.9168478086348841
 20
215.1968092440077953
 30
0.0
 11
3873.9359030322261788
 21
215.1968036201874099
 31
0.0
  0
LINE
  5
AC30
  8
0
 10
3873.9115241738350051
 20
215.2045532226078137
 30
0.0
 11
3873.9346942090660377
 21
215.204429769518498
 31
0.0
  0
LINE
  5
AC31
  8
0
 10
3873.9346942090660377
 20
215.204429769518498
 30
0.0
 11
3873.9476814636168456
 21
215.2165013836342951
 31
0.0
  0
LINE
  5
AC32
  8
0
 10
3873.9054258500968899
 20
215.2238637761801101
 30
0.0
 11
3873.9115241738350051
 21
215.2182595068078115
 31
0.0
  0
LINE
  5
AC33
  8
0
 10
3873.9115241738350051
 20
215.2182595068078115
 30
0.0
 11
3873.9346942090660377
 21
215.2173644040464069
 31
0.0
  0
LINE
  5
AC34
  8
0
 10
3873.9346942090660377
 20
215.2173644040464069
 30
0.0
 11
3873.9406873915468168
 21
215.2231816990120876
 31
0.0
  0
LINE
  5
AC35
  8
0
 10
3873.9346942090660377
 20
215.2173644040464069
 30
0.0
 11
3873.9346942090660377
 21
215.204429769518498
 31
0.0
  0
LINE
  5
AC36
  8
0
 10
3873.9115241738350051
 20
215.2182595068078115
 30
0.0
 11
3873.9115241738350051
 21
215.2045532226078137
 31
0.0
  0
ARC
  5
AC37
  8
0
 10
3873.9005908418489526
 20
215.2236363309328055
 30
0.0
 40
0.00809391887453
 50
173.4503019502323866
 51
248.4298811204299113
  0
LINE
  5
AC38
  8
0
 10
3873.8976151967349324
 20
215.2161092425909032
 30
0.0
 11
3873.9093317544020465
 21
215.2277416164494923
 31
0.0
  0
LINE
  5
AC39
  8
0
 10
3873.8887957143879248
 20
215.2432096363463927
 30
0.0
 11
3873.9017676894659417
 21
215.2303198727464064
 31
0.0
  0
ARC
  5
AC3A
  8
0
 10
3873.9080214031910145
 20
215.2366134729317935
 30
0.0
 40
0.0088723355798629
 50
225.1821360477964902
 51
270.0209747803033906
  0
LINE
  5
AC3B
  8
0
 10
3873.9080246511662153
 20
215.2277411379463956
 30
0.0
 11
3873.9359031228032109
 21
215.2277513436692118
 31
0.0
  0
LINE
  5
AC3C
  8
0
 10
3873.8971590494061275
 20
215.2474833692942013
 30
0.0
 11
3873.9092362444657738
 21
215.235485116446398
 31
0.0
  0
LINE
  5
AC3D
  8
0
 10
3873.9092362444657738
 20
215.235485116446398
 30
0.0
 11
3873.9346942090660377
 21
215.235485116446398
 31
0.0
  0
LINE
  5
AC3E
  8
0
 10
3873.9346942090660377
 20
215.235485116446398
 30
0.0
 11
3873.9467736787278227
 21
215.2474845969045134
 31
0.0
  0
LINE
  5
AC3F
  8
0
 10
3873.9040600841758533
 20
215.2543348199284026
 30
0.0
 11
3873.9092362444657738
 21
215.2491914006463958
 31
0.0
  0
LINE
  5
AC40
  8
0
 10
3873.9092362444657738
 20
215.2491914006463958
 30
0.0
 11
3873.9346942090660377
 21
215.2491914006463958
 31
0.0
  0
LINE
  5
AC41
  8
0
 10
3873.9346942090660377
 20
215.2491914006463958
 30
0.0
 11
3873.9397637610600214
 21
215.2541121717692931
 31
0.0
  0
LINE
  5
AC42
  8
0
 10
3873.9346942090660377
 20
215.2491914006463958
 30
0.0
 11
3873.9346942090660377
 21
215.235485116446398
 31
0.0
  0
LINE
  5
AC43
  8
0
 10
3873.9092362444657738
 20
215.2491914006463958
 30
0.0
 11
3873.9092362444657738
 21
215.235485116446398
 31
0.0
  0
ARC
  5
AC44
  8
0
 10
3873.8891659073428855
 20
215.2521336006838055
 30
0.0
 40
0.0089316393970375
 50
267.6245602287626753
 51
314.7332347226234219
  0
LINE
  5
AC45
  8
0
 10
3873.8954520566658175
 20
215.2457886413463939
 30
0.0
 11
3873.9075510297479923
 21
215.257800682954894
 31
0.0
  0
LINE
  5
AC46
  8
0
 10
3873.8896110544478688
 20
215.2732599107800979
 30
0.0
 11
3873.9017690292480438
 21
215.2603668697464059
 31
0.0
  0
ARC
  5
AC47
  8
0
 10
3873.9080227429722072
 20
215.2666604699317929
 30
0.0
 40
0.0088723355798629
 50
225.1821360477964902
 51
270.0209747803033906
  0
LINE
  5
AC48
  8
0
 10
3873.9080259909478627
 20
215.2577881349463951
 30
0.0
 11
3873.9359044625839488
 21
215.2577983406692113
 31
0.0
  0
LINE
  5
AC49
  8
0
 10
3873.8971603891868654
 20
215.2775303662942008
 30
0.0
 11
3873.9092375842478759
 21
215.2655321134463975
 31
0.0
  0
LINE
  5
AC4A
  8
0
 10
3873.9092375842478759
 20
215.2655321134463975
 30
0.0
 11
3873.9346955488481399
 21
215.2655321134463975
 31
0.0
  0
LINE
  5
AC4B
  8
0
 10
3873.9346955488481399
 20
215.2655321134463975
 30
0.0
 11
3873.9471956280140148
 21
215.2779494181700954
 31
0.0
  0
LINE
  5
AC4C
  8
0
 10
3873.9040614239579554
 20
215.284381816928402
 30
0.0
 11
3873.9092375842478759
 21
215.2792383976463952
 31
0.0
  0
LINE
  5
AC4D
  8
0
 10
3873.9092375842478759
 20
215.2792383976463952
 30
0.0
 11
3873.9346955488481399
 21
215.2792383976463952
 31
0.0
  0
LINE
  5
AC4E
  8
0
 10
3873.9346955488481399
 20
215.2792383976463952
 30
0.0
 11
3873.9402259192911515
 21
215.2846064631503964
 31
0.0
  0
LINE
  5
AC4F
  8
0
 10
3873.9346955488481399
 20
215.2792383976463952
 30
0.0
 11
3873.9346955488481399
 21
215.2655321134463975
 31
0.0
  0
LINE
  5
AC50
  8
0
 10
3873.9092375842478759
 20
215.2792383976463952
 30
0.0
 11
3873.9092375842478759
 21
215.2655321134463975
 31
0.0
  0
ARC
  5
AC51
  8
0
 10
3873.8891681393529325
 20
215.2821782948639964
 30
0.0
 40
0.0089293755911456
 50
272.8431532571457865
 51
314.7395672694964901
  0
LINE
  5
AC52
  8
0
 10
3873.8954533964479197
 20
215.2758356383463934
 30
0.0
 11
3873.9084363231590942
 21
215.2887252823508959
 31
0.0
  0
LINE
  5
AC53
  8
0
 10
3873.8887957143879248
 20
215.3041936300463988
 30
0.0
 11
3873.9017676894659417
 21
215.2913038664464125
 31
0.0
  0
ARC
  5
AC54
  8
0
 10
3873.9080214031910145
 20
215.2975974666317995
 30
0.0
 40
0.0088723355798629
 50
225.1821360477964902
 51
270.0209747803033906
  0
LINE
  5
AC55
  8
0
 10
3873.9080246511662153
 20
215.2887251316464017
 30
0.0
 11
3873.9359031228032109
 21
215.2887353373691894
 31
0.0
  0
LINE
  5
AC56
  8
0
 10
3873.8971590494061275
 20
215.3084673629940937
 30
0.0
 11
3873.9092362444657738
 21
215.2964691101464041
 31
0.0
  0
LINE
  5
AC57
  8
0
 10
3873.9092362444657738
 20
215.2964691101464041
 30
0.0
 11
3873.9346942090660377
 21
215.2964691101464041
 31
0.0
  0
LINE
  5
AC58
  8
0
 10
3873.9346942090660377
 20
215.2964691101464041
 30
0.0
 11
3873.947194945028059
 21
215.3088870673167037
 31
0.0
  0
LINE
  5
AC59
  8
0
 10
3873.9040600841758533
 20
215.3153188136282949
 30
0.0
 11
3873.9092362444657738
 21
215.3101753943464018
 31
0.0
  0
LINE
  5
AC5A
  8
0
 10
3873.9092362444657738
 20
215.3101753943464018
 30
0.0
 11
3873.9346942090660377
 21
215.3101753943464018
 31
0.0
  0
LINE
  5
AC5B
  8
0
 10
3873.9346942090660377
 20
215.3101753943464018
 30
0.0
 11
3873.9402252440559096
 21
215.3155441048940872
 31
0.0
  0
LINE
  5
AC5C
  8
0
 10
3873.9346942090660377
 20
215.3101753943464018
 30
0.0
 11
3873.9346942090660377
 21
215.2964691101464041
 31
0.0
  0
LINE
  5
AC5D
  8
0
 10
3873.9092362444657738
 20
215.3101753943464018
 30
0.0
 11
3873.9092362444657738
 21
215.2964691101464041
 31
0.0
  0
ARC
  5
AC5E
  8
0
 10
3873.8891659073428855
 20
215.3131175943838116
 30
0.0
 40
0.0089316393970366
 50
267.6245602287626753
 51
314.7332347226234219
  0
LINE
  5
AC5F
  8
0
 10
3873.8954520566658175
 20
215.3067726350464
 30
0.0
 11
3873.9084349829840903
 21
215.3196622786603029
 31
0.0
  0
LINE
  5
AC60
  8
0
 10
3873.8999027256659247
 20
215.324094007610995
 30
0.0
 11
3873.9017676894659417
 21
215.3222408632464067
 31
0.0
  0
ARC
  5
AC61
  8
0
 10
3873.9080214031910145
 20
215.3285344634317937
 30
0.0
 40
0.0088723355798629
 50
225.1821360477964902
 51
270.0209747803033906
  0
LINE
  5
AC62
  8
0
 10
3873.9080246511662153
 20
215.3196621284463959
 30
0.0
 11
3873.9359031228032109
 21
215.3196723341692973
 31
0.0
  0
LINE
  5
AC63
  8
0
 10
3873.9060761915829971
 20
215.3305455042417123
 30
0.0
 11
3873.9092362444657738
 21
215.3274061069463983
 31
0.0
  0
LINE
  5
AC64
  8
0
 10
3873.9092362444657738
 20
215.3274061069463983
 30
0.0
 11
3873.9346942090660377
 21
215.3274061069463983
 31
0.0
  0
LINE
  5
AC65
  8
0
 10
3873.9346942090660377
 20
215.3274061069463983
 30
0.0
 11
3873.9472198034991379
 21
215.3398487579761991
 31
0.0
  0
LINE
  5
AC66
  8
0
 10
3873.9188157994408357
 20
215.341112391146396
 30
0.0
 11
3873.9346942090660377
 21
215.341112391146396
 31
0.0
  0
LINE
  5
AC67
  8
0
 10
3873.9346942090660377
 20
215.341112391146396
 30
0.0
 11
3873.9403870749938505
 21
215.3466381832286061
 31
0.0
  0
LINE
  5
AC68
  8
0
 10
3873.9346942090660377
 20
215.341112391146396
 30
0.0
 11
3873.9346942090660377
 21
215.3274061069463983
 31
0.0
  0
LINE
  5
AC69
  8
0
 10
3873.9092362444657738
 20
215.3334759110545065
 30
0.0
 11
3873.9092362444657738
 21
215.3274061069463983
 31
0.0
  0
LINE
  5
AC6A
  8
0
 10
3873.8887957143879248
 20
215.2432096363463927
 30
0.0
 11
3873.8795072611351316
 21
215.2432147392077866
 31
0.0
  0
ARC
  5
AC6B
  8
0
 10
3873.8923462448319697
 20
215.2502409758297119
 30
0.0
 40
0.0146358294418854
 50
177.1890843888535017
 51
208.6900363190462997
  0
LINE
  5
AC6C
  8
0
 10
3873.8777280250351396
 20
215.250958717707789
 30
0.0
 11
3873.8777280250351396
 21
215.2646650019077867
 31
0.0
  0
LINE
  5
AC6D
  8
0
 10
3873.8777280250351396
 20
215.2646650019077867
 30
0.0
 11
3873.8746652262971111
 21
215.2741864436794117
 31
0.0
  0
LINE
  5
AC6E
  8
0
 10
3873.8746652262971111
 20
215.2741864436794117
 30
0.0
 11
3873.8896110544478688
 21
215.2732599107800979
 31
0.0
  0
LINE
  5
AC6F
  8
0
 10
3873.8927125702530248
 20
215.3003015977346877
 30
0.0
 11
3873.8879820503339033
 21
215.2956019987078093
 31
0.0
  0
LINE
  5
AC70
  8
0
 10
3873.8925497496347816
 20
215.2245595637077997
 30
0.0
 11
3873.8924790310638855
 21
215.2395496631397975
 31
0.0
  0
LINE
  5
AC71
  8
0
 10
3874.1088071630838385
 20
215.1873225100077889
 30
0.0
 11
3874.0960781807339117
 21
215.1873225100077889
 31
0.0
  0
LINE
  5
AC72
  8
0
 10
3874.0960781807339117
 20
215.1873225100077889
 30
0.0
 11
3874.0908974628009673
 21
215.1924693644463957
 31
0.0
  0
LINE
  5
AC73
  8
0
 10
3874.1088071630838385
 20
215.1736162258077911
 30
0.0
 11
3874.0960781807339117
 21
215.1736162258077911
 31
0.0
  0
LINE
  5
AC74
  8
0
 10
3874.0960781807339117
 20
215.1736162258077911
 30
0.0
 11
3874.0960781807339117
 21
215.1873225100077889
 31
0.0
  0
LINE
  5
AC75
  8
0
 10
3874.0960781807339117
 20
215.1736162258077911
 30
0.0
 11
3874.0840029059609151
 21
215.185612571020414
 31
0.0
  0
LINE
  5
AC76
  8
0
 10
3874.1088071630838385
 20
215.2182595068078115
 30
0.0
 11
3874.0960781807339117
 21
215.2182595068078115
 31
0.0
  0
LINE
  5
AC77
  8
0
 10
3874.0960781807339117
 20
215.2182595068078115
 30
0.0
 11
3874.0904525649189054
 21
215.2238483510759863
 31
0.0
  0
LINE
  5
AC78
  8
0
 10
3874.1088071630838385
 20
215.2045532226078137
 30
0.0
 11
3874.0960781807339117
 21
215.2045532226078137
 31
0.0
  0
LINE
  5
AC79
  8
0
 10
3874.0960781807339117
 20
215.2045532226078137
 30
0.0
 11
3874.0960781807339117
 21
215.2182595068078115
 31
0.0
  0
LINE
  5
AC7A
  8
0
 10
3874.0960781807339117
 20
215.2045532226078137
 30
0.0
 11
3874.083555023019926
 21
215.2169945231921986
 31
0.0
  0
LINE
  5
AC7B
  8
0
 10
3874.1088071630838385
 20
215.2491965035077897
 30
0.0
 11
3874.0960781807339117
 21
215.2491965035077897
 31
0.0
  0
LINE
  5
AC7C
  8
0
 10
3874.0960781807339117
 20
215.2491965035077897
 30
0.0
 11
3874.0908974628009673
 21
215.2543433579463965
 31
0.0
  0
LINE
  5
AC7D
  8
0
 10
3874.1088071630838385
 20
215.2354902193077919
 30
0.0
 11
3874.0960781807339117
 21
215.2354902193077919
 31
0.0
  0
LINE
  5
AC7E
  8
0
 10
3874.0960781807339117
 20
215.2354902193077919
 30
0.0
 11
3874.0960781807339117
 21
215.2491965035077897
 31
0.0
  0
LINE
  5
AC7F
  8
0
 10
3874.0960781807339117
 20
215.2354902193077919
 30
0.0
 11
3874.0840029059609151
 21
215.2474865645203863
 31
0.0
  0
LINE
  5
AC80
  8
0
 10
3874.1088071630838385
 20
215.3110704971078064
 30
0.0
 11
3874.0960781807339117
 21
215.3110704971078064
 31
0.0
  0
LINE
  5
AC81
  8
0
 10
3874.0960781807339117
 20
215.3110704971078064
 30
0.0
 11
3874.0908974628009673
 21
215.3162173515464133
 31
0.0
  0
LINE
  5
AC82
  8
0
 10
3874.1088071630838385
 20
215.2973642129078087
 30
0.0
 11
3874.0960781807339117
 21
215.2973642129078087
 31
0.0
  0
LINE
  5
AC83
  8
0
 10
3874.0960781807339117
 20
215.2973642129078087
 30
0.0
 11
3874.0960781807339117
 21
215.3110704971078064
 31
0.0
  0
LINE
  5
AC84
  8
0
 10
3874.0960781807339117
 20
215.2973642129078087
 30
0.0
 11
3874.0840029059609151
 21
215.3093605581204031
 31
0.0
  0
LINE
  5
AC85
  8
0
 10
3874.1088071630838385
 20
215.342007493807813
 30
0.0
 11
3874.0960781807339117
 21
215.342007493807813
 31
0.0
  0
LINE
  5
AC86
  8
0
 10
3874.0960781807339117
 20
215.342007493807813
 30
0.0
 11
3874.0908974628009673
 21
215.3471543482463915
 31
0.0
  0
LINE
  5
AC87
  8
0
 10
3874.1088071630838385
 20
215.3283012096077869
 30
0.0
 11
3874.0960781807339117
 21
215.3283012096077869
 31
0.0
  0
LINE
  5
AC88
  8
0
 10
3874.0960781807339117
 20
215.3283012096077869
 30
0.0
 11
3874.0960781807339117
 21
215.342007493807813
 31
0.0
  0
LINE
  5
AC89
  8
0
 10
3874.0960781807339117
 20
215.3283012096077869
 30
0.0
 11
3874.0840029059609151
 21
215.3402975548204097
 31
0.0
  0
LINE
  5
AC8A
  8
0
 10
3874.1088071630838385
 20
215.3729444906078072
 30
0.0
 11
3874.0960781807339117
 21
215.3729444906078072
 31
0.0
  0
LINE
  5
AC8B
  8
0
 10
3874.0960781807339117
 20
215.3729444906078072
 30
0.0
 11
3874.0908974628009673
 21
215.3780913450464141
 31
0.0
  0
LINE
  5
AC8C
  8
0
 10
3874.1088071630838385
 20
215.3592382064078095
 30
0.0
 11
3874.0960781807339117
 21
215.3592382064078095
 31
0.0
  0
LINE
  5
AC8D
  8
0
 10
3874.0960781807339117
 20
215.3592382064078095
 30
0.0
 11
3874.0960781807339117
 21
215.3729444906078072
 31
0.0
  0
LINE
  5
AC8E
  8
0
 10
3874.0960781807339117
 20
215.3592382064078095
 30
0.0
 11
3874.0840029059609151
 21
215.3712345516204039
 31
0.0
  0
LINE
  5
AC8F
  8
0
 10
3874.1223484697570711
 20
215.1658722473077887
 30
0.0
 11
3874.1353204448359975
 21
215.1529824837078024
 31
0.0
  0
ARC
  5
AC90
  8
0
 10
3874.1415741585601609
 20
215.1592760838931895
 30
0.0
 40
0.0088723355798629
 50
225.1821360477964902
 51
270.0209747803033906
  0
LINE
  5
AC91
  8
0
 10
3874.1415774065349069
 20
215.1504037489077916
 30
0.0
 11
3874.1694558781728119
 21
215.1504139546306931
 31
0.0
  0
ARC
  5
AC92
  8
0
 10
3874.1694526129808764
 20
215.1593333191428883
 30
0.0
 40
0.0089193651099378
 50
270.0209747803033906
 51
314.6023331944750794
  0
LINE
  5
AC93
  8
0
 10
3874.1757156310359278
 20
215.1529827539077928
 30
0.0
 11
3874.1887318348308327
 21
215.1658722473077887
 31
0.0
  0
LINE
  5
AC94
  8
0
 10
3874.1307118047761833
 20
215.1701459802555974
 30
0.0
 11
3874.1427889998358296
 21
215.158147727407794
 31
0.0
  0
LINE
  5
AC95
  8
0
 10
3874.1427889998358296
 20
215.158147727407794
 30
0.0
 11
3874.1682469644360935
 21
215.158147727407794
 31
0.0
  0
LINE
  5
AC96
  8
0
 10
3874.1682469644360935
 20
215.158147727407794
 30
0.0
 11
3874.1803264340960595
 21
215.1701472078659094
 31
0.0
  0
LINE
  5
AC97
  8
0
 10
3874.1803264340960595
 20
215.1701472078659094
 30
0.0
 11
3874.1694585577361067
 21
215.1813407456077982
 31
0.0
  0
LINE
  5
AC98
  8
0
 10
3874.1376128395459091
 20
215.1769974308897986
 30
0.0
 11
3874.1427889998358296
 21
215.1718540116077918
 31
0.0
  0
LINE
  5
AC99
  8
0
 10
3874.1427889998358296
 20
215.1718540116077918
 30
0.0
 11
3874.1682469644360935
 21
215.1718540116077918
 31
0.0
  0
LINE
  5
AC9A
  8
0
 10
3874.1682469644360935
 20
215.1718540116077918
 30
0.0
 11
3874.1736120641721755
 21
215.1770616567594914
 31
0.0
  0
LINE
  5
AC9B
  8
0
 10
3874.1682469644360935
 20
215.1718540116077918
 30
0.0
 11
3874.1682469644360935
 21
215.158147727407794
 31
0.0
  0
LINE
  5
AC9C
  8
0
 10
3874.1427889998358296
 20
215.1718540116077918
 30
0.0
 11
3874.1427889998358296
 21
215.158147727407794
 31
0.0
  0
LINE
  5
AC9D
  8
0
 10
3874.1088071630861123
 20
215.1658722473077887
 30
0.0
 11
3874.1227450610349479
 21
215.1658717263078131
 31
0.0
  0
ARC
  5
AC9E
  8
0
 10
3874.122745393130117
 20
215.1747559707999926
 30
0.0
 40
0.008884244498413
 50
269.997858278115018
 51
314.7934228374951999
  0
LINE
  5
AC9F
  8
0
 10
3874.1290048120358733
 20
215.1684512523077899
 30
0.0
 11
3874.1419875869519274
 21
215.1813407456077982
 31
0.0
  0
ARC
  5
ACA0
  8
0
 10
3874.1895212935291966
 20
215.1778252795427875
 30
0.0
 40
0.0119790744486375
 50
219.863217994725801
 51
266.2212891812735052
  0
LINE
  5
ACA1
  8
0
 10
3874.1223484697570711
 20
215.1968041411464014
 30
0.0
 11
3874.1353204448359975
 21
215.1839143775463867
 31
0.0
  0
ARC
  5
ACA2
  8
0
 10
3874.1415741585601609
 20
215.1902079777318022
 30
0.0
 40
0.0088723355798629
 50
225.1821360477964902
 51
270.0209747803033906
  0
LINE
  5
ACA3
  8
0
 10
3874.1415774065349069
 20
215.1813356427464043
 30
0.0
 11
3874.1694558781728119
 21
215.1813458484691921
 31
0.0
  0
ARC
  5
ACA4
  8
0
 10
3874.1694526129808764
 20
215.190265212981501
 30
0.0
 40
0.0089193651099378
 50
270.0209747803033906
 51
314.6023331944750794
  0
LINE
  5
ACA5
  8
0
 10
3874.1757156310359278
 20
215.1839146477464055
 30
0.0
 11
3874.1887318348308327
 21
215.1968041411464014
 31
0.0
  0
LINE
  5
ACA6
  8
0
 10
3874.1307118047761833
 20
215.2010778740942101
 30
0.0
 11
3874.1427889998358296
 21
215.1890796212464068
 31
0.0
  0
LINE
  5
ACA7
  8
0
 10
3874.1427889998358296
 20
215.1890796212464068
 30
0.0
 11
3874.1682469644360935
 21
215.1890796212464068
 31
0.0
  0
LINE
  5
ACA8
  8
0
 10
3874.1682469644360935
 20
215.1890796212464068
 30
0.0
 11
3874.1803264340960595
 21
215.2010791017044085
 31
0.0
  0
LINE
  5
ACA9
  8
0
 10
3874.1803264340960595
 20
215.2010791017044085
 30
0.0
 11
3874.1685848520091895
 21
215.2131725262048008
 31
0.0
  0
LINE
  5
ACAA
  8
0
 10
3874.1376128395459091
 20
215.2079293247282976
 30
0.0
 11
3874.1427889998358296
 21
215.2027859054464045
 31
0.0
  0
LINE
  5
ACAB
  8
0
 10
3874.1427889998358296
 20
215.2027859054464045
 30
0.0
 11
3874.1682469644360935
 21
215.2027859054464045
 31
0.0
  0
LINE
  5
ACAC
  8
0
 10
3874.1682469644360935
 20
215.2027859054464045
 30
0.0
 11
3874.1736120641721755
 21
215.2079935505979904
 31
0.0
  0
LINE
  5
ACAD
  8
0
 10
3874.1682469644360935
 20
215.2027859054464045
 30
0.0
 11
3874.1682469644360935
 21
215.1890796212464068
 31
0.0
  0
LINE
  5
ACAE
  8
0
 10
3874.1427889998358296
 20
215.2027859054464045
 30
0.0
 11
3874.1427889998358296
 21
215.1890796212464068
 31
0.0
  0
LINE
  5
ACAF
  8
0
 10
3874.1088071630861123
 20
215.1968041411464014
 30
0.0
 11
3874.1227450610349479
 21
215.1968036201463974
 31
0.0
  0
ARC
  5
ACB0
  8
0
 10
3874.122745393130117
 20
215.2056878646386053
 30
0.0
 40
0.008884244498413
 50
269.997858278115018
 51
314.7934228374951999
  0
LINE
  5
ACB1
  8
0
 10
3874.1290048120358733
 20
215.1993831461464026
 30
0.0
 11
3874.1428845097721023
 21
215.2131631178494899
 31
0.0
  0
ARC
  5
ACB2
  8
0
 10
3874.1895212935291966
 20
215.2087571733814002
 30
0.0
 40
0.0119790744486375
 50
219.863217994725801
 51
266.2212891812735052
  0
LINE
  5
ACB3
  8
0
 10
3874.1223484697570711
 20
215.2286311377463903
 30
0.0
 11
3874.1353204448359975
 21
215.215741374146404
 31
0.0
  0
ARC
  5
ACB4
  8
0
 10
3874.1415741585601609
 20
215.2220349743317911
 30
0.0
 40
0.0088723355798629
 50
225.1821360477964902
 51
270.0209747803033906
  0
LINE
  5
ACB5
  8
0
 10
3874.1415774065349069
 20
215.2131626393463932
 30
0.0
 11
3874.1694558781728119
 21
215.2131728450692094
 31
0.0
  0
ARC
  5
ACB6
  8
0
 10
3874.1694526129808764
 20
215.2220922095814899
 30
0.0
 40
0.0089193651099378
 50
270.0209747803033906
 51
314.6023331944750794
  0
LINE
  5
ACB7
  8
0
 10
3874.1757156310359278
 20
215.2157416443463944
 30
0.0
 11
3874.1887318348308327
 21
215.2286311377463903
 31
0.0
  0
LINE
  5
ACB8
  8
0
 10
3874.1307118047761833
 20
215.2329048706941137
 30
0.0
 11
3874.1427889998358296
 21
215.2209066178463956
 31
0.0
  0
LINE
  5
ACB9
  8
0
 10
3874.1427889998358296
 20
215.2209066178463956
 30
0.0
 11
3874.1682469644360935
 21
215.2209066178463956
 31
0.0
  0
LINE
  5
ACBA
  8
0
 10
3874.1682469644360935
 20
215.2209066178463956
 30
0.0
 11
3874.1803264340960595
 21
215.232906098304511
 31
0.0
  0
LINE
  5
ACBB
  8
0
 10
3874.1803264340960595
 20
215.232906098304511
 30
0.0
 11
3874.1702759062300174
 21
215.2432577952938004
 31
0.0
  0
LINE
  5
ACBC
  8
0
 10
3874.1376128395459091
 20
215.2397563213284002
 30
0.0
 11
3874.1427889998358296
 21
215.2346129020463934
 31
0.0
  0
LINE
  5
ACBD
  8
0
 10
3874.1427889998358296
 20
215.2346129020463934
 30
0.0
 11
3874.1682469644360935
 21
215.2346129020463934
 31
0.0
  0
LINE
  5
ACBE
  8
0
 10
3874.1682469644360935
 20
215.2346129020463934
 30
0.0
 11
3874.1736120641721755
 21
215.239820547198093
 31
0.0
  0
LINE
  5
ACBF
  8
0
 10
3874.1682469644360935
 20
215.2346129020463934
 30
0.0
 11
3874.1682469644360935
 21
215.2209066178463956
 31
0.0
  0
LINE
  5
ACC0
  8
0
 10
3874.1427889998358296
 20
215.2346129020463934
 30
0.0
 11
3874.1427889998358296
 21
215.2209066178463956
 31
0.0
  0
LINE
  5
ACC1
  8
0
 10
3874.1088071630861123
 20
215.2286311377463903
 30
0.0
 11
3874.1227450610349479
 21
215.2286306167463863
 31
0.0
  0
ARC
  5
ACC2
  8
0
 10
3874.122745393130117
 20
215.2375148612385942
 30
0.0
 40
0.008884244498413
 50
269.997858278115018
 51
314.7934228374951999
  0
LINE
  5
ACC3
  8
0
 10
3874.1290048120358733
 20
215.2312101427463915
 30
0.0
 11
3874.1411037851180481
 21
215.2432221843548064
 31
0.0
  0
ARC
  5
ACC4
  8
0
 10
3874.1895212935291966
 20
215.2405841699813891
 30
0.0
 40
0.0119790744486375
 50
219.863217994725801
 51
266.2212891812735052
  0
LINE
  5
ACC5
  8
0
 10
3874.1223498095391733
 20
215.2586781347463898
 30
0.0
 11
3874.1353217846171901
 21
215.2457883711464035
 31
0.0
  0
ARC
  5
ACC6
  8
0
 10
3874.1415754983418083
 20
215.2520819713317906
 30
0.0
 40
0.0088723355798629
 50
225.1821360477964902
 51
270.0209747803033906
  0
LINE
  5
ACC7
  8
0
 10
3874.1415787463170091
 20
215.2432096363463927
 30
0.0
 11
3874.1694572179540046
 21
215.2432198420692089
 31
0.0
  0
ARC
  5
ACC8
  8
0
 10
3874.1694539527620691
 20
215.2521392065814894
 30
0.0
 40
0.0089193651099378
 50
270.0209747803033906
 51
314.6023331944750794
  0
LINE
  5
ACC9
  8
0
 10
3874.1757169708171205
 20
215.2457886413463939
 30
0.0
 11
3874.1887331746129348
 21
215.2586781347463898
 31
0.0
  0
LINE
  5
ACCA
  8
0
 10
3874.1307131445578307
 20
215.2629518676941132
 30
0.0
 11
3874.1427903396170223
 21
215.2509536148463951
 31
0.0
  0
LINE
  5
ACCB
  8
0
 10
3874.1427903396170223
 20
215.2509536148463951
 30
0.0
 11
3874.1682483042181957
 21
215.2509536148463951
 31
0.0
  0
LINE
  5
ACCC
  8
0
 10
3874.1682483042181957
 20
215.2509536148463951
 30
0.0
 11
3874.1803277738781617
 21
215.2629530953045105
 31
0.0
  0
LINE
  5
ACCD
  8
0
 10
3874.1803277738781617
 20
215.2629530953045105
 30
0.0
 11
3874.1694499908089711
 21
215.2741568366139973
 31
0.0
  0
LINE
  5
ACCE
  8
0
 10
3874.1376141793280112
 20
215.2698033183283997
 30
0.0
 11
3874.1427903396170223
 21
215.2646598990463929
 31
0.0
  0
LINE
  5
ACCF
  8
0
 10
3874.1427903396170223
 20
215.2646598990463929
 30
0.0
 11
3874.1682483042181957
 21
215.2646598990463929
 31
0.0
  0
LINE
  5
ACD0
  8
0
 10
3874.1682483042181957
 20
215.2646598990463929
 30
0.0
 11
3874.1736134039538229
 21
215.2698675441980924
 31
0.0
  0
LINE
  5
ACD1
  8
0
 10
3874.1682483042181957
 20
215.2646598990463929
 30
0.0
 11
3874.1682483042181957
 21
215.2509536148463951
 31
0.0
  0
LINE
  5
ACD2
  8
0
 10
3874.1427903396170223
 20
215.2646598990463929
 30
0.0
 11
3874.1427903396170223
 21
215.2509536148463951
 31
0.0
  0
LINE
  5
ACD3
  8
0
 10
3874.1088085028668502
 20
215.2586781347463898
 30
0.0
 11
3874.12274640081705
 21
215.2586776137464142
 31
0.0
  0
ARC
  5
ACD4
  8
0
 10
3874.1227467329108549
 20
215.2675618582385937
 30
0.0
 40
0.008884244498413
 50
269.997858278115018
 51
314.7934228374951999
  0
LINE
  5
ACD5
  8
0
 10
3874.129006151817066
 20
215.261257139746391
 30
0.0
 11
3874.1419890785277858
 21
215.2741467837508935
 31
0.0
  0
ARC
  5
ACD6
  8
0
 10
3874.1895226333099345
 20
215.2706311669813886
 30
0.0
 40
0.0119790744486375
 50
219.863217994725801
 51
266.2212891812735052
  0
LINE
  5
ACD7
  8
0
 10
3874.1223484697570711
 20
215.2896151314463964
 30
0.0
 11
3874.1353204448359975
 21
215.2767253678464101
 31
0.0
  0
ARC
  5
ACD8
  8
0
 10
3874.1415741585601609
 20
215.2830189680317972
 30
0.0
 40
0.0088723355798629
 50
225.1821360477964902
 51
270.0209747803033906
  0
LINE
  5
ACD9
  8
0
 10
3874.1415774065349069
 20
215.2741466330463993
 30
0.0
 11
3874.1694558781728119
 21
215.2741568387691871
 31
0.0
  0
ARC
  5
ACDA
  8
0
 10
3874.1694526129808764
 20
215.283076203281496
 30
0.0
 40
0.0089193651099378
 50
270.0209747803033906
 51
314.6023331944750794
  0
LINE
  5
ACDB
  8
0
 10
3874.1757156310359278
 20
215.2767256380464005
 30
0.0
 11
3874.1887318348308327
 21
215.2896151314463964
 31
0.0
  0
LINE
  5
ACDC
  8
0
 10
3874.1307118047761833
 20
215.2938888643940913
 30
0.0
 11
3874.1427889998358296
 21
215.2818906115464017
 31
0.0
  0
LINE
  5
ACDD
  8
0
 10
3874.1427889998358296
 20
215.2818906115464017
 30
0.0
 11
3874.1682469644360935
 21
215.2818906115464017
 31
0.0
  0
LINE
  5
ACDE
  8
0
 10
3874.1682469644360935
 20
215.2818906115464017
 30
0.0
 11
3874.1803264340960595
 21
215.2938900920044887
 31
0.0
  0
LINE
  5
ACDF
  8
0
 10
3874.1803264340960595
 20
215.2938900920044887
 30
0.0
 11
3874.1694486514061282
 21
215.3050938329236033
 31
0.0
  0
LINE
  5
ACE0
  8
0
 10
3874.1376128395459091
 20
215.3007403150282926
 30
0.0
 11
3874.1427889998358296
 21
215.2955968957463995
 31
0.0
  0
LINE
  5
ACE1
  8
0
 10
3874.1427889998358296
 20
215.2955968957463995
 30
0.0
 11
3874.1682469644360935
 21
215.2955968957463995
 31
0.0
  0
LINE
  5
ACE2
  8
0
 10
3874.1682469644360935
 20
215.2955968957463995
 30
0.0
 11
3874.1736120641721755
 21
215.300804540898099
 31
0.0
  0
LINE
  5
ACE3
  8
0
 10
3874.1682469644360935
 20
215.2955968957463995
 30
0.0
 11
3874.1682469644360935
 21
215.2818906115464017
 31
0.0
  0
LINE
  5
ACE4
  8
0
 10
3874.1427889998358296
 20
215.2955968957463995
 30
0.0
 11
3874.1427889998358296
 21
215.2818906115464017
 31
0.0
  0
LINE
  5
ACE5
  8
0
 10
3874.1088071630861123
 20
215.2896151314463964
 30
0.0
 11
3874.1227450610349479
 21
215.2896146104463924
 31
0.0
  0
ARC
  5
ACE6
  8
0
 10
3874.122745393130117
 20
215.2984988549386003
 30
0.0
 40
0.008884244498413
 50
269.997858278115018
 51
314.7934228374951999
  0
LINE
  5
ACE7
  8
0
 10
3874.1290048120358733
 20
215.2921941364463976
 30
0.0
 11
3874.1419877383541461
 21
215.3050837800603006
 31
0.0
  0
ARC
  5
ACE8
  8
0
 10
3874.1895212935291966
 20
215.3015681636813952
 30
0.0
 40
0.0119790744486375
 50
219.863217994725801
 51
266.2212891812735052
  0
LINE
  5
ACE9
  8
0
 10
3874.1223484697570711
 20
215.3205521282463906
 30
0.0
 11
3874.1353204448359975
 21
215.3076623646464043
 31
0.0
  0
ARC
  5
ACEA
  8
0
 10
3874.1415741585601609
 20
215.3139559648317913
 30
0.0
 40
0.0088723355798629
 50
225.1821360477964902
 51
270.0209747803033906
  0
LINE
  5
ACEB
  8
0
 10
3874.1415774065349069
 20
215.3050836298463935
 30
0.0
 11
3874.1694558781728119
 21
215.3050938355692949
 31
0.0
  0
ARC
  5
ACEC
  8
0
 10
3874.1694526129808764
 20
215.3140132000814901
 30
0.0
 40
0.0089193651099378
 50
270.0209747803033906
 51
314.6023331944750794
  0
LINE
  5
ACED
  8
0
 10
3874.1757156310359278
 20
215.3076626348463947
 30
0.0
 11
3874.1887318348308327
 21
215.3205521282463906
 31
0.0
  0
LINE
  5
ACEE
  8
0
 10
3874.1307118047761833
 20
215.3248258611941992
 30
0.0
 11
3874.1427889998358296
 21
215.3128276083463959
 31
0.0
  0
LINE
  5
ACEF
  8
0
 10
3874.1427889998358296
 20
215.3128276083463959
 30
0.0
 11
3874.1682469644360935
 21
215.3128276083463959
 31
0.0
  0
LINE
  5
ACF0
  8
0
 10
3874.1682469644360935
 20
215.3128276083463959
 30
0.0
 11
3874.1803264340960595
 21
215.3248270888043976
 31
0.0
  0
LINE
  5
ACF1
  8
0
 10
3874.1803264340960595
 20
215.3248270888043976
 30
0.0
 11
3874.1694486514061282
 21
215.3360308297237111
 31
0.0
  0
LINE
  5
ACF2
  8
0
 10
3874.1376128395459091
 20
215.3316773118284004
 30
0.0
 11
3874.1427889998358296
 21
215.3265338925463936
 31
0.0
  0
LINE
  5
ACF3
  8
0
 10
3874.1427889998358296
 20
215.3265338925463936
 30
0.0
 11
3874.1682469644360935
 21
215.3265338925463936
 31
0.0
  0
LINE
  5
ACF4
  8
0
 10
3874.1682469644360935
 20
215.3265338925463936
 30
0.0
 11
3874.1736120641721755
 21
215.3317415376980932
 31
0.0
  0
LINE
  5
ACF5
  8
0
 10
3874.1682469644360935
 20
215.3265338925463936
 30
0.0
 11
3874.1682469644360935
 21
215.3128276083463959
 31
0.0
  0
LINE
  5
ACF6
  8
0
 10
3874.1427889998358296
 20
215.3265338925463936
 30
0.0
 11
3874.1427889998358296
 21
215.3128276083463959
 31
0.0
  0
LINE
  5
ACF7
  8
0
 10
3874.1088071630861123
 20
215.3205521282463906
 30
0.0
 11
3874.1227450610349479
 21
215.3205516072463865
 31
0.0
  0
ARC
  5
ACF8
  8
0
 10
3874.122745393130117
 20
215.3294358517385945
 30
0.0
 40
0.008884244498413
 50
269.997858278115018
 51
314.7934228374951999
  0
LINE
  5
ACF9
  8
0
 10
3874.1290048120358733
 20
215.3231311332463918
 30
0.0
 11
3874.1419877383541461
 21
215.3360207768602947
 31
0.0
  0
ARC
  5
ACFA
  8
0
 10
3874.1895212935291966
 20
215.3325051604813893
 30
0.0
 40
0.0119790744486375
 50
219.863217994725801
 51
266.2212891812735052
  0
LINE
  5
ACFB
  8
0
 10
3874.1223484697570711
 20
215.3514891250464132
 30
0.0
 11
3874.1353204448359975
 21
215.3385993614463985
 31
0.0
  0
ARC
  5
ACFC
  8
0
 10
3874.1415741585601609
 20
215.3448929616318139
 30
0.0
 40
0.0088723355798629
 50
225.1821360477964902
 51
270.0209747803033906
  0
LINE
  5
ACFD
  8
0
 10
3874.1415774065349069
 20
215.3360206266463877
 30
0.0
 11
3874.1694558781728119
 21
215.3360308323692038
 31
0.0
  0
ARC
  5
ACFE
  8
0
 10
3874.1694526129808764
 20
215.3449501968815127
 30
0.0
 40
0.0089193651099378
 50
270.0209747803033906
 51
314.6023331944750794
  0
LINE
  5
ACFF
  8
0
 10
3874.1757156310359278
 20
215.3385996316463888
 30
0.0
 11
3874.1887318348308327
 21
215.3514891250464132
 31
0.0
  0
LINE
  5
AD00
  8
0
 10
3874.1307118047761833
 20
215.3557628579941934
 30
0.0
 11
3874.1427889998358296
 21
215.3437646051463901
 31
0.0
  0
LINE
  5
AD01
  8
0
 10
3874.1427889998358296
 20
215.3437646051463901
 30
0.0
 11
3874.1682469644360935
 21
215.3437646051463901
 31
0.0
  0
LINE
  5
AD02
  8
0
 10
3874.1682469644360935
 20
215.3437646051463901
 30
0.0
 11
3874.1803264340960595
 21
215.3557640856045055
 31
0.0
  0
LINE
  5
AD03
  8
0
 10
3874.1803264340960595
 20
215.3557640856045055
 30
0.0
 11
3874.1694486515038989
 21
215.3669678264236893
 31
0.0
  0
LINE
  5
AD04
  8
0
 10
3874.1376128395459091
 20
215.3626143086283946
 30
0.0
 11
3874.1427889998358296
 21
215.3574708893463878
 31
0.0
  0
LINE
  5
AD05
  8
0
 10
3874.1427889998358296
 20
215.3574708893463878
 30
0.0
 11
3874.1682469644360935
 21
215.3574708893463878
 31
0.0
  0
LINE
  5
AD06
  8
0
 10
3874.1682469644360935
 20
215.3574708893463878
 30
0.0
 11
3874.1736120641721755
 21
215.3626785344980874
 31
0.0
  0
LINE
  5
AD07
  8
0
 10
3874.1682469644360935
 20
215.3574708893463878
 30
0.0
 11
3874.1682469644360935
 21
215.3437646051463901
 31
0.0
  0
LINE
  5
AD08
  8
0
 10
3874.1427889998358296
 20
215.3574708893463878
 30
0.0
 11
3874.1427889998358296
 21
215.3437646051463901
 31
0.0
  0
LINE
  5
AD09
  8
0
 10
3874.1088071630861123
 20
215.3514891250464132
 30
0.0
 11
3874.1227450610349479
 21
215.3514886040464091
 31
0.0
  0
ARC
  5
AD0A
  8
0
 10
3874.122745393130117
 20
215.3603728485385886
 30
0.0
 40
0.008884244498413
 50
269.997858278115018
 51
314.7934228374951999
  0
LINE
  5
AD0B
  8
0
 10
3874.1290048120358733
 20
215.3540681300463859
 30
0.0
 11
3874.1419877382531922
 21
215.3669577735601877
 31
0.0
  0
ARC
  5
AD0C
  8
0
 10
3874.1895212935291966
 20
215.3634421572814119
 30
0.0
 40
0.0119790744486375
 50
219.863217994725801
 51
266.2212891812735052
  0
LINE
  5
AD0D
  8
0
 10
3874.1223484697570711
 20
215.3824261217463913
 30
0.0
 11
3874.1353204448359975
 21
215.3695363581464051
 31
0.0
  0
ARC
  5
AD0E
  8
0
 10
3874.1415741585601609
 20
215.3758299583317068
 30
0.0
 40
0.0088723355798629
 50
225.1821360477964902
 51
270.0209747803033906
  0
LINE
  5
AD0F
  8
0
 10
3874.1415774065349069
 20
215.3669576233463943
 30
0.0
 11
3874.1694558781728119
 21
215.3669678290692104
 31
0.0
  0
ARC
  5
AD10
  8
0
 10
3874.1694526129808764
 20
215.3758871935814909
 30
0.0
 40
0.0089193651099378
 50
270.0209747803033906
 51
314.6023331944750794
  0
LINE
  5
AD11
  8
0
 10
3874.1757156310359278
 20
215.3695366283463954
 30
0.0
 11
3874.1887318348308327
 21
215.3824261217463913
 31
0.0
  0
LINE
  5
AD12
  8
0
 10
3874.1307118047761833
 20
215.3866998546940863
 30
0.0
 11
3874.1427889998358296
 21
215.3747016018463967
 31
0.0
  0
LINE
  5
AD13
  8
0
 10
3874.1427889998358296
 20
215.3747016018463967
 30
0.0
 11
3874.1682469644360935
 21
215.3747016018463967
 31
0.0
  0
LINE
  5
AD14
  8
0
 10
3874.1682469644360935
 20
215.3747016018463967
 30
0.0
 11
3874.1803264340960595
 21
215.3867010823045121
 31
0.0
  0
LINE
  5
AD15
  8
0
 10
3874.1803264340960595
 20
215.3867010823045121
 30
0.0
 11
3874.176374199214024
 21
215.3907717478928987
 31
0.0
  0
LINE
  5
AD16
  8
0
 10
3874.1376128395459091
 20
215.3935513053284012
 30
0.0
 11
3874.1427889998358296
 21
215.3884078860463944
 31
0.0
  0
LINE
  5
AD17
  8
0
 10
3874.1427889998358296
 20
215.3884078860463944
 30
0.0
 11
3874.1682469644360935
 21
215.3884078860463944
 31
0.0
  0
LINE
  5
AD18
  8
0
 10
3874.1682469644360935
 20
215.3884078860463944
 30
0.0
 11
3874.1715695684852108
 21
215.391632978535597
 31
0.0
  0
LINE
  5
AD19
  8
0
 10
3874.1682469644360935
 20
215.3884078860463944
 30
0.0
 11
3874.1682469644360935
 21
215.3747016018463967
 31
0.0
  0
LINE
  5
AD1A
  8
0
 10
3874.1427889998358296
 20
215.3884078860463944
 30
0.0
 11
3874.1427889998358296
 21
215.3747016018463967
 31
0.0
  0
LINE
  5
AD1B
  8
0
 10
3874.1088071630861123
 20
215.3824261217463913
 30
0.0
 11
3874.1227450610349479
 21
215.3824256007463873
 31
0.0
  0
ARC
  5
AD1C
  8
0
 10
3874.122745393130117
 20
215.3913098452385952
 30
0.0
 40
0.008884244498413
 50
269.997858278115018
 51
314.7934228374951999
  0
LINE
  5
AD1D
  8
0
 10
3874.1290048120358733
 20
215.3850051267463925
 30
0.0
 11
3874.1395228510400557
 21
215.3954475933338983
 31
0.0
  0
ARC
  5
AD1E
  8
0
 10
3874.1895212935291966
 20
215.3943791539813901
 30
0.0
 40
0.0119790744486375
 50
219.863217994725801
 51
266.2212891812735052
  0
LINE
  5
AD1F
  8
0
 10
3874.1887318348308327
 20
215.1968041411464014
 30
0.0
 11
3874.2157257674398352
 21
215.1968041411464014
 31
0.0
  0
LINE
  5
AD20
  8
0
 10
3874.1887318348308327
 20
215.2286311377463903
 30
0.0
 11
3874.2157257674398352
 21
215.2286311377463903
 31
0.0
  0
LINE
  5
AD21
  8
0
 10
3874.1887331746129348
 20
215.2586781347463898
 30
0.0
 11
3874.216168038817159
 21
215.2586776137464142
 31
0.0
  0
LINE
  5
AD22
  8
0
 10
3874.1887318348308327
 20
215.2896151314463964
 30
0.0
 11
3874.216168038817159
 21
215.2896146104463924
 31
0.0
  0
LINE
  5
AD23
  8
0
 10
3874.1887318348308327
 20
215.3205521282463906
 30
0.0
 11
3874.2157257674398352
 21
215.3205521282463906
 31
0.0
  0
LINE
  5
AD24
  8
0
 10
3874.1887318348308327
 20
215.3514891250464132
 30
0.0
 11
3874.216168038817159
 21
215.3514886040464091
 31
0.0
  0
LINE
  5
AD25
  8
0
 10
3874.177427390271987
 20
215.1856097433154957
 30
0.0
 11
3874.1894998188358841
 21
215.1736162258077911
 31
0.0
  0
LINE
  5
AD26
  8
0
 10
3874.1894998188358841
 20
215.1736162258077911
 30
0.0
 11
3874.214957783436148
 21
215.1736162258077911
 31
0.0
  0
LINE
  5
AD27
  8
0
 10
3874.1843372938528773
 20
215.1924523802314866
 30
0.0
 11
3874.1894998188358841
 21
215.1873225100077889
 31
0.0
  0
LINE
  5
AD28
  8
0
 10
3874.1894998188358841
 20
215.1873225100077889
 30
0.0
 11
3874.214957783436148
 21
215.1873225100077889
 31
0.0
  0
LINE
  5
AD29
  8
0
 10
3874.1894998188358841
 20
215.1873225100077889
 30
0.0
 11
3874.1894998188358841
 21
215.1736162258077911
 31
0.0
  0
LINE
  5
AD2A
  8
0
 10
3874.1887318348308327
 20
215.1658722473077887
 30
0.0
 11
3874.2161666990350568
 21
215.1658717263078131
 31
0.0
  0
LINE
  5
AD2B
  8
0
 10
3874.1769787403150076
 20
215.2169924574851905
 30
0.0
 11
3874.1894998188358841
 21
215.2045532226078137
 31
0.0
  0
LINE
  5
AD2C
  8
0
 10
3874.1894998188358841
 20
215.2045532226078137
 30
0.0
 11
3874.214957783436148
 21
215.2045532226078137
 31
0.0
  0
LINE
  5
AD2D
  8
0
 10
3874.1838886916398224
 20
215.2238351416802971
 30
0.0
 11
3874.1894998188367936
 21
215.2182595068078115
 31
0.0
  0
LINE
  5
AD2E
  8
0
 10
3874.1894998188358841
 20
215.2182595068078115
 30
0.0
 11
3874.214957783436148
 21
215.2182595068078115
 31
0.0
  0
LINE
  5
AD2F
  8
0
 10
3874.1894998188358841
 20
215.2182595068078115
 30
0.0
 11
3874.1894998188358841
 21
215.2045532226078137
 31
0.0
  0
LINE
  5
AD30
  8
0
 10
3874.177422623775783
 20
215.2474884721555952
 30
0.0
 11
3874.1894998188358841
 21
215.2354902193077919
 31
0.0
  0
LINE
  5
AD31
  8
0
 10
3874.1894998188358841
 20
215.2354902193077919
 30
0.0
 11
3874.214957783436148
 21
215.2354902193077919
 31
0.0
  0
LINE
  5
AD32
  8
0
 10
3874.1843236585459636
 20
215.2543399227897964
 30
0.0
 11
3874.1894998188358841
 21
215.2491965035077897
 31
0.0
  0
LINE
  5
AD33
  8
0
 10
3874.1894998188358841
 20
215.2491965035077897
 30
0.0
 11
3874.214957783436148
 21
215.2491965035077897
 31
0.0
  0
LINE
  5
AD34
  8
0
 10
3874.1894998188358841
 20
215.2491965035077897
 30
0.0
 11
3874.1894998188358841
 21
215.2354902193077919
 31
0.0
  0
LINE
  5
AD35
  8
0
 10
3874.177422623775783
 20
215.2784254689555894
 30
0.0
 11
3874.1894998188358841
 21
215.2664272161077861
 31
0.0
  0
LINE
  5
AD36
  8
0
 10
3874.1894998188358841
 20
215.2664272161077861
 30
0.0
 11
3874.214957783436148
 21
215.2664272161077861
 31
0.0
  0
LINE
  5
AD37
  8
0
 10
3874.1843236585459636
 20
215.2852769195897906
 30
0.0
 11
3874.1894998188358841
 21
215.2801335003078123
 31
0.0
  0
LINE
  5
AD38
  8
0
 10
3874.1894998188358841
 20
215.2801335003078123
 30
0.0
 11
3874.214957783436148
 21
215.2801335003078123
 31
0.0
  0
LINE
  5
AD39
  8
0
 10
3874.1894998188358841
 20
215.2801335003078123
 30
0.0
 11
3874.1894998188358841
 21
215.2664272161077861
 31
0.0
  0
LINE
  5
AD3A
  8
0
 10
3874.177422623775783
 20
215.3093624656555107
 30
0.0
 11
3874.1894998188358841
 21
215.2973642128077927
 31
0.0
  0
LINE
  5
AD3B
  8
0
 10
3874.1894998188358841
 20
215.2973642128077927
 30
0.0
 11
3874.214957783436148
 21
215.2973642128077927
 31
0.0
  0
LINE
  5
AD3C
  8
0
 10
3874.1843236585459636
 20
215.3162139162897972
 30
0.0
 11
3874.1894998188358841
 21
215.3110704970077904
 31
0.0
  0
LINE
  5
AD3D
  8
0
 10
3874.1894998188358841
 20
215.3110704970077904
 30
0.0
 11
3874.214957783436148
 21
215.3110704970077904
 31
0.0
  0
LINE
  5
AD3E
  8
0
 10
3874.1894998188358841
 20
215.3110704970077904
 30
0.0
 11
3874.1894998188358841
 21
215.2973642128077927
 31
0.0
  0
LINE
  5
AD3F
  8
0
 10
3874.177422623775783
 20
215.3712364592556128
 30
0.0
 11
3874.1894998188358841
 21
215.3592382064078095
 31
0.0
  0
LINE
  5
AD40
  8
0
 10
3874.1894998188358841
 20
215.3592382064078095
 30
0.0
 11
3874.214957783436148
 21
215.3592382064078095
 31
0.0
  0
LINE
  5
AD41
  8
0
 10
3874.1843236585459636
 20
215.3780879098897003
 30
0.0
 11
3874.1894998188358841
 21
215.3729444906078072
 31
0.0
  0
LINE
  5
AD42
  8
0
 10
3874.1894998188358841
 20
215.3729444906078072
 30
0.0
 11
3874.214957783436148
 21
215.3729444906078072
 31
0.0
  0
LINE
  5
AD43
  8
0
 10
3874.1894998188358841
 20
215.3729444906078072
 30
0.0
 11
3874.1894998188358841
 21
215.3592382064078095
 31
0.0
  0
ARC
  5
AD44
  8
0
 10
3874.2257312877750337
 20
215.1631706981555965
 30
0.0
 40
0.0054224132569383
 50
244.9213338122698076
 51
0.0050664023656298
  0
LINE
  5
AD45
  8
0
 10
3874.2234329317129777
 20
215.1582594737724037
 30
0.0
 11
3874.2157257674398352
 21
215.1658722473077887
 31
0.0
  0
LINE
  5
AD46
  8
0
 10
3874.2311537010109532
 20
215.1631711776346947
 30
0.0
 11
3874.2241311681750631
 21
215.1701472078659094
 31
0.0
  0
LINE
  5
AD47
  8
0
 10
3874.2241311681750631
 20
215.1701472078659094
 30
0.0
 11
3874.2349990445350159
 21
215.1813407456077982
 31
0.0
  0
LINE
  5
AD48
  8
0
 10
3874.2428801009309609
 20
215.1813429643609936
 30
0.0
 11
3874.2311537010359643
 21
215.176762537767388
 31
0.0
  0
LINE
  5
AD49
  8
0
 10
3874.2311537010359643
 20
215.176762537767388
 30
0.0
 11
3874.2311537010109532
 21
215.1631711776346947
 31
0.0
  0
LINE
  5
AD4A
  8
0
 10
3874.2674932202839955
 20
215.1763610384379035
 30
0.0
 11
3874.2624700153191952
 21
215.1813407456077982
 31
0.0
  0
ARC
  5
AD4B
  8
0
 10
3874.2149363087428355
 20
215.1778252795427875
 30
0.0
 40
0.0119790744486375
 50
273.7787108187263811
 51
320.136782005274199
  0
LINE
  5
AD4C
  8
0
 10
3874.2817112939442268
 20
215.1968036201874099
 30
0.0
 11
3874.2691371574360346
 21
215.1839143775463867
 31
0.0
  0
ARC
  5
AD4D
  8
0
 10
3874.2628834437109617
 20
215.1902079777318022
 30
0.0
 40
0.0088723355798629
 50
269.9790252196966094
 51
314.8178639522034814
  0
LINE
  5
AD4E
  8
0
 10
3874.2628801957348514
 20
215.1813356427464043
 30
0.0
 11
3874.2350017240992202
 21
215.1813458484691921
 31
0.0
  0
ARC
  5
AD4F
  8
0
 10
3874.2350049892911557
 20
215.190265212981501
 30
0.0
 40
0.0089193651099378
 50
225.3976668055238122
 51
269.9790252196966094
  0
LINE
  5
AD50
  8
0
 10
3874.2287419712361043
 20
215.1839146477464055
 30
0.0
 11
3874.2157257674398352
 21
215.1968041411464014
 31
0.0
  0
LINE
  5
AD51
  8
0
 10
3874.2737457974949393
 20
215.2010778740942101
 30
0.0
 11
3874.2616686024362025
 21
215.1890796212464068
 31
0.0
  0
LINE
  5
AD52
  8
0
 10
3874.2616686024362025
 20
215.1890796212464068
 30
0.0
 11
3874.2362106378359385
 21
215.1890796212464068
 31
0.0
  0
LINE
  5
AD53
  8
0
 10
3874.2362106378359385
 20
215.1890796212464068
 30
0.0
 11
3874.2241311681750631
 21
215.2010791017044085
 31
0.0
  0
LINE
  5
AD54
  8
0
 10
3874.2241311681750631
 20
215.2010791017044085
 30
0.0
 11
3874.2358727502628426
 21
215.2131725262048008
 31
0.0
  0
LINE
  5
AD55
  8
0
 10
3874.2668447627252135
 20
215.2079293247282976
 30
0.0
 11
3874.2616686024362025
 21
215.2027859054464045
 31
0.0
  0
LINE
  5
AD56
  8
0
 10
3874.2616686024362025
 20
215.2027859054464045
 30
0.0
 11
3874.2362106378359385
 21
215.2027859054464045
 31
0.0
  0
LINE
  5
AD57
  8
0
 10
3874.2362106378359385
 20
215.2027859054464045
 30
0.0
 11
3874.2308455380989471
 21
215.2079935505979904
 31
0.0
  0
LINE
  5
AD58
  8
0
 10
3874.2362106378359385
 20
215.2027859054464045
 30
0.0
 11
3874.2362106378359385
 21
215.1890796212464068
 31
0.0
  0
LINE
  5
AD59
  8
0
 10
3874.2616686024362025
 20
215.2027859054464045
 30
0.0
 11
3874.2616686024362025
 21
215.1890796212464068
 31
0.0
  0
ARC
  5
AD5A
  8
0
 10
3874.2817122091419151
 20
215.2056878646386053
 30
0.0
 40
0.008884244498413
 50
225.2065771625048001
 51
270.0021417218850956
  0
LINE
  5
AD5B
  8
0
 10
3874.2754527902361588
 20
215.1993831461464026
 30
0.0
 11
3874.2615730924999298
 21
215.2131631178494899
 31
0.0
  0
ARC
  5
AD5C
  8
0
 10
3874.2149363087428355
 20
215.2087571733814002
 30
0.0
 40
0.0119790744486375
 50
273.7787108187263811
 51
320.136782005274199
  0
LINE
  5
AD5D
  8
0
 10
3874.2817112033671947
 20
215.2277513436692118
 30
0.0
 11
3874.2688835906819804
 21
215.2154991824918966
 31
0.0
  0
ARC
  5
AD5E
  8
0
 10
3874.2628834437109617
 20
215.2220349743317911
 30
0.0
 40
0.0088723355798629
 50
269.9790252196966094
 51
314.8178639522034814
  0
LINE
  5
AD5F
  8
0
 10
3874.2628801957348514
 20
215.2131626393463932
 30
0.0
 11
3874.2350017240992202
 21
215.2131728450692094
 31
0.0
  0
ARC
  5
AD60
  8
0
 10
3874.2350049892911557
 20
215.2220922095814899
 30
0.0
 40
0.0089193651099378
 50
225.3976668055238122
 51
269.9790252196966094
  0
LINE
  5
AD61
  8
0
 10
3874.2287419712361043
 20
215.2157416443463944
 30
0.0
 11
3874.2157257674398352
 21
215.2286311377463903
 31
0.0
  0
LINE
  5
AD62
  8
0
 10
3874.2737457974949393
 20
215.2329048706941137
 30
0.0
 11
3874.2616686024362025
 21
215.2209066178463956
 31
0.0
  0
LINE
  5
AD63
  8
0
 10
3874.2616686024362025
 20
215.2209066178463956
 30
0.0
 11
3874.2362106378359385
 21
215.2209066178463956
 31
0.0
  0
LINE
  5
AD64
  8
0
 10
3874.2362106378359385
 20
215.2209066178463956
 30
0.0
 11
3874.2241311681750631
 21
215.232906098304511
 31
0.0
  0
LINE
  5
AD65
  8
0
 10
3874.2241311681750631
 20
215.232906098304511
 30
0.0
 11
3874.2341816960420147
 21
215.2432577952938004
 31
0.0
  0
LINE
  5
AD66
  8
0
 10
3874.2668447627252135
 20
215.2397563213284002
 30
0.0
 11
3874.2616686024362025
 21
215.2346129020463934
 31
0.0
  0
LINE
  5
AD67
  8
0
 10
3874.2616686024362025
 20
215.2346129020463934
 30
0.0
 11
3874.2362106378359385
 21
215.2346129020463934
 31
0.0
  0
LINE
  5
AD68
  8
0
 10
3874.2362106378359385
 20
215.2346129020463934
 30
0.0
 11
3874.2308455380989471
 21
215.239820547198093
 31
0.0
  0
LINE
  5
AD69
  8
0
 10
3874.2362106378359385
 20
215.2346129020463934
 30
0.0
 11
3874.2362106378359385
 21
215.2209066178463956
 31
0.0
  0
LINE
  5
AD6A
  8
0
 10
3874.2616686024362025
 20
215.2346129020463934
 30
0.0
 11
3874.2616686024362025
 21
215.2209066178463956
 31
0.0
  0
ARC
  5
AD6B
  8
0
 10
3874.2905870303861775
 20
215.2512028664519903
 30
0.0
 40
0.0250749721056272
 50
232.874737083966096
 51
249.2695731033649054
  0
LINE
  5
AD6C
  8
0
 10
3874.2754527902361588
 20
215.2312101427463915
 30
0.0
 11
3874.263353817152165
 21
215.2432221843548064
 31
0.0
  0
ARC
  5
AD6D
  8
0
 10
3874.2149363087428355
 20
215.2405841699813891
 30
0.0
 40
0.0119790744486375
 50
273.7787108187263811
 51
320.136782005274199
  0
LINE
  5
AD6E
  8
0
 10
3874.281709863586002
 20
215.2577983406692113
 30
0.0
 11
3874.2691358176539325
 21
215.2457883711464035
 31
0.0
  0
ARC
  5
AD6F
  8
0
 10
3874.2628821039302238
 20
215.2520819713317906
 30
0.0
 40
0.0088723355798629
 50
269.9790252196966094
 51
314.8178639522034814
  0
LINE
  5
AD70
  8
0
 10
3874.2628788559541135
 20
215.2432096363463927
 30
0.0
 11
3874.235000384317118
 21
215.2432198420692089
 31
0.0
  0
ARC
  5
AD71
  8
0
 10
3874.2350036495090535
 20
215.2521392065814894
 30
0.0
 40
0.0089193651099378
 50
225.3976668055238122
 51
269.9790252196966094
  0
LINE
  5
AD72
  8
0
 10
3874.2287406314540021
 20
215.2457886413463939
 30
0.0
 11
3874.2157244276590973
 21
215.2586781347463898
 31
0.0
  0
LINE
  5
AD73
  8
0
 10
3874.2737444577142014
 20
215.2629518676941132
 30
0.0
 11
3874.2616672626541003
 21
215.2509536148463951
 31
0.0
  0
LINE
  5
AD74
  8
0
 10
3874.2616672626541003
 20
215.2509536148463951
 30
0.0
 11
3874.2362092980538364
 21
215.2509536148463951
 31
0.0
  0
LINE
  5
AD75
  8
0
 10
3874.2362092980538364
 20
215.2509536148463951
 30
0.0
 11
3874.2241298283929609
 21
215.2629530953045105
 31
0.0
  0
LINE
  5
AD76
  8
0
 10
3874.2241298283929609
 20
215.2629530953045105
 30
0.0
 11
3874.235007611463061
 21
215.2741568366139973
 31
0.0
  0
LINE
  5
AD77
  8
0
 10
3874.2668434229440209
 20
215.2698033183283997
 30
0.0
 11
3874.2616672626541003
 21
215.2646598990463929
 31
0.0
  0
LINE
  5
AD78
  8
0
 10
3874.2616672626541003
 20
215.2646598990463929
 30
0.0
 11
3874.2362092980538364
 21
215.2646598990463929
 31
0.0
  0
LINE
  5
AD79
  8
0
 10
3874.2362092980538364
 20
215.2646598990463929
 30
0.0
 11
3874.230844198316845
 21
215.2698675441980924
 31
0.0
  0
LINE
  5
AD7A
  8
0
 10
3874.2362092980538364
 20
215.2646598990463929
 30
0.0
 11
3874.2362092980538364
 21
215.2509536148463951
 31
0.0
  0
LINE
  5
AD7B
  8
0
 10
3874.2616672626541003
 20
215.2646598990463929
 30
0.0
 11
3874.2616672626541003
 21
215.2509536148463951
 31
0.0
  0
ARC
  5
AD7C
  8
0
 10
3874.2830970099680599
 20
215.2676997102948064
 30
0.0
 40
0.009998064590083
 50
220.1193384555020032
 51
262.024971731797109
  0
LINE
  5
AD7D
  8
0
 10
3874.2754514504540566
 20
215.261257139746391
 30
0.0
 11
3874.2624685237419726
 21
215.2741467837508935
 31
0.0
  0
ARC
  5
AD7E
  8
0
 10
3874.2149349689611881
 20
215.2706311669813886
 30
0.0
 40
0.0119790744486375
 50
273.7787108187263811
 51
320.136782005274199
  0
LINE
  5
AD7F
  8
0
 10
3874.2817112033671947
 20
215.2887353373691894
 30
0.0
 11
3874.2691371574360346
 21
215.2767253678464101
 31
0.0
  0
ARC
  5
AD80
  8
0
 10
3874.2628834437109617
 20
215.2830189680317972
 30
0.0
 40
0.0088723355798629
 50
269.9790252196966094
 51
314.8178639522034814
  0
LINE
  5
AD81
  8
0
 10
3874.2628801957348514
 20
215.2741466330463993
 30
0.0
 11
3874.2350017240992202
 21
215.2741568387691871
 31
0.0
  0
ARC
  5
AD82
  8
0
 10
3874.2350049892911557
 20
215.283076203281496
 30
0.0
 40
0.0089193651099378
 50
225.3976668055238122
 51
269.9790252196966094
  0
LINE
  5
AD83
  8
0
 10
3874.2287419712361043
 20
215.2767256380464005
 30
0.0
 11
3874.2157257674398352
 21
215.2896151314463964
 31
0.0
  0
LINE
  5
AD84
  8
0
 10
3874.2737457974949393
 20
215.2938888643940913
 30
0.0
 11
3874.2616686024362025
 21
215.2818906115464017
 31
0.0
  0
LINE
  5
AD85
  8
0
 10
3874.2616686024362025
 20
215.2818906115464017
 30
0.0
 11
3874.2362106378359385
 21
215.2818906115464017
 31
0.0
  0
LINE
  5
AD86
  8
0
 10
3874.2362106378359385
 20
215.2818906115464017
 30
0.0
 11
3874.2241311681750631
 21
215.2938900920044887
 31
0.0
  0
LINE
  5
AD87
  8
0
 10
3874.2241311681750631
 20
215.2938900920044887
 30
0.0
 11
3874.2350089508649944
 21
215.3050938329236033
 31
0.0
  0
LINE
  5
AD88
  8
0
 10
3874.2668447627252135
 20
215.3007403150282926
 30
0.0
 11
3874.2616686024362025
 21
215.2955968957463995
 31
0.0
  0
LINE
  5
AD89
  8
0
 10
3874.2616686024362025
 20
215.2955968957463995
 30
0.0
 11
3874.2362106378359385
 21
215.2955968957463995
 31
0.0
  0
LINE
  5
AD8A
  8
0
 10
3874.2362106378359385
 20
215.2955968957463995
 30
0.0
 11
3874.2308455380989471
 21
215.300804540898099
 31
0.0
  0
LINE
  5
AD8B
  8
0
 10
3874.2362106378359385
 20
215.2955968957463995
 30
0.0
 11
3874.2362106378359385
 21
215.2818906115464017
 31
0.0
  0
LINE
  5
AD8C
  8
0
 10
3874.2616686024362025
 20
215.2955968957463995
 30
0.0
 11
3874.2616686024362025
 21
215.2818906115464017
 31
0.0
  0
ARC
  5
AD8D
  8
0
 10
3874.2831697992269255
 20
215.2987659889629128
 30
0.0
 40
0.0101361468653803
 50
220.4179207172377062
 51
261.7263894700882929
  0
LINE
  5
AD8E
  8
0
 10
3874.2754527902361588
 20
215.2921941364463976
 30
0.0
 11
3874.262469863917886
 21
215.3050837800603006
 31
0.0
  0
ARC
  5
AD8F
  8
0
 10
3874.2149363087428355
 20
215.3015681636813952
 30
0.0
 40
0.0119790744486375
 50
273.7787108187263811
 51
320.136782005274199
  0
LINE
  5
AD90
  8
0
 10
3874.2817112033671947
 20
215.3196723341692973
 30
0.0
 11
3874.2691371574360346
 21
215.3076623646464043
 31
0.0
  0
ARC
  5
AD91
  8
0
 10
3874.2628834437109617
 20
215.3139559648317913
 30
0.0
 40
0.0088723355798629
 50
269.9790252196966094
 51
314.8178639522034814
  0
LINE
  5
AD92
  8
0
 10
3874.2628801957348514
 20
215.3050836298463935
 30
0.0
 11
3874.2350017240992202
 21
215.3050938355692949
 31
0.0
  0
ARC
  5
AD93
  8
0
 10
3874.2350049892911557
 20
215.3140132000814901
 30
0.0
 40
0.0089193651099378
 50
225.3976668055238122
 51
269.9790252196966094
  0
LINE
  5
AD94
  8
0
 10
3874.2287419712361043
 20
215.3076626348463947
 30
0.0
 11
3874.2157257674398352
 21
215.3205521282463906
 31
0.0
  0
LINE
  5
AD95
  8
0
 10
3874.2737457974949393
 20
215.3248258611941992
 30
0.0
 11
3874.2616686024362025
 21
215.3128276083463959
 31
0.0
  0
LINE
  5
AD96
  8
0
 10
3874.2616686024362025
 20
215.3128276083463959
 30
0.0
 11
3874.2362106378359385
 21
215.3128276083463959
 31
0.0
  0
LINE
  5
AD97
  8
0
 10
3874.2362106378359385
 20
215.3128276083463959
 30
0.0
 11
3874.2241311681750631
 21
215.3248270888043976
 31
0.0
  0
LINE
  5
AD98
  8
0
 10
3874.2241311681750631
 20
215.3248270888043976
 30
0.0
 11
3874.2350089508649944
 21
215.3360308297237111
 31
0.0
  0
LINE
  5
AD99
  8
0
 10
3874.2668447627252135
 20
215.3316773118284004
 30
0.0
 11
3874.2616686024362025
 21
215.3265338925463936
 31
0.0
  0
LINE
  5
AD9A
  8
0
 10
3874.2616686024362025
 20
215.3265338925463936
 30
0.0
 11
3874.2362106378359385
 21
215.3265338925463936
 31
0.0
  0
LINE
  5
AD9B
  8
0
 10
3874.2362106378359385
 20
215.3265338925463936
 30
0.0
 11
3874.2308455380989471
 21
215.3317415376980932
 31
0.0
  0
LINE
  5
AD9C
  8
0
 10
3874.2362106378359385
 20
215.3265338925463936
 30
0.0
 11
3874.2362106378359385
 21
215.3128276083463959
 31
0.0
  0
LINE
  5
AD9D
  8
0
 10
3874.2616686024362025
 20
215.3265338925463936
 30
0.0
 11
3874.2616686024362025
 21
215.3128276083463959
 31
0.0
  0
ARC
  5
AD9E
  8
0
 10
3874.284227069582812
 20
215.3316160297212889
 30
0.0
 40
0.0122057956011742
 50
224.0394174119952879
 51
258.1048927753080875
  0
LINE
  5
AD9F
  8
0
 10
3874.2754527902361588
 20
215.3231311332463918
 30
0.0
 11
3874.262469863917886
 21
215.3360207768602947
 31
0.0
  0
ARC
  5
ADA0
  8
0
 10
3874.2149363087428355
 20
215.3325051604813893
 30
0.0
 40
0.0119790744486375
 50
273.7787108187263811
 51
320.136782005274199
  0
LINE
  5
ADA1
  8
0
 10
3874.2817070641858663
 20
215.3510896048753125
 30
0.0
 11
3874.2691371574360346
 21
215.3385993614463985
 31
0.0
  0
ARC
  5
ADA2
  8
0
 10
3874.2628834437109617
 20
215.3448929616318139
 30
0.0
 40
0.0088723355798629
 50
269.9790252196966094
 51
314.8178639522034814
  0
LINE
  5
ADA3
  8
0
 10
3874.2628801957348514
 20
215.3360206266463877
 30
0.0
 11
3874.2350017240992202
 21
215.3360308323692038
 31
0.0
  0
ARC
  5
ADA4
  8
0
 10
3874.2350049892911557
 20
215.3449501968815127
 30
0.0
 40
0.0089193651099378
 50
225.3976668055238122
 51
269.9790252196966094
  0
LINE
  5
ADA5
  8
0
 10
3874.2287419712361043
 20
215.3385996316463888
 30
0.0
 11
3874.2157257674398352
 21
215.3514891250464132
 31
0.0
  0
LINE
  5
ADA6
  8
0
 10
3874.2733964606259178
 20
215.3554158045544114
 30
0.0
 11
3874.2616686024362025
 21
215.3437646051463901
 31
0.0
  0
LINE
  5
ADA7
  8
0
 10
3874.2616686024362025
 20
215.3437646051463901
 30
0.0
 11
3874.2362106378359385
 21
215.3437646051463901
 31
0.0
  0
LINE
  5
ADA8
  8
0
 10
3874.2362106378359385
 20
215.3437646051463901
 30
0.0
 11
3874.2241311681750631
 21
215.3557640856045055
 31
0.0
  0
LINE
  5
ADA9
  8
0
 10
3874.2241311681750631
 20
215.3557640856045055
 30
0.0
 11
3874.2350089507681332
 21
215.3669678264236893
 31
0.0
  0
LINE
  5
ADAA
  8
0
 10
3874.2644774496939135
 20
215.3602619696725071
 30
0.0
 11
3874.2616686024362025
 21
215.3574708893463878
 31
0.0
  0
LINE
  5
ADAB
  8
0
 10
3874.2616686024362025
 20
215.3574708893463878
 30
0.0
 11
3874.2362106378359385
 21
215.3574708893463878
 31
0.0
  0
LINE
  5
ADAC
  8
0
 10
3874.2362106378359385
 20
215.3574708893463878
 30
0.0
 11
3874.2308455380989471
 21
215.3626785344980874
 31
0.0
  0
LINE
  5
ADAD
  8
0
 10
3874.2362106378359385
 20
215.3574708893463878
 30
0.0
 11
3874.2362106378359385
 21
215.3437646051463901
 31
0.0
  0
LINE
  5
ADAE
  8
0
 10
3874.2616686024362025
 20
215.3574708893463878
 30
0.0
 11
3874.2616686024362025
 21
215.3437646051463901
 31
0.0
  0
ARC
  5
ADAF
  8
0
 10
3874.2149363087428355
 20
215.3634421572814119
 30
0.0
 40
0.0119790744486375
 50
273.7787108187263811
 51
320.136782005274199
  0
LINE
  5
ADB0
  8
0
 10
3874.250872642116974
 20
215.3669620190595992
 30
0.0
 11
3874.2350017240992202
 21
215.3669678290692104
 31
0.0
  0
ARC
  5
ADB1
  8
0
 10
3874.2350049892911557
 20
215.3758871935814909
 30
0.0
 40
0.0089193651099378
 50
225.3976668055238122
 51
269.9790252196966094
  0
LINE
  5
ADB2
  8
0
 10
3874.2287419712361043
 20
215.3695366283463954
 30
0.0
 11
3874.2182690159488629
 21
215.3799076313028138
 31
0.0
  0
LINE
  5
ADB3
  8
0
 10
3874.2270302120000451
 20
215.1856097433156094
 30
0.0
 11
3874.214957783436148
 21
215.1736162258077911
 31
0.0
  0
LINE
  5
ADB4
  8
0
 10
3874.2201203084191548
 20
215.1924523802312876
 30
0.0
 11
3874.214957783436148
 21
215.1873225100077889
 31
0.0
  0
LINE
  5
ADB5
  8
0
 10
3874.214957783436148
 20
215.1873225100077889
 30
0.0
 11
3874.214957783436148
 21
215.1736162258077911
 31
0.0
  0
LINE
  5
ADB6
  8
0
 10
3874.2274788619570245
 20
215.2169924574855031
 30
0.0
 11
3874.214957783436148
 21
215.2045532226078137
 31
0.0
  0
LINE
  5
ADB7
  8
0
 10
3874.2205689106322097
 20
215.2238351416802971
 30
0.0
 11
3874.214957783436148
 21
215.2182595068078115
 31
0.0
  0
LINE
  5
ADB8
  8
0
 10
3874.214957783436148
 20
215.2182595068078115
 30
0.0
 11
3874.214957783436148
 21
215.2045532226078137
 31
0.0
  0
LINE
  5
ADB9
  8
0
 10
3874.2270349784948849
 20
215.2474884721555952
 30
0.0
 11
3874.214957783436148
 21
215.2354902193077919
 31
0.0
  0
LINE
  5
ADBA
  8
0
 10
3874.220133943725159
 20
215.2543399227897964
 30
0.0
 11
3874.214957783436148
 21
215.2491965035077897
 31
0.0
  0
LINE
  5
ADBB
  8
0
 10
3874.214957783436148
 20
215.2491965035077897
 30
0.0
 11
3874.214957783436148
 21
215.2354902193077919
 31
0.0
  0
LINE
  5
ADBC
  8
0
 10
3874.2270349784948849
 20
215.2784254689555894
 30
0.0
 11
3874.214957783436148
 21
215.2664272161077861
 31
0.0
  0
LINE
  5
ADBD
  8
0
 10
3874.220133943725159
 20
215.2852769195897906
 30
0.0
 11
3874.214957783436148
 21
215.2801335003078123
 31
0.0
  0
LINE
  5
ADBE
  8
0
 10
3874.214957783436148
 20
215.2801335003078123
 30
0.0
 11
3874.214957783436148
 21
215.2664272161077861
 31
0.0
  0
LINE
  5
ADBF
  8
0
 10
3874.2270349784948849
 20
215.3093624656555107
 30
0.0
 11
3874.214957783436148
 21
215.2973642128077927
 31
0.0
  0
LINE
  5
ADC0
  8
0
 10
3874.220133943725159
 20
215.3162139162897972
 30
0.0
 11
3874.214957783436148
 21
215.3110704970077904
 31
0.0
  0
LINE
  5
ADC1
  8
0
 10
3874.214957783436148
 20
215.3110704970077904
 30
0.0
 11
3874.214957783436148
 21
215.2973642128077927
 31
0.0
  0
LINE
  5
ADC2
  8
0
 10
3874.2270349784948849
 20
215.3712364592556128
 30
0.0
 11
3874.214957783436148
 21
215.3592382064078095
 31
0.0
  0
LINE
  5
ADC3
  8
0
 10
3874.220133943725159
 20
215.3780879098897003
 30
0.0
 11
3874.214957783436148
 21
215.3729444906078072
 31
0.0
  0
LINE
  5
ADC4
  8
0
 10
3874.214957783436148
 20
215.3729444906078072
 30
0.0
 11
3874.214957783436148
 21
215.3592382064078095
 31
0.0
  0
ARC
  5
ADC5
  8
0
 10
3874.2684798904488161
 20
215.1819705176305888
 30
0.0
 40
0.005695592579206
 50
260.024097047586281
 51
3.4716856605461301
  0
LINE
  5
ADC6
  8
0
 10
3874.2741650307348209
 20
215.1823154158078069
 30
0.0
 11
3874.2741650307348209
 21
215.1889103860845012
 31
0.0
  0
ARC
  5
ADC7
  8
0
 10
3874.2976300303089374
 20
215.2046673053112897
 30
0.0
 40
0.0084608911808288
 50
291.7590487894030957
 51
359.2274270686518207
  0
LINE
  5
ADC8
  8
0
 10
3874.3007665175350667
 20
215.1968092440077953
 30
0.0
 11
3874.2817112939442268
 21
215.1968036201874099
 31
0.0
  0
LINE
  5
ADC9
  8
0
 10
3874.3060901523358552
 20
215.2045532226078137
 30
0.0
 11
3874.2829201171039131
 21
215.204429769518498
 31
0.0
  0
LINE
  5
ADCA
  8
0
 10
3874.2829201171039131
 20
215.204429769518498
 30
0.0
 11
3874.2699328625531052
 21
215.2165013836342951
 31
0.0
  0
LINE
  5
ADCB
  8
0
 10
3874.3121884760730609
 20
215.2238637761801101
 30
0.0
 11
3874.3060901523358552
 21
215.2182595068078115
 31
0.0
  0
LINE
  5
ADCC
  8
0
 10
3874.3060901523358552
 20
215.2182595068078115
 30
0.0
 11
3874.2829201171039131
 21
215.2173644040464069
 31
0.0
  0
LINE
  5
ADCD
  8
0
 10
3874.2829201171039131
 20
215.2173644040464069
 30
0.0
 11
3874.276926934623134
 21
215.2231816990120876
 31
0.0
  0
LINE
  5
ADCE
  8
0
 10
3874.2829201171039131
 20
215.2173644040464069
 30
0.0
 11
3874.2829201171039131
 21
215.204429769518498
 31
0.0
  0
LINE
  5
ADCF
  8
0
 10
3874.3060901523358552
 20
215.2182595068078115
 30
0.0
 11
3874.3060901523358552
 21
215.2045532226078137
 31
0.0
  0
ARC
  5
ADD0
  8
0
 10
3874.3170234843219077
 20
215.2236363309328055
 30
0.0
 40
0.00809391887453
 50
291.5701188795702024
 51
6.5496980497675761
  0
LINE
  5
ADD1
  8
0
 10
3874.3199991294350184
 20
215.2161092425909032
 30
0.0
 11
3874.3082825717679043
 21
215.2277416164494923
 31
0.0
  0
LINE
  5
ADD2
  8
0
 10
3874.3288186117829355
 20
215.2432096363463927
 30
0.0
 11
3874.3158466367040091
 21
215.2303198727464064
 31
0.0
  0
ARC
  5
ADD3
  8
0
 10
3874.3095929229798458
 20
215.2366134729317935
 30
0.0
 40
0.0088723355798629
 50
269.9790252196966094
 51
314.8178639522034814
  0
LINE
  5
ADD4
  8
0
 10
3874.3095896750041902
 20
215.2277411379463956
 30
0.0
 11
3874.2817112033671947
 21
215.2277513436692118
 31
0.0
  0
LINE
  5
ADD5
  8
0
 10
3874.3204552767638233
 20
215.2474833692942013
 30
0.0
 11
3874.308378081704177
 21
215.235485116446398
 31
0.0
  0
LINE
  5
ADD6
  8
0
 10
3874.308378081704177
 20
215.235485116446398
 30
0.0
 11
3874.2829201171039131
 21
215.235485116446398
 31
0.0
  0
LINE
  5
ADD7
  8
0
 10
3874.2829201171039131
 20
215.235485116446398
 30
0.0
 11
3874.2708406474430376
 21
215.2474845969045134
 31
0.0
  0
LINE
  5
ADD8
  8
0
 10
3874.313554241993188
 20
215.2543348199284026
 30
0.0
 11
3874.308378081704177
 21
215.2491914006463958
 31
0.0
  0
LINE
  5
ADD9
  8
0
 10
3874.308378081704177
 20
215.2491914006463958
 30
0.0
 11
3874.2829201171039131
 21
215.2491914006463958
 31
0.0
  0
LINE
  5
ADDA
  8
0
 10
3874.2829201171039131
 20
215.2491914006463958
 30
0.0
 11
3874.2778505651108389
 21
215.2541121717692931
 31
0.0
  0
LINE
  5
ADDB
  8
0
 10
3874.2829201171039131
 20
215.2491914006463958
 30
0.0
 11
3874.2829201171039131
 21
215.235485116446398
 31
0.0
  0
LINE
  5
ADDC
  8
0
 10
3874.308378081704177
 20
215.2491914006463958
 30
0.0
 11
3874.308378081704177
 21
215.235485116446398
 31
0.0
  0
ARC
  5
ADDD
  8
0
 10
3874.3284484188279748
 20
215.2521336006838055
 30
0.0
 40
0.0089316393970375
 50
225.2667652773766065
 51
272.3754397712373247
  0
LINE
  5
ADDE
  8
0
 10
3874.3221622695041333
 20
215.2457886413463939
 30
0.0
 11
3874.3100632964219585
 21
215.257800682954894
 31
0.0
  0
LINE
  5
ADDF
  8
0
 10
3874.3280032717229915
 20
215.2732599107800979
 30
0.0
 11
3874.3158452969228165
 21
215.2603668697464059
 31
0.0
  0
ARC
  5
ADE0
  8
0
 10
3874.3095915831981984
 20
215.2666604699317929
 30
0.0
 40
0.0088723355798629
 50
269.9790252196966094
 51
314.8178639522034814
  0
LINE
  5
ADE1
  8
0
 10
3874.3095883352220881
 20
215.2577881349463951
 30
0.0
 11
3874.281709863586002
 21
215.2577983406692113
 31
0.0
  0
LINE
  5
ADE2
  8
0
 10
3874.3204539369821759
 20
215.2775303662942008
 30
0.0
 11
3874.3083767419229844
 21
215.2655321134463975
 31
0.0
  0
LINE
  5
ADE3
  8
0
 10
3874.3083767419229844
 20
215.2655321134463975
 30
0.0
 11
3874.2829187773231752
 21
215.2655321134463975
 31
0.0
  0
LINE
  5
ADE4
  8
0
 10
3874.2829187773231752
 20
215.2655321134463975
 30
0.0
 11
3874.270418698155936
 21
215.2779494181700954
 31
0.0
  0
LINE
  5
ADE5
  8
0
 10
3874.3135529022119954
 20
215.284381816928402
 30
0.0
 11
3874.3083767419229844
 21
215.2792383976463952
 31
0.0
  0
LINE
  5
ADE6
  8
0
 10
3874.3083767419229844
 20
215.2792383976463952
 30
0.0
 11
3874.2829187773231752
 21
215.2792383976463952
 31
0.0
  0
LINE
  5
ADE7
  8
0
 10
3874.2829187773231752
 20
215.2792383976463952
 30
0.0
 11
3874.2773884068801635
 21
215.2846064631503964
 31
0.0
  0
LINE
  5
ADE8
  8
0
 10
3874.2829187773231752
 20
215.2792383976463952
 30
0.0
 11
3874.2829187773231752
 21
215.2655321134463975
 31
0.0
  0
LINE
  5
ADE9
  8
0
 10
3874.3083767419229844
 20
215.2792383976463952
 30
0.0
 11
3874.3083767419229844
 21
215.2655321134463975
 31
0.0
  0
ARC
  5
ADEA
  8
0
 10
3874.3284461868170183
 20
215.2821782948639964
 30
0.0
 40
0.0089293755911456
 50
225.2604327305035099
 51
267.1568467428542135
  0
LINE
  5
ADEB
  8
0
 10
3874.3221609297220311
 20
215.2758356383463934
 30
0.0
 11
3874.3091780030108566
 21
215.2887252823508959
 31
0.0
  0
LINE
  5
ADEC
  8
0
 10
3874.3288186117829355
 20
215.3041936300463988
 30
0.0
 11
3874.3158466367040091
 21
215.2913038664464125
 31
0.0
  0
ARC
  5
ADED
  8
0
 10
3874.3095929229798458
 20
215.2975974666317995
 30
0.0
 40
0.0088723355798629
 50
269.9790252196966094
 51
314.8178639522034814
  0
LINE
  5
ADEE
  8
0
 10
3874.3095896750041902
 20
215.2887251316464017
 30
0.0
 11
3874.2817112033671947
 21
215.2887353373691894
 31
0.0
  0
LINE
  5
ADEF
  8
0
 10
3874.3204552767638233
 20
215.3084673629940937
 30
0.0
 11
3874.308378081704177
 21
215.2964691101464041
 31
0.0
  0
LINE
  5
ADF0
  8
0
 10
3874.308378081704177
 20
215.2964691101464041
 30
0.0
 11
3874.2829201171039131
 21
215.2964691101464041
 31
0.0
  0
LINE
  5
ADF1
  8
0
 10
3874.2829201171039131
 20
215.2964691101464041
 30
0.0
 11
3874.2704193811418918
 21
215.3088870673167037
 31
0.0
  0
LINE
  5
ADF2
  8
0
 10
3874.313554241993188
 20
215.3153188136282949
 30
0.0
 11
3874.308378081704177
 21
215.3101753943464018
 31
0.0
  0
LINE
  5
ADF3
  8
0
 10
3874.308378081704177
 20
215.3101753943464018
 30
0.0
 11
3874.2829201171039131
 21
215.3101753943464018
 31
0.0
  0
LINE
  5
ADF4
  8
0
 10
3874.2829201171039131
 20
215.3101753943464018
 30
0.0
 11
3874.2773890821140412
 21
215.3155441048940872
 31
0.0
  0
LINE
  5
ADF5
  8
0
 10
3874.2829201171039131
 20
215.3101753943464018
 30
0.0
 11
3874.2829201171039131
 21
215.2964691101464041
 31
0.0
  0
LINE
  5
ADF6
  8
0
 10
3874.308378081704177
 20
215.3101753943464018
 30
0.0
 11
3874.308378081704177
 21
215.2964691101464041
 31
0.0
  0
ARC
  5
ADF7
  8
0
 10
3874.3284484188279748
 20
215.3131175943838116
 30
0.0
 40
0.0089316393970366
 50
225.2667652773766065
 51
272.3754397712373247
  0
LINE
  5
ADF8
  8
0
 10
3874.3221622695041333
 20
215.3067726350464
 30
0.0
 11
3874.3091793431858605
 21
215.3196622786603029
 31
0.0
  0
LINE
  5
ADF9
  8
0
 10
3874.3177116005040261
 20
215.324094007610995
 30
0.0
 11
3874.3158466367040091
 21
215.3222408632464067
 31
0.0
  0
ARC
  5
ADFA
  8
0
 10
3874.3095929229798458
 20
215.3285344634317937
 30
0.0
 40
0.0088723355798629
 50
269.9790252196966094
 51
314.8178639522034814
  0
LINE
  5
ADFB
  8
0
 10
3874.3095896750041902
 20
215.3196621284463959
 30
0.0
 11
3874.2817112033671947
 21
215.3196723341692973
 31
0.0
  0
LINE
  5
ADFC
  8
0
 10
3874.3115381345878632
 20
215.3305455042417123
 30
0.0
 11
3874.308378081704177
 21
215.3274061069463983
 31
0.0
  0
LINE
  5
ADFD
  8
0
 10
3874.308378081704177
 20
215.3274061069463983
 30
0.0
 11
3874.2829201171039131
 21
215.3274061069463983
 31
0.0
  0
LINE
  5
ADFE
  8
0
 10
3874.2829201171039131
 20
215.3274061069463983
 30
0.0
 11
3874.2703945226708129
 21
215.3398487579761991
 31
0.0
  0
LINE
  5
ADFF
  8
0
 10
3874.2987985267291151
 20
215.341112391146396
 30
0.0
 11
3874.2829201171039131
 21
215.341112391146396
 31
0.0
  0
LINE
  5
AE00
  8
0
 10
3874.2829201171039131
 20
215.341112391146396
 30
0.0
 11
3874.2772272511770097
 21
215.3466381832286061
 31
0.0
  0
LINE
  5
AE01
  8
0
 10
3874.2829201171039131
 20
215.341112391146396
 30
0.0
 11
3874.2829201171039131
 21
215.3274061069463983
 31
0.0
  0
LINE
  5
AE02
  8
0
 10
3874.308378081704177
 20
215.3334759110545065
 30
0.0
 11
3874.308378081704177
 21
215.3274061069463983
 31
0.0
  0
LINE
  5
AE03
  8
0
 10
3874.3288186117829355
 20
215.2432096363463927
 30
0.0
 11
3874.3381070650348192
 21
215.2432147392077866
 31
0.0
  0
ARC
  5
AE04
  8
0
 10
3874.3252680813379811
 20
215.2502409758297119
 30
0.0
 40
0.0146358294418854
 50
331.3099636809536719
 51
2.8109156111465019
  0
LINE
  5
AE05
  8
0
 10
3874.3398863011348112
 20
215.250958717707789
 30
0.0
 11
3874.3398863011348112
 21
215.2646650019077867
 31
0.0
  0
LINE
  5
AE06
  8
0
 10
3874.3398863011348112
 20
215.2646650019077867
 30
0.0
 11
3874.3429490998719302
 21
215.274186443679298
 31
0.0
  0
LINE
  5
AE07
  8
0
 10
3874.3429490998719302
 20
215.274186443679298
 30
0.0
 11
3874.3280032717229915
 21
215.2732599107800979
 31
0.0
  0
LINE
  5
AE08
  8
0
 10
3874.324901755916926
 20
215.3003015977346877
 30
0.0
 11
3874.3296322758360475
 21
215.2956019987078093
 31
0.0
  0
LINE
  5
AE09
  8
0
 10
3874.3296322758360475
 20
215.2956019987078093
 30
0.0
 11
3874.3359708728307851
 21
215.2956019987078093
 31
0.0
  0
LINE
  5
AE0A
  8
0
 10
3874.3250645765360787
 20
215.2245595637077997
 30
0.0
 11
3874.3251352951051558
 21
215.2395496631397975
 31
0.0
  0
LINE
  5
AE0B
  8
0
 10
3874.1088071630861123
 20
215.1873225100077889
 30
0.0
 11
3874.1215361454360391
 21
215.1873225100077889
 31
0.0
  0
LINE
  5
AE0C
  8
0
 10
3874.1215361454360391
 20
215.1873225100077889
 30
0.0
 11
3874.126716863369893
 21
215.1924693644463957
 31
0.0
  0
LINE
  5
AE0D
  8
0
 10
3874.1088071630861123
 20
215.1736162258077911
 30
0.0
 11
3874.1215361454360391
 21
215.1736162258077911
 31
0.0
  0
LINE
  5
AE0E
  8
0
 10
3874.1215361454360391
 20
215.1736162258077911
 30
0.0
 11
3874.1215361454360391
 21
215.1873225100077889
 31
0.0
  0
LINE
  5
AE0F
  8
0
 10
3874.1215361454360391
 20
215.1736162258077911
 30
0.0
 11
3874.1336114202090357
 21
215.185612571020414
 31
0.0
  0
LINE
  5
AE10
  8
0
 10
3874.1088071630861123
 20
215.2182595068078115
 30
0.0
 11
3874.1215361454360391
 21
215.2182595068078115
 31
0.0
  0
LINE
  5
AE11
  8
0
 10
3874.1215361454360391
 20
215.2182595068078115
 30
0.0
 11
3874.1271617612510454
 21
215.2238483510759863
 31
0.0
  0
LINE
  5
AE12
  8
0
 10
3874.1088071630861123
 20
215.2045532226078137
 30
0.0
 11
3874.1215361454360391
 21
215.2045532226078137
 31
0.0
  0
LINE
  5
AE13
  8
0
 10
3874.1215361454360391
 20
215.2045532226078137
 30
0.0
 11
3874.1215361454360391
 21
215.2182595068078115
 31
0.0
  0
LINE
  5
AE14
  8
0
 10
3874.1215361454360391
 20
215.2045532226078137
 30
0.0
 11
3874.1340593031500248
 21
215.2169945231921986
 31
0.0
  0
LINE
  5
AE15
  8
0
 10
3874.1088071630861123
 20
215.2491965035077897
 30
0.0
 11
3874.1215361454360391
 21
215.2491965035077897
 31
0.0
  0
LINE
  5
AE16
  8
0
 10
3874.1215361454360391
 20
215.2491965035077897
 30
0.0
 11
3874.126716863369893
 21
215.2543433579463965
 31
0.0
  0
LINE
  5
AE17
  8
0
 10
3874.1088071630861123
 20
215.2354902193077919
 30
0.0
 11
3874.1215361454360391
 21
215.2354902193077919
 31
0.0
  0
LINE
  5
AE18
  8
0
 10
3874.1215361454360391
 20
215.2354902193077919
 30
0.0
 11
3874.1215361454360391
 21
215.2491965035077897
 31
0.0
  0
LINE
  5
AE19
  8
0
 10
3874.1215361454360391
 20
215.2354902193077919
 30
0.0
 11
3874.1336114202090357
 21
215.2474865645203863
 31
0.0
  0
LINE
  5
AE1A
  8
0
 10
3874.1088071630861123
 20
215.3110704971078064
 30
0.0
 11
3874.1215361454360391
 21
215.3110704971078064
 31
0.0
  0
LINE
  5
AE1B
  8
0
 10
3874.1215361454360391
 20
215.3110704971078064
 30
0.0
 11
3874.126716863369893
 21
215.3162173515464133
 31
0.0
  0
LINE
  5
AE1C
  8
0
 10
3874.1088071630861123
 20
215.2973642129078087
 30
0.0
 11
3874.1215361454360391
 21
215.2973642129078087
 31
0.0
  0
LINE
  5
AE1D
  8
0
 10
3874.1215361454360391
 20
215.2973642129078087
 30
0.0
 11
3874.1215361454360391
 21
215.3110704971078064
 31
0.0
  0
LINE
  5
AE1E
  8
0
 10
3874.1215361454360391
 20
215.2973642129078087
 30
0.0
 11
3874.1336114202090357
 21
215.3093605581204031
 31
0.0
  0
LINE
  5
AE1F
  8
0
 10
3874.1088071630861123
 20
215.342007493807813
 30
0.0
 11
3874.1215361454360391
 21
215.342007493807813
 31
0.0
  0
LINE
  5
AE20
  8
0
 10
3874.1215361454360391
 20
215.342007493807813
 30
0.0
 11
3874.126716863369893
 21
215.3471543482463915
 31
0.0
  0
LINE
  5
AE21
  8
0
 10
3874.1088071630861123
 20
215.3283012096077869
 30
0.0
 11
3874.1215361454360391
 21
215.3283012096077869
 31
0.0
  0
LINE
  5
AE22
  8
0
 10
3874.1215361454360391
 20
215.3283012096077869
 30
0.0
 11
3874.1215361454360391
 21
215.342007493807813
 31
0.0
  0
LINE
  5
AE23
  8
0
 10
3874.1215361454360391
 20
215.3283012096077869
 30
0.0
 11
3874.1336114202090357
 21
215.3402975548204097
 31
0.0
  0
LINE
  5
AE24
  8
0
 10
3874.1088071630861123
 20
215.3729444906078072
 30
0.0
 11
3874.1215361454360391
 21
215.3729444906078072
 31
0.0
  0
LINE
  5
AE25
  8
0
 10
3874.1215361454360391
 20
215.3729444906078072
 30
0.0
 11
3874.126716863369893
 21
215.3780913450464141
 31
0.0
  0
LINE
  5
AE26
  8
0
 10
3874.1088071630861123
 20
215.3592382064078095
 30
0.0
 11
3874.1215361454360391
 21
215.3592382064078095
 31
0.0
  0
LINE
  5
AE27
  8
0
 10
3874.1215361454360391
 20
215.3592382064078095
 30
0.0
 11
3874.1215361454360391
 21
215.3729444906078072
 31
0.0
  0
LINE
  5
AE28
  8
0
 10
3874.1215361454360391
 20
215.3592382064078095
 30
0.0
 11
3874.1336114202090357
 21
215.3712345516204039
 31
0.0
  0
ARC
  5
AE29
  8
0
 10
3874.1088071630838385
 20
215.0098618450948891
 30
0.0
 40
0.3868072164936463
 50
85.4454466867166644
 51
94.5545533131003566
  0
ARC
  5
AEBA
  8
0
 10
3873.01880716313417
 20
213.0265838569079051
 30
0.0
 40
0.1799999999999997
 50
270.0
 51
0.0
  0
LINE
  5
AEBB
  8
0
 10
3873.1988071631340063
 20
213.0265838569079051
 30
0.0
 11
3875.0188071630341256
 21
213.0265838569079051
 31
0.0
  0
ENDSEC
  0
EOF
