  0
SECTION
  2
HEADER
  9
$ACADVER
  1
AC1009
  9
$INSBASE
 10
3099.2707700250989546
 20
151.996974249041898
 30
0.0
  9
$EXTMIN
 10
3086.1996950306238432
 20
140.0189341165927885
 30
-0.0015258207003583
  9
$EXTMAX
 10
3112.3185107015651738
 20
152.0055996999410866
 30
0.0000000349246037
  9
$LIMMIN
 10
0.0
 20
0.0
  9
$LIMMAX
 10
11.6929133858000007
 20
8.2677165353999982
  9
$ORTHOMODE
 70
     1
  9
$REGENMODE
 70
     1
  9
$FILLMODE
 70
     1
  9
$QTEXTMODE
 70
     0
  9
$MIRRTEXT
 70
     0
  9
$DRAGMODE
 70
     2
  9
$LTSCALE
 40
0.6431102362
  9
$OSMODE
 70
  2039
  9
$ATTMODE
 70
     1
  9
$TEXTSIZE
 40
0.2
  9
$TRACEWID
 40
0.05
  9
$TEXTSTYLE
  7
STANDARD
  9
$CLAYER
  8
0
  9
$CELTYPE
  6
BYLAYER
  9
$CECOLOR
 62
   256
  9
$DIMSCALE
 40
1.0
  9
$DIMASZ
 40
0.1875
  9
$DIMEXO
 40
0.0625
  9
$DIMDLI
 40
0.4443307087
  9
$DIMRND
 40
0.0
  9
$DIMDLE
 40
0.0
  9
$DIMEXE
 40
0.125
  9
$DIMTP
 40
0.01
  9
$DIMTM
 40
0.01
  9
$DIMTXT
 40
2.0
  9
$DIMCEN
 40
0.1052362205
  9
$DIMTSZ
 40
0.0
  9
$DIMTOL
 70
     1
  9
$DIMLIM
 70
     0
  9
$DIMTIH
 70
     1
  9
$DIMTOH
 70
     1
  9
$DIMSE1
 70
     0
  9
$DIMSE2
 70
     0
  9
$DIMTAD
 70
     0
  9
$DIMZIN
 70
     0
  9
$DIMBLK
  1

  9
$DIMASO
 70
     1
  9
$DIMSHO
 70
     1
  9
$DIMPOST
  1
\X
  9
$DIMAPOST
  1

  9
$DIMALT
 70
     1
  9
$DIMALTD
 70
     2
  9
$DIMALTF
 40
25.3999999999999986
  9
$DIMLFAC
 40
1.0
  9
$DIMTOFL
 70
     0
  9
$DIMTVP
 40
0.0
  9
$DIMTIX
 70
     0
  9
$DIMSOXD
 70
     0
  9
$DIMSAH
 70
     0
  9
$DIMBLK1
  1

  9
$DIMBLK2
  1

  9
$DIMSTYLE
  2
STANDARD
  9
$DIMCLRD
 70
     0
  9
$DIMCLRE
 70
     0
  9
$DIMCLRT
 70
     0
  9
$DIMTFAC
 40
1.0
  9
$DIMGAP
 40
0.09
  9
$LUNITS
 70
     2
  9
$LUPREC
 70
     4
  9
$SKETCHINC
 40
0.1
  9
$FILLETRAD
 40
0.0
  9
$AUNITS
 70
     0
  9
$AUPREC
 70
     0
  9
$MENU
  1
.
  9
$ELEVATION
 40
0.0
  9
$PELEVATION
 40
0.0
  9
$THICKNESS
 40
0.0
  9
$LIMCHECK
 70
     0
  9
$BLIPMODE
 70
     0
  9
$CHAMFERA
 40
0.0
  9
$CHAMFERB
 40
0.0
  9
$SKPOLY
 70
     0
  9
$TDCREATE
 40
2458060.468368056230247
  9
$TDUPDATE
 40
2459262.8195717590861022
  9
$TDINDWG
 40
0.620446875
  9
$TDUSRTIMER
 40
0.620446875
  9
$USRTIMER
 70
     1
  9
$ANGBASE
 50
0.0
  9
$ANGDIR
 70
     0
  9
$PDMODE
 70
     0
  9
$PDSIZE
 40
0.3125
  9
$PLINEWID
 40
0.0
  9
$COORDS
 70
     1
  9
$SPLFRAME
 70
     0
  9
$SPLINETYPE
 70
     6
  9
$SPLINESEGS
 70
     8
  9
$ATTDIA
 70
     1
  9
$ATTREQ
 70
     1
  9
$HANDLING
 70
     1
  9
$HANDSEED
  5
29850
  9
$SURFTAB1
 70
     6
  9
$SURFTAB2
 70
     6
  9
$SURFTYPE
 70
     6
  9
$SURFU
 70
     6
  9
$SURFV
 70
     6
  9
$UCSNAME
  2

  9
$UCSORG
 10
0.0
 20
0.0
 30
0.0
  9
$UCSXDIR
 10
1.0
 20
0.0
 30
0.0
  9
$UCSYDIR
 10
0.0
 20
1.0
 30
0.0
  9
$PUCSNAME
  2

  9
$PUCSORG
 10
0.0
 20
0.0
 30
0.0
  9
$PUCSXDIR
 10
1.0
 20
0.0
 30
0.0
  9
$PUCSYDIR
 10
0.0
 20
1.0
 30
0.0
  9
$USERI1
 70
     0
  9
$USERI2
 70
     0
  9
$USERI3
 70
     0
  9
$USERI4
 70
     0
  9
$USERI5
 70
     0
  9
$USERR1
 40
0.0
  9
$USERR2
 40
0.0
  9
$USERR3
 40
0.0
  9
$USERR4
 40
0.0
  9
$USERR5
 40
0.0
  9
$WORLDVIEW
 70
     1
  9
$SHADEDGE
 70
     3
  9
$SHADEDIF
 70
    70
  9
$TILEMODE
 70
     1
  9
$MAXACTVP
 70
    64
  9
$PLIMCHECK
 70
     0
  9
$PEXTMIN
 10
1.0000000000000000E+20
 20
1.0000000000000000E+20
 30
1.0000000000000000E+20
  9
$PEXTMAX
 10
-1.0000000000000000E+20
 20
-1.0000000000000000E+20
 30
-1.0000000000000000E+20
  9
$PLIMMIN
 10
0.0
 20
0.0
  9
$PLIMMAX
 10
12.0
 20
9.0
  9
$UNITMODE
 70
     0
  9
$VISRETAIN
 70
     1
  9
$PLINEGEN
 70
     0
  9
$PSLTSCALE
 70
     1
  0
ENDSEC
  0
SECTION
  2
TABLES
  0
TABLE
  2
VPORT
 70
     1
  0
VPORT
  2
*ACTIVE
 70
     0
 10
0.0
 20
0.0
 11
1.0
 21
1.0
 12
-204.4340123682804915
 22
-49.2492446676207791
 13
0.0
 23
0.0
 14
1.0
 24
1.0
 15
0.0
 25
0.0
 16
0.0
 26
0.0
 36
96.5995694866707311
 17
3303.693115234375
 27
195.2615115758877096
 37
0.0
 40
12.0904462377495499
 41
2.7557803468208091
 42
50.0
 43
0.0
 44
0.0
 50
0.0
 51
0.0
 71
     0
 72
   100
 73
     1
 74
     1
 75
     0
 76
     0
 77
     0
 78
     1
  0
ENDTAB
  0
TABLE
  2
LTYPE
 70
     2
  0
LTYPE
  2
CONTINUOUS
 70
     0
  3
Solid line
 72
    65
 73
     0
 40
0.0
  0
LTYPE
  2
PHANTOM2
 70
     0
  3
___ _ _ ___ _ _ ___ _ _ ___ _ _
 72
    65
 73
     6
 40
1.25
 49
0.625
 49
-0.125
 49
0.125
 49
-0.125
 49
0.125
 49
-0.125
  0
ENDTAB
  0
TABLE
  2
LAYER
 70
     2
  0
LAYER
  2
0
 70
     0
 62
   255
  6
CONTINUOUS
  0
LAYER
  2
DEFPOINTS
 70
     0
 62
     7
  6
CONTINUOUS
  0
ENDTAB
  0
TABLE
  2
STYLE
 70
     1
  0
STYLE
  2
STANDARD
 70
     0
 40
0.0
 41
0.8
 50
0.0
 71
     0
 42
0.2
  3
txt
  4

  0
ENDTAB
  0
TABLE
  2
VIEW
 70
     0
  0
ENDTAB
  0
TABLE
  2
UCS
 70
     0
  0
ENDTAB
  0
TABLE
  2
APPID
 70
     9
  0
APPID
  2
ACAD
 70
     0
  0
APPID
  2
ACAD_MLEADERVER
 70
     0
  0
APPID
  2
ACAD_EXEMPT_FROM_CAD_STANDARDS
 70
     0
  0
APPID
  2
ACAD_NAV_VCDISPLAY
 70
     0
  0
APPID
  2
ACAECLAYERSTANDARD
 70
     0
  0
APPID
  2
ACCMTRANSPARENCY
 70
     0
  0
APPID
  2
ACAD_DSTYLE_DIMJAG
 70
     0
  0
APPID
  2
ACAD_DSTYLE_DIMTALN
 70
     0
  0
APPID
  2
ACDBATTR
 70
     0
  0
ENDTAB
  0
TABLE
  2
DIMSTYLE
 70
     1
  0
DIMSTYLE
  2
STANDARD
 70
     0
  3

  4

  5

  6

  7

 40
1.0
 41
0.1875
 42
0.0625
 43
0.38
 44
0.125
 45
0.0
 46
0.0
 47
0.01
 48
0.01
140
0.15625
141
0.09
142
0.0
143
25.3999999999999986
144
1.0
145
0.0
146
1.0
147
0.09
 71
     1
 72
     0
 73
     1
 74
     1
 75
     0
 76
     0
 77
     0
 78
     4
170
     0
171
     2
172
     0
173
     0
174
     0
175
     0
176
     0
177
     0
178
     0
  0
ENDTAB
  0
ENDSEC
  0
SECTION
  2
BLOCKS
  0
BLOCK
  8
0
  2
$MODEL_SPACE
 70
     0
 10
0.0
 20
0.0
 30
0.0
  3
$MODEL_SPACE
  1

  0
ENDBLK
  5
21
  8
0
  0
BLOCK
 67
     1
  8
0
  2
$PAPER_SPACE
 70
     0
 10
0.0
 20
0.0
 30
0.0
  3
$PAPER_SPACE
  1

  0
ENDBLK
  5
1D
 67
     1
  8
0
  0
BLOCK
  8
0
  2
_FILLED
 70
     0
 10
0.0
 20
0.0
 30
0.0
  3
_FILLED
  1

  0
SOLID
  5
2822A
  8
0
  6
BYBLOCK
 62
     0
 10
0.0
 20
0.0
 30
0.0
 11
-1.0
 21
0.1666666667
 31
0.0
 12
-1.0
 22
-0.1666666667
 32
0.0
 13
-1.0
 23
-0.1666666667
 33
0.0
  0
ENDBLK
  5
2822B
  8
0
  6
BYBLOCK
 62
     0
  0
ENDSEC
  0
SECTION
  2
ENTITIES
  0
ATTDEF
  5
28FAB
  8
DEFPOINTS
 10
3099.2710464362889979
 20
152.0007465655812098
 30
0.0
 40
0.001
  1
K-14381BR
  3

  2
MODELNUMBER
 70
     0
1001
ACDBATTR
1070
     0
1070
     1
  0
ATTDEF
  5
28FAC
  8
DEFPOINTS
 10
3099.2710464362889979
 20
151.9990798989144878
 30
0.0
 40
0.001
  1
PURIST
  3

  2
TRADENAME
 70
     0
1001
ACDBATTR
1070
     0
1070
     1
  0
ATTDEF
  5
28FAD
  8
DEFPOINTS
 10
3099.2710464362889979
 20
151.9974132322479079
 30
0.0
 40
0.001
  1
HOTELIER
  3

  2
PRODUCT
 70
     0
1001
ACDBATTR
1070
     0
1070
     1
  0
LINE
  5
2963A
  8
0
 10
3086.4361243558491879
 20
140.0284703119419021
 30
0.0
 11
3112.1054156944492206
 21
140.0284703119419021
 31
0.0
  0
LINE
  5
2963B
  8
0
 10
3086.9085653007491601
 20
140.8158718867418884
 30
0.0
 11
3086.4361243558491879
 21
140.8158718867418884
 31
0.0
  0
LINE
  5
2963C
  8
0
 10
3087.6172267180490962
 20
140.8158718867418884
 30
0.0
 11
3110.9243133322488575
 21
140.8158718867418884
 31
0.0
  0
LINE
  5
2963D
  8
0
 10
3111.6329747495487936
 20
140.8158718867418884
 30
0.0
 11
3112.1054156944492206
 21
140.8158718867418884
 31
0.0
  0
LINE
  5
2963E
  8
0
 10
3087.6127584590271908
 20
142.7450057450419081
 30
0.0
 11
3110.9287815911720827
 21
142.7450057450419081
 31
0.0
  0
LINE
  5
2963F
  8
0
 10
3087.6127942335128864
 20
143.2174466899419087
 30
0.0
 11
3110.9287458166850229
 21
143.2174466899419087
 31
0.0
  0
LINE
  5
29640
  8
0
 10
3087.6137815126780879
 20
145.3040608631418991
 30
0.0
 11
3110.9277585375198214
 21
145.3040608631418991
 31
0.0
  0
LINE
  5
29641
  8
0
 10
3087.6137815126089663
 20
145.7765018080418997
 30
0.0
 11
3110.927758537588943
 21
145.7765018080418997
 31
0.0
  0
LINE
  5
29642
  8
0
 10
3086.4361243558491879
 20
147.8237459025419014
 30
0.0
 11
3086.9085653007491601
 21
147.8237459025419014
 31
0.0
  0
LINE
  5
29643
  8
0
 10
3087.6170891996162027
 20
147.8237459025419014
 30
0.0
 11
3110.9244508505821614
 21
147.8237459025419014
 31
0.0
  0
LINE
  5
29644
  8
0
 10
3111.6329747495487936
 20
147.8237459025419014
 30
0.0
 11
3112.1054156944492206
 21
147.8237459025419014
 31
0.0
  0
LINE
  5
29645
  8
0
 10
3086.4361243558491879
 20
148.6111474773418877
 30
0.0
 11
3086.9085653007491601
 21
148.6111474773418877
 31
0.0
  0
LINE
  5
29646
  8
0
 10
3087.6171190949271477
 20
148.6111474773418877
 30
0.0
 11
3110.9244209552698521
 21
148.6111474773418877
 31
0.0
  0
LINE
  5
29647
  8
0
 10
3111.6329747495487936
 20
148.6111474773418877
 30
0.0
 11
3112.1054156944492206
 21
148.6111474773418877
 31
0.0
  0
LINE
  5
29648
  8
0
 10
3086.3180141195489341
 20
151.996974249041898
 30
0.0
 11
3088.2077778991488231
 21
151.996974249041898
 31
0.0
  0
LINE
  5
29649
  8
0
 10
3086.3180141195489341
 20
151.996974249041898
 30
0.0
 11
3086.3180141195489341
 21
151.7607537765418897
 31
0.0
  0
LINE
  5
2964A
  8
0
 10
3088.2077778991488231
 20
151.996974249041898
 30
0.0
 11
3088.2077778991488231
 21
151.7607537765418897
 31
0.0
  0
ARC
  5
2964B
  8
0
 10
3088.1880928597488492
 20
151.7607537765418897
 30
0.0
 40
0.0196850394000023
 50
270.0
 51
0.0
  0
LINE
  5
2964C
  8
0
 10
3088.1880928597488492
 20
151.7410687371418874
 30
0.0
 11
3086.337699158948908
 21
151.7410687371416032
 31
0.0
  0
ARC
  5
2964D
  8
0
 10
3086.337699158948908
 20
151.7607537764415895
 30
0.0
 40
0.019685039299997
 50
179.9999997081974925
 51
270.0
  0
ARC
  5
2964E
  8
0
 10
3088.0502975837380291
 20
151.1662786255054129
 30
0.0
 40
0.5905511796783767
 50
103.2669881258087941
 51
117.4443862152703986
  0
ARC
  5
2964F
  8
0
 10
3087.9051361909027946
 20
151.4457931465910008
 30
0.0
 40
0.2755905512382948
 50
117.4443862152703986
 51
176.1774463809177007
  0
ARC
  5
29650
  8
0
 10
3087.6105163103520681
 20
151.4654787462413879
 30
0.0
 40
0.0196862627053622
 50
270.4702714869255828
 51
356.1760483301504792
  0
LINE
  5
29651
  8
0
 10
3087.6172267180490962
 20
151.4457931466419041
 30
0.0
 11
3086.9085653007491601
 21
151.4457931466419041
 31
0.0
  0
LINE
  5
29652
  8
0
 10
3086.9085653007491601
 20
151.4457931466419041
 30
0.0
 11
3086.9085653007491601
 21
140.8158718867418884
 31
0.0
  0
ARC
  5
29653
  8
0
 10
3088.5041320494501633
 20
142.5744253381182887
 30
0.0
 40
2.3745196337173948
 50
227.7819844829836882
 51
234.161281058044608
  0
ARC
  5
29654
  8
0
 10
3087.2628965898411479
 20
140.8558589895716011
 30
0.0
 40
0.2545819552587068
 50
234.161281058044608
 51
305.8402499227076987
  0
ARC
  5
29655
  8
0
 10
3086.021093578503951
 20
142.5751143601563058
 30
0.0
 40
2.3754105075586751
 50
305.8402499227086082
 51
312.2169656666192736
  0
LINE
  5
29656
  8
0
 10
3087.6172267180490962
 20
140.8158718867418884
 30
0.0
 11
3087.6172267180490962
 21
142.7400844852419084
 31
0.0
  0
ARC
  5
29657
  8
0
 10
3087.8778495376159299
 20
142.9812061454441903
 30
0.0
 40
0.355054797317444
 50
137.2538028297391008
 51
222.7742216233804982
  0
LINE
  5
29658
  8
0
 10
3087.6171088120490822
 20
143.2222003012419123
 30
0.0
 11
3087.6172267180490962
 21
145.2991396033418994
 31
0.0
  0
ARC
  5
29659
  8
0
 10
3087.9564451008131982
 20
145.5402813356419074
 30
0.0
 40
0.4161952021124794
 50
144.5919456981121982
 51
215.4080543018891092
  0
LINE
  5
2965A
  8
0
 10
3087.6172267180490962
 20
145.781423067941887
 30
0.0
 11
3087.6172267180490962
 21
147.8581947214418904
 31
0.0
  0
ARC
  5
2965B
  8
0
 10
3087.8778495376159299
 20
148.0993163816442859
 30
0.0
 40
0.3550547973174459
 50
137.2538028297391008
 51
222.7742216233804982
  0
LINE
  5
2965C
  8
0
 10
3087.6171088120490822
 20
148.3403105374418942
 30
0.0
 11
3087.6172267180490962
 21
151.4457931466419041
 31
0.0
  0
LINE
  5
2965D
  8
0
 10
3086.4361243558491879
 20
148.6111474773418877
 30
0.0
 11
3086.4361243558491879
 21
147.8237459025419014
 31
0.0
  0
LINE
  5
2965E
  8
0
 10
3086.4361243558491879
 20
140.8158718867418884
 30
0.0
 11
3086.4361243558491879
 21
140.0284703119419021
 31
0.0
  0
ARC
  5
2965F
  8
0
 10
3086.4754944345490912
 20
151.1662786241415972
 30
0.0
 40
0.5905511811003052
 50
62.555613809305612
 51
76.73301186559857
  0
ARC
  5
29660
  8
0
 10
3086.620655827921837
 20
151.4457931465576905
 30
0.0
 40
0.2755905512312207
 50
3.8225537518017352
 51
62.555613809304873
  0
ARC
  5
29661
  8
0
 10
3086.91527473533597
 20
151.4654782879763104
 30
0.0
 40
0.0196852611853016
 50
183.8228079514317983
 51
269.8000654615831877
  0
LINE
  5
29662
  8
0
 10
3111.632974749449204
 20
140.8158718867418884
 30
0.0
 11
3112.1054156943500857
 21
140.8158718867418884
 31
0.0
  0
LINE
  5
29663
  8
0
 10
3112.1054156943500857
 20
147.8237459025419014
 30
0.0
 11
3111.632974749449204
 21
147.8237459025419014
 31
0.0
  0
LINE
  5
29664
  8
0
 10
3112.1054156943500857
 20
148.6111474773418877
 30
0.0
 11
3111.632974749449204
 21
148.6111474773418877
 31
0.0
  0
LINE
  5
29665
  8
0
 10
3112.2235259306489752
 20
151.996974249041898
 30
0.0
 11
3110.3337621510490862
 21
151.996974249041898
 31
0.0
  0
LINE
  5
29666
  8
0
 10
3112.2235259306489752
 20
151.996974249041898
 30
0.0
 11
3112.2235259306489752
 21
151.7607537765418897
 31
0.0
  0
LINE
  5
29667
  8
0
 10
3110.3337621510490862
 20
151.996974249041898
 30
0.0
 11
3110.3337621510490862
 21
151.7607537765418897
 31
0.0
  0
ARC
  5
29668
  8
0
 10
3110.3534471904490601
 20
151.7607537765418897
 30
0.0
 40
0.0196850394000023
 50
180.0
 51
270.0
  0
LINE
  5
29669
  8
0
 10
3110.3534471904490601
 20
151.7410687371418874
 30
0.0
 11
3112.2038408912490013
 21
151.7410687371416032
 31
0.0
  0
ARC
  5
2966A
  8
0
 10
3112.2038408912490013
 20
151.7607537764415895
 30
0.0
 40
0.019685039299997
 50
270.0
 51
0.0000002918025083
  0
ARC
  5
2966B
  8
0
 10
3110.4912424664607897
 20
151.1662786255054129
 30
0.0
 40
0.5905511796783767
 50
62.5556137847296299
 51
76.7330118741912344
  0
ARC
  5
2966C
  8
0
 10
3110.6364038592951147
 20
151.4457931465910008
 30
0.0
 40
0.2755905512382948
 50
3.8225536190823171
 51
62.5556137847296299
  0
ARC
  5
2966D
  8
0
 10
3110.9310237398508434
 20
151.4654787462461911
 30
0.0
 40
0.0196862627102004
 50
183.8239516829069942
 51
269.5297285000203829
  0
LINE
  5
2966E
  8
0
 10
3110.9243133321488131
 20
151.4457931466419041
 30
0.0
 11
3111.632974749449204
 21
151.4457931466419041
 31
0.0
  0
LINE
  5
2966F
  8
0
 10
3111.632974749449204
 20
151.4457931466419041
 30
0.0
 11
3111.632974749449204
 21
140.8158718867418884
 31
0.0
  0
ARC
  5
29670
  8
0
 10
3110.0374080007482007
 20
142.5744253381182887
 30
0.0
 40
2.3745196337173948
 50
305.838718941955392
 51
312.2180155170163971
  0
ARC
  5
29671
  8
0
 10
3111.2786434603572161
 20
140.8558589895716011
 30
0.0
 40
0.2545819552587068
 50
234.1597500772913918
 51
305.838718941955392
  0
ARC
  5
29672
  8
0
 10
3112.5204464716948678
 20
142.5751143601563058
 30
0.0
 40
2.3754105075586751
 50
227.7830343333806979
 51
234.1597500772913918
  0
LINE
  5
29673
  8
0
 10
3110.9243133321488131
 20
140.8158718867418884
 30
0.0
 11
3110.9243133321488131
 21
142.7400844852419084
 31
0.0
  0
ARC
  5
29674
  8
0
 10
3110.6636905125810699
 20
142.9812061454441903
 30
0.0
 40
0.355054797317444
 50
317.2257783766194734
 51
42.7461971702608281
  0
LINE
  5
29675
  8
0
 10
3110.9244312381488271
 20
143.2222003012419123
 30
0.0
 11
3110.9243133321488131
 21
145.2991396033418994
 31
0.0
  0
ARC
  5
29676
  8
0
 10
3110.5850949493860753
 20
145.5402813356419074
 30
0.0
 40
0.4161952021124794
 50
324.5919456981109192
 51
35.408054301887752
  0
LINE
  5
29677
  8
0
 10
3110.9243133321488131
 20
145.781423067941887
 30
0.0
 11
3110.9243133321488131
 21
147.8581947214418904
 31
0.0
  0
ARC
  5
29678
  8
0
 10
3110.6636905125810699
 20
148.0993163816442859
 30
0.0
 40
0.3550547973174459
 50
317.2257783766194734
 51
42.7461971702608281
  0
LINE
  5
29679
  8
0
 10
3110.9244312381488271
 20
148.3403105374418942
 30
0.0
 11
3110.9243133321488131
 21
151.4457931466419041
 31
0.0
  0
LINE
  5
2967A
  8
0
 10
3112.1054156943500857
 20
148.6111474773418877
 30
0.0
 11
3112.1054156943500857
 21
147.8237459025419014
 31
0.0
  0
LINE
  5
2967B
  8
0
 10
3112.1054156943500857
 20
140.8158718867418884
 30
0.0
 11
3112.1054156943500857
 21
140.0284703119419021
 31
0.0
  0
ARC
  5
2967C
  8
0
 10
3112.0660456156488181
 20
151.1662786241415972
 30
0.0
 40
0.5905511811003052
 50
103.2669881344014016
 51
117.4443861906944022
  0
ARC
  5
2967D
  8
0
 10
3111.9208842222760723
 20
151.4457931465576905
 30
0.0
 40
0.2755905512312207
 50
117.4443861906950985
 51
176.1774462481999137
  0
ARC
  5
2967E
  8
0
 10
3111.6262653148628488
 20
151.4654782879763104
 30
0.0
 40
0.0196852611853019
 50
270.1999345384427897
 51
356.1771920485682017
  0
LINE
  5
2967F
  8
0
 10
3087.6127942335128864
 20
148.3355569261418907
 30
0.0
 11
3110.9287458166850229
 21
148.3355569261418907
 31
0.0
  0
LINE
  5
29681
  8
0
 10
3087.6127584590271908
 20
147.86311598124189
 30
0.0
 11
3110.9287815911720827
 21
147.86311598124189
 31
0.0
  0
LINE
  5
29682
  8
0
 10
3086.4754944345490912
 20
148.6111474773418877
 30
0.0
 11
3086.4754944345490912
 21
147.8237459025419014
 31
0.0
  0
LINE
  5
29683
  8
0
 10
3086.4754944345490912
 20
140.8158718867418884
 30
0.0
 11
3086.4754944345490912
 21
140.0284703119419021
 31
0.0
  0
LINE
  5
29684
  8
0
 10
3112.0660456157488625
 20
148.6111474773418877
 30
0.0
 11
3112.0660456157488625
 21
147.8237459025419014
 31
0.0
  0
LINE
  5
29685
  8
0
 10
3112.0660456157488625
 20
140.8158718867418884
 30
0.0
 11
3112.0660456157488625
 21
140.0284703119419021
 31
0.0
  0
ENDSEC
  0
EOF
