  0
SECTION
  2
HEADER
  9
$ACADVER
  1
AC1009
  9
$INSBASE
 10
3099.2707378487689311
 20
132.1139008067025031
 30
0.0
  9
$EXTMIN
 10
3086.1996604509458848
 20
129.584769421061111
 30
-0.0015258207003583
  9
$EXTMAX
 10
3112.318475829235922
 20
134.6387939784314085
 30
0.0000000349246037
  9
$LIMMIN
 10
0.0
 20
0.0
  9
$LIMMAX
 10
11.6929133858000007
 20
8.2677165353999982
  9
$ORTHOMODE
 70
     1
  9
$REGENMODE
 70
     1
  9
$FILLMODE
 70
     1
  9
$QTEXTMODE
 70
     0
  9
$MIRRTEXT
 70
     0
  9
$DRAGMODE
 70
     2
  9
$LTSCALE
 40
0.6431102362
  9
$OSMODE
 70
  2039
  9
$ATTMODE
 70
     1
  9
$TEXTSIZE
 40
0.2
  9
$TRACEWID
 40
0.05
  9
$TEXTSTYLE
  7
STANDARD
  9
$CLAYER
  8
0
  9
$CELTYPE
  6
BYLAYER
  9
$CECOLOR
 62
   256
  9
$DIMSCALE
 40
1.0
  9
$DIMASZ
 40
0.1875
  9
$DIMEXO
 40
0.0625
  9
$DIMDLI
 40
0.4443307087
  9
$DIMRND
 40
0.0
  9
$DIMDLE
 40
0.0
  9
$DIMEXE
 40
0.125
  9
$DIMTP
 40
0.01
  9
$DIMTM
 40
0.01
  9
$DIMTXT
 40
2.0
  9
$DIMCEN
 40
0.1052362205
  9
$DIMTSZ
 40
0.0
  9
$DIMTOL
 70
     1
  9
$DIMLIM
 70
     0
  9
$DIMTIH
 70
     1
  9
$DIMTOH
 70
     1
  9
$DIMSE1
 70
     0
  9
$DIMSE2
 70
     0
  9
$DIMTAD
 70
     0
  9
$DIMZIN
 70
     0
  9
$DIMBLK
  1

  9
$DIMASO
 70
     1
  9
$DIMSHO
 70
     1
  9
$DIMPOST
  1
\X
  9
$DIMAPOST
  1

  9
$DIMALT
 70
     1
  9
$DIMALTD
 70
     2
  9
$DIMALTF
 40
25.3999999999999986
  9
$DIMLFAC
 40
1.0
  9
$DIMTOFL
 70
     0
  9
$DIMTVP
 40
0.0
  9
$DIMTIX
 70
     0
  9
$DIMSOXD
 70
     0
  9
$DIMSAH
 70
     0
  9
$DIMBLK1
  1

  9
$DIMBLK2
  1

  9
$DIMSTYLE
  2
STANDARD
  9
$DIMCLRD
 70
     0
  9
$DIMCLRE
 70
     0
  9
$DIMCLRT
 70
     0
  9
$DIMTFAC
 40
1.0
  9
$DIMGAP
 40
0.09
  9
$LUNITS
 70
     2
  9
$LUPREC
 70
     4
  9
$SKETCHINC
 40
0.1
  9
$FILLETRAD
 40
0.0
  9
$AUNITS
 70
     0
  9
$AUPREC
 70
     0
  9
$MENU
  1
.
  9
$ELEVATION
 40
0.0
  9
$PELEVATION
 40
0.0
  9
$THICKNESS
 40
0.0
  9
$LIMCHECK
 70
     0
  9
$BLIPMODE
 70
     0
  9
$CHAMFERA
 40
0.0
  9
$CHAMFERB
 40
0.0
  9
$SKPOLY
 70
     0
  9
$TDCREATE
 40
2458060.468368056230247
  9
$TDUPDATE
 40
2459262.8201157408766448
  9
$TDINDWG
 40
0.6212454861
  9
$TDUSRTIMER
 40
0.6212454861
  9
$USRTIMER
 70
     1
  9
$ANGBASE
 50
0.0
  9
$ANGDIR
 70
     0
  9
$PDMODE
 70
     0
  9
$PDSIZE
 40
0.3125
  9
$PLINEWID
 40
0.0
  9
$COORDS
 70
     1
  9
$SPLFRAME
 70
     0
  9
$SPLINETYPE
 70
     6
  9
$SPLINESEGS
 70
     8
  9
$ATTDIA
 70
     1
  9
$ATTREQ
 70
     1
  9
$HANDLING
 70
     1
  9
$HANDSEED
  5
29586
  9
$SURFTAB1
 70
     6
  9
$SURFTAB2
 70
     6
  9
$SURFTYPE
 70
     6
  9
$SURFU
 70
     6
  9
$SURFV
 70
     6
  9
$UCSNAME
  2

  9
$UCSORG
 10
0.0
 20
0.0
 30
0.0
  9
$UCSXDIR
 10
1.0
 20
0.0
 30
0.0
  9
$UCSYDIR
 10
0.0
 20
1.0
 30
0.0
  9
$PUCSNAME
  2

  9
$PUCSORG
 10
0.0
 20
0.0
 30
0.0
  9
$PUCSXDIR
 10
1.0
 20
0.0
 30
0.0
  9
$PUCSYDIR
 10
0.0
 20
1.0
 30
0.0
  9
$USERI1
 70
     0
  9
$USERI2
 70
     0
  9
$USERI3
 70
     0
  9
$USERI4
 70
     0
  9
$USERI5
 70
     0
  9
$USERR1
 40
0.0
  9
$USERR2
 40
0.0
  9
$USERR3
 40
0.0
  9
$USERR4
 40
0.0
  9
$USERR5
 40
0.0
  9
$WORLDVIEW
 70
     1
  9
$SHADEDGE
 70
     3
  9
$SHADEDIF
 70
    70
  9
$TILEMODE
 70
     1
  9
$MAXACTVP
 70
    64
  9
$PLIMCHECK
 70
     0
  9
$PEXTMIN
 10
1.0000000000000000E+20
 20
1.0000000000000000E+20
 30
1.0000000000000000E+20
  9
$PEXTMAX
 10
-1.0000000000000000E+20
 20
-1.0000000000000000E+20
 30
-1.0000000000000000E+20
  9
$PLIMMIN
 10
0.0
 20
0.0
  9
$PLIMMAX
 10
12.0
 20
9.0
  9
$UNITMODE
 70
     0
  9
$VISRETAIN
 70
     1
  9
$PLINEGEN
 70
     0
  9
$PSLTSCALE
 70
     1
  0
ENDSEC
  0
SECTION
  2
TABLES
  0
TABLE
  2
VPORT
 70
     1
  0
VPORT
  2
*ACTIVE
 70
     0
 10
0.0
 20
0.0
 11
1.0
 21
1.0
 12
-204.4340470942842956
 22
-63.1497298761414569
 13
0.0
 23
0.0
 14
1.0
 24
1.0
 15
0.0
 25
0.0
 16
0.0
 26
0.0
 36
96.5995694866707311
 17
3303.693115234375
 27
195.2615115758877096
 37
0.0
 40
9.5076062704327278
 41
2.7557803468208091
 42
50.0
 43
0.0
 44
0.0
 50
0.0
 51
0.0
 71
     0
 72
   100
 73
     1
 74
     1
 75
     0
 76
     0
 77
     0
 78
     1
  0
ENDTAB
  0
TABLE
  2
LTYPE
 70
     2
  0
LTYPE
  2
CONTINUOUS
 70
     0
  3
Solid line
 72
    65
 73
     0
 40
0.0
  0
LTYPE
  2
PHANTOM2
 70
     0
  3
___ _ _ ___ _ _ ___ _ _ ___ _ _
 72
    65
 73
     6
 40
1.25
 49
0.625
 49
-0.125
 49
0.125
 49
-0.125
 49
0.125
 49
-0.125
  0
ENDTAB
  0
TABLE
  2
LAYER
 70
     2
  0
LAYER
  2
0
 70
     0
 62
   255
  6
CONTINUOUS
  0
LAYER
  2
DEFPOINTS
 70
     0
 62
     7
  6
CONTINUOUS
  0
ENDTAB
  0
TABLE
  2
STYLE
 70
     1
  0
STYLE
  2
STANDARD
 70
     0
 40
0.0
 41
0.8
 50
0.0
 71
     0
 42
0.2
  3
txt
  4

  0
ENDTAB
  0
TABLE
  2
VIEW
 70
     0
  0
ENDTAB
  0
TABLE
  2
UCS
 70
     0
  0
ENDTAB
  0
TABLE
  2
APPID
 70
     9
  0
APPID
  2
ACAD
 70
     0
  0
APPID
  2
ACAD_MLEADERVER
 70
     0
  0
APPID
  2
ACAD_EXEMPT_FROM_CAD_STANDARDS
 70
     0
  0
APPID
  2
ACAD_NAV_VCDISPLAY
 70
     0
  0
APPID
  2
ACAECLAYERSTANDARD
 70
     0
  0
APPID
  2
ACCMTRANSPARENCY
 70
     0
  0
APPID
  2
ACAD_DSTYLE_DIMJAG
 70
     0
  0
APPID
  2
ACAD_DSTYLE_DIMTALN
 70
     0
  0
APPID
  2
ACDBATTR
 70
     0
  0
ENDTAB
  0
TABLE
  2
DIMSTYLE
 70
     1
  0
DIMSTYLE
  2
STANDARD
 70
     0
  3

  4

  5

  6

  7

 40
1.0
 41
0.1875
 42
0.0625
 43
0.38
 44
0.125
 45
0.0
 46
0.0
 47
0.01
 48
0.01
140
0.15625
141
0.09
142
0.0
143
25.3999999999999986
144
1.0
145
0.0
146
1.0
147
0.09
 71
     1
 72
     0
 73
     1
 74
     1
 75
     0
 76
     0
 77
     0
 78
     4
170
     0
171
     2
172
     0
173
     0
174
     0
175
     0
176
     0
177
     0
178
     0
  0
ENDTAB
  0
ENDSEC
  0
SECTION
  2
BLOCKS
  0
BLOCK
  8
0
  2
$MODEL_SPACE
 70
     0
 10
0.0
 20
0.0
 30
0.0
  3
$MODEL_SPACE
  1

  0
ENDBLK
  5
21
  8
0
  0
BLOCK
 67
     1
  8
0
  2
$PAPER_SPACE
 70
     0
 10
0.0
 20
0.0
 30
0.0
  3
$PAPER_SPACE
  1

  0
ENDBLK
  5
1D
 67
     1
  8
0
  0
BLOCK
  8
0
  2
_FILLED
 70
     0
 10
0.0
 20
0.0
 30
0.0
  3
_FILLED
  1

  0
SOLID
  5
2822A
  8
0
  6
BYBLOCK
 62
     0
 10
0.0
 20
0.0
 30
0.0
 11
-1.0
 21
0.1666666667
 31
0.0
 12
-1.0
 22
-0.1666666667
 32
0.0
 13
-1.0
 23
-0.1666666667
 33
0.0
  0
ENDBLK
  5
2822B
  8
0
  6
BYBLOCK
 62
     0
  0
ENDSEC
  0
SECTION
  2
ENTITIES
  0
ATTDEF
  5
28FA8
  8
DEFPOINTS
 10
3099.2710464362889979
 20
132.1180529101729917
 30
0.0
 40
0.001
  1
K-14381BR
  3

  2
MODELNUMBER
 70
     0
1001
ACDBATTR
1070
     0
1070
     1
  0
ATTDEF
  5
28FA9
  8
DEFPOINTS
 10
3099.2710464362889979
 20
132.1163862435062981
 30
0.0
 40
0.001
  1
PURIST
  3

  2
TRADENAME
 70
     0
1001
ACDBATTR
1070
     0
1070
     1
  0
ATTDEF
  5
28FAA
  8
DEFPOINTS
 10
3099.2710464362889979
 20
132.1147195768396898
 30
0.0
 40
0.001
  1
HOTELIER
  3

  2
PRODUCT
 70
     0
1001
ACDBATTR
1070
     0
1070
     1
  0
ARC
  5
29320
  8
0
 10
3087.2628638330188551
 20
133.68870198366821
 30
0.0
 40
0.9448818898000004
 50
24.6243183510483412
 51
255.522487817192399
  0
ARC
  5
29321
  8
0
 10
3087.2628638330188551
 20
133.68870198366821
 30
0.0
 40
0.9448818898000004
 50
284.4775121890521064
 51
335.3756816489516837
  0
ARC
  5
29322
  8
0
 10
3087.2628638330188551
 20
130.539095684468208
 30
0.0
 40
0.9448818898000004
 50
24.6243183510483412
 51
75.5224878109479079
  0
ARC
  5
29323
  8
0
 10
3087.2628638330188551
 20
130.539095684468208
 30
0.0
 40
0.9448818898000004
 50
104.477512182807601
 51
335.3756816489516837
  0
LINE
  5
29324
  8
0
 10
3086.4360921795191643
 20
130.9327964718681869
 30
0.0
 11
3086.4360921795191643
 21
130.1453948970682006
 31
0.0
  0
LINE
  5
29325
  8
0
 10
3086.4360921795191643
 20
130.1453948970682006
 30
0.0
 11
3112.1053835180191527
 21
130.1453948970680869
 31
0.0
  0
LINE
  5
29326
  8
0
 10
3086.4360921795191643
 20
130.9327964718681869
 30
0.0
 11
3112.1053835181191971
 21
130.9327964718681869
 31
0.0
  0
LINE
  5
29327
  8
0
 10
3086.4360921795191643
 20
134.0824027710681889
 30
0.0
 11
3086.4360921795191643
 21
133.2950011962682026
 31
0.0
  0
LINE
  5
29328
  8
0
 10
3086.4360921795191643
 20
133.2950011962682026
 30
0.0
 11
3112.1053835181191971
 21
133.2950011962682026
 31
0.0
  0
LINE
  5
29329
  8
0
 10
3086.4360921795191643
 20
134.0824027710681889
 30
0.0
 11
3112.1053835181191971
 21
134.0824027710681889
 31
0.0
  0
LINE
  5
2932A
  8
0
 10
3087.0266433606188912
 20
133.2950011962682026
 30
0.0
 11
3087.0266433606188912
 21
130.9327964718681869
 31
0.0
  0
LINE
  5
2932B
  8
0
 10
3087.4990843055188634
 20
130.9327964718681869
 30
0.0
 11
3087.4990843055188634
 21
133.2950046176682122
 31
0.0
  0
ARC
  5
2932C
  8
0
 10
3111.2786118645190072
 20
133.68870198366821
 30
0.0
 40
0.9448818898000004
 50
284.4775121828075726
 51
155.3756816489515984
  0
ARC
  5
2932D
  8
0
 10
3111.2786118645190072
 20
133.68870198366821
 30
0.0
 40
0.9448818898000004
 50
204.6243183510482879
 51
255.5224878109478936
  0
ARC
  5
2932E
  8
0
 10
3111.2786118645190072
 20
130.539095684468208
 30
0.0
 40
0.9448818898000004
 50
104.4775121890521064
 51
155.3756816489515984
  0
ARC
  5
2932F
  8
0
 10
3111.2786118645190072
 20
130.539095684468208
 30
0.0
 40
0.9448818898000004
 50
204.6243183510482879
 51
75.5224878171923848
  0
LINE
  5
29330
  8
0
 10
3112.1053835180191527
 20
130.9327964718681869
 30
0.0
 11
3112.1053835180191527
 21
130.1453948970682006
 31
0.0
  0
LINE
  5
29331
  8
0
 10
3112.1053835181191971
 20
134.0824027710681889
 30
0.0
 11
3112.1053835180191527
 21
133.2950011962682026
 31
0.0
  0
LINE
  5
29332
  8
0
 10
3111.5148323369189711
 20
133.2950011962682026
 30
0.0
 11
3111.5148323369189711
 21
130.9327964718681869
 31
0.0
  0
LINE
  5
29333
  8
0
 10
3111.0423913920189989
 20
130.9327964718681869
 30
0.0
 11
3111.0423913920189989
 21
133.2950011962682026
 31
0.0
  0
LINE
  5
29335
  8
0
 10
3086.4754622582190677
 20
134.0824027710681889
 30
0.0
 11
3086.4754622582190677
 21
133.2950011962682026
 31
0.0
  0
LINE
  5
29336
  8
0
 10
3086.4754622582190677
 20
130.9327964718681869
 30
0.0
 11
3086.4754622582190677
 21
130.1453948970682006
 31
0.0
  0
LINE
  5
29337
  8
0
 10
3112.0660134393187946
 20
134.0824027710681889
 30
0.0
 11
3112.0660134393187946
 21
133.2950011962682026
 31
0.0
  0
LINE
  5
29338
  8
0
 10
3112.0660134393187946
 20
130.9327964718681869
 30
0.0
 11
3112.0660134393187946
 21
130.1453948970682006
 31
0.0
  0
ENDSEC
  0
EOF
