  0
SECTION
  2
HEADER
  9
$ACADVER
  1
AC1009
  9
$INSBASE
 10
3553.8282213118909567
 20
154.0546072434460996
 30
0.0
  9
$EXTMIN
 10
3553.3715283984911366
 20
153.5979143300461089
 30
0.0
  9
$EXTMAX
 10
3554.2849142252898673
 20
154.5113001568460049
 30
0.0
  9
$LIMMIN
 10
0.0
 20
0.0
  9
$LIMMAX
 10
11.6929133858000007
 20
8.2677165353999982
  9
$ORTHOMODE
 70
     0
  9
$REGENMODE
 70
     1
  9
$FILLMODE
 70
     1
  9
$QTEXTMODE
 70
     0
  9
$MIRRTEXT
 70
     0
  9
$DRAGMODE
 70
     2
  9
$LTSCALE
 40
0.6431102362
  9
$OSMODE
 70
   575
  9
$ATTMODE
 70
     1
  9
$TEXTSIZE
 40
0.2
  9
$TRACEWID
 40
0.05
  9
$TEXTSTYLE
  7
STANDARD
  9
$CLAYER
  8
0
  9
$CELTYPE
  6
BYLAYER
  9
$CECOLOR
 62
   256
  9
$DIMSCALE
 40
1.0
  9
$DIMASZ
 40
0.1875
  9
$DIMEXO
 40
0.0625
  9
$DIMDLI
 40
0.4443307087
  9
$DIMRND
 40
0.0
  9
$DIMDLE
 40
0.0
  9
$DIMEXE
 40
0.125
  9
$DIMTP
 40
0.01
  9
$DIMTM
 40
0.01
  9
$DIMTXT
 40
2.0
  9
$DIMCEN
 40
0.1052362205
  9
$DIMTSZ
 40
0.0
  9
$DIMTOL
 70
     1
  9
$DIMLIM
 70
     0
  9
$DIMTIH
 70
     1
  9
$DIMTOH
 70
     1
  9
$DIMSE1
 70
     0
  9
$DIMSE2
 70
     0
  9
$DIMTAD
 70
     0
  9
$DIMZIN
 70
     0
  9
$DIMBLK
  1

  9
$DIMASO
 70
     1
  9
$DIMSHO
 70
     1
  9
$DIMPOST
  1
\X
  9
$DIMAPOST
  1

  9
$DIMALT
 70
     1
  9
$DIMALTD
 70
     2
  9
$DIMALTF
 40
25.3999999999999986
  9
$DIMLFAC
 40
1.0
  9
$DIMTOFL
 70
     0
  9
$DIMTVP
 40
0.0
  9
$DIMTIX
 70
     0
  9
$DIMSOXD
 70
     0
  9
$DIMSAH
 70
     0
  9
$DIMBLK1
  1

  9
$DIMBLK2
  1

  9
$DIMSTYLE
  2
STANDARD
  9
$DIMCLRD
 70
     0
  9
$DIMCLRE
 70
     0
  9
$DIMCLRT
 70
     0
  9
$DIMTFAC
 40
1.0
  9
$DIMGAP
 40
0.09
  9
$LUNITS
 70
     2
  9
$LUPREC
 70
     4
  9
$SKETCHINC
 40
0.1
  9
$FILLETRAD
 40
0.0
  9
$AUNITS
 70
     0
  9
$AUPREC
 70
     0
  9
$MENU
  1
.
  9
$ELEVATION
 40
0.0
  9
$PELEVATION
 40
0.0
  9
$THICKNESS
 40
0.0
  9
$LIMCHECK
 70
     0
  9
$BLIPMODE
 70
     0
  9
$CHAMFERA
 40
0.0
  9
$CHAMFERB
 40
0.0
  9
$SKPOLY
 70
     0
  9
$TDCREATE
 40
2458060.468368056230247
  9
$TDUPDATE
 40
2459617.0038194442167878
  9
$TDINDWG
 40
0.5980278935
  9
$TDUSRTIMER
 40
0.5980278935
  9
$USRTIMER
 70
     1
  9
$ANGBASE
 50
0.0
  9
$ANGDIR
 70
     0
  9
$PDMODE
 70
     0
  9
$PDSIZE
 40
0.3125
  9
$PLINEWID
 40
0.0
  9
$COORDS
 70
     1
  9
$SPLFRAME
 70
     0
  9
$SPLINETYPE
 70
     6
  9
$SPLINESEGS
 70
     8
  9
$ATTDIA
 70
     1
  9
$ATTREQ
 70
     1
  9
$HANDLING
 70
     1
  9
$HANDSEED
  5
1418C
  9
$SURFTAB1
 70
     6
  9
$SURFTAB2
 70
     6
  9
$SURFTYPE
 70
     6
  9
$SURFU
 70
     6
  9
$SURFV
 70
     6
  9
$UCSNAME
  2

  9
$UCSORG
 10
0.0
 20
0.0
 30
0.0
  9
$UCSXDIR
 10
1.0
 20
0.0
 30
0.0
  9
$UCSYDIR
 10
0.0
 20
1.0
 30
0.0
  9
$PUCSNAME
  2

  9
$PUCSORG
 10
0.0
 20
0.0
 30
0.0
  9
$PUCSXDIR
 10
1.0
 20
0.0
 30
0.0
  9
$PUCSYDIR
 10
0.0
 20
1.0
 30
0.0
  9
$USERI1
 70
     0
  9
$USERI2
 70
     0
  9
$USERI3
 70
     0
  9
$USERI4
 70
     0
  9
$USERI5
 70
     0
  9
$USERR1
 40
0.0
  9
$USERR2
 40
0.0
  9
$USERR3
 40
0.0
  9
$USERR4
 40
0.0
  9
$USERR5
 40
0.0
  9
$WORLDVIEW
 70
     1
  9
$SHADEDGE
 70
     3
  9
$SHADEDIF
 70
    70
  9
$TILEMODE
 70
     1
  9
$MAXACTVP
 70
    64
  9
$PLIMCHECK
 70
     0
  9
$PEXTMIN
 10
1.0000000000000000E+20
 20
1.0000000000000000E+20
 30
1.0000000000000000E+20
  9
$PEXTMAX
 10
-1.0000000000000000E+20
 20
-1.0000000000000000E+20
 30
-1.0000000000000000E+20
  9
$PLIMMIN
 10
0.0
 20
0.0
  9
$PLIMMAX
 10
12.0
 20
9.0
  9
$UNITMODE
 70
     0
  9
$VISRETAIN
 70
     1
  9
$PLINEGEN
 70
     0
  9
$PSLTSCALE
 70
     1
  0
ENDSEC
  0
SECTION
  2
TABLES
  0
TABLE
  2
VPORT
 70
     1
  0
VPORT
  2
*ACTIVE
 70
     0
 10
0.0
 20
0.0
 11
1.0
 21
1.0
 12
38.32895347461141
 22
-6.62733102139976
 13
0.0
 23
0.0
 14
1.0
 24
1.0
 15
0.0
 25
0.0
 16
0.0
 26
0.0
 36
20.9203132949307395
 17
3515.499267578125
 27
160.6819381713866903
 37
0.0
 40
1.2818141143443309
 41
2.4735152487961471
 42
50.0
 43
0.0
 44
0.0
 50
0.0
 51
0.0
 71
     0
 72
   100
 73
     1
 74
     1
 75
     0
 76
     0
 77
     0
 78
     0
  0
ENDTAB
  0
TABLE
  2
LTYPE
 70
     2
  0
LTYPE
  2
CONTINUOUS
 70
     0
  3
Solid line
 72
    65
 73
     0
 40
0.0
  0
LTYPE
  2
PHANTOM2
 70
     0
  3
___ _ _ ___ _ _ ___ _ _ ___ _ _
 72
    65
 73
     6
 40
1.25
 49
0.625
 49
-0.125
 49
0.125
 49
-0.125
 49
0.125
 49
-0.125
  0
ENDTAB
  0
TABLE
  2
LAYER
 70
     2
  0
LAYER
  2
0
 70
     0
 62
   255
  6
CONTINUOUS
  0
LAYER
  2
DEFPOINTS
 70
     0
 62
     7
  6
CONTINUOUS
  0
ENDTAB
  0
TABLE
  2
STYLE
 70
     1
  0
STYLE
  2
STANDARD
 70
     0
 40
0.0
 41
0.8
 50
0.0
 71
     0
 42
0.2
  3
txt
  4

  0
ENDTAB
  0
TABLE
  2
VIEW
 70
     0
  0
ENDTAB
  0
TABLE
  2
UCS
 70
     0
  0
ENDTAB
  0
TABLE
  2
APPID
 70
     9
  0
APPID
  2
ACAD
 70
     0
  0
APPID
  2
ACAD_MLEADERVER
 70
     0
  0
APPID
  2
ACAD_EXEMPT_FROM_CAD_STANDARDS
 70
     0
  0
APPID
  2
ACAD_NAV_VCDISPLAY
 70
     0
  0
APPID
  2
ACAECLAYERSTANDARD
 70
     0
  0
APPID
  2
ACCMTRANSPARENCY
 70
     0
  0
APPID
  2
ACAD_DSTYLE_DIMJAG
 70
     0
  0
APPID
  2
ACAD_DSTYLE_DIMTALN
 70
     0
  0
APPID
  2
ACDBATTR
 70
     0
  0
ENDTAB
  0
TABLE
  2
DIMSTYLE
 70
     1
  0
DIMSTYLE
  2
STANDARD
 70
     0
  3

  4

  5

  6

  7

 40
1.0
 41
0.1875
 42
0.0625
 43
0.38
 44
0.125
 45
0.0
 46
0.0
 47
0.01
 48
0.01
140
0.15625
141
0.09
142
0.0
143
25.3999999999999986
144
1.0
145
0.0
146
1.0
147
0.09
 71
     1
 72
     0
 73
     1
 74
     1
 75
     0
 76
     0
 77
     0
 78
     4
170
     0
171
     2
172
     0
173
     0
174
     0
175
     0
176
     0
177
     0
178
     0
  0
ENDTAB
  0
ENDSEC
  0
SECTION
  2
BLOCKS
  0
BLOCK
  8
0
  2
$MODEL_SPACE
 70
     0
 10
0.0
 20
0.0
 30
0.0
  3
$MODEL_SPACE
  1

  0
ENDBLK
  5
21
  8
0
  0
BLOCK
 67
     1
  8
0
  2
$PAPER_SPACE
 70
     0
 10
0.0
 20
0.0
 30
0.0
  3
$PAPER_SPACE
  1

  0
ENDBLK
  5
1D
 67
     1
  8
0
  0
ENDSEC
  0
SECTION
  2
ENTITIES
  0
ATTDEF
  5
12BEB
  8
DEFPOINTS
 10
3553.8282648683039042
 20
154.0534802759945876
 30
0.0
 40
0.001
  1
K-12067BR
  3

  2
MODELNUMBER
 70
     0
1001
ACDBATTR
1070
     0
1070
     1
  0
ATTDEF
  5
12BEC
  8
DEFPOINTS
 10
3553.8282648683039042
 20
154.051813609327894
 30
0.0
 40
0.001
  1

  3

  2
TRADENAME
 70
     0
1001
ACDBATTR
1070
     0
1070
     1
  0
ATTDEF
  5
12BED
  8
DEFPOINTS
 10
3553.8282648683039042
 20
154.0501469426613141
 30
0.0
 40
0.001
  1
HOSE
  3

  2
PRODUCT
 70
     0
1001
ACDBATTR
1070
     0
1070
     1
  0
CIRCLE
  5
13FB2
  8
0
 10
3553.8282213118909567
 20
154.0546072434460996
 30
0.0
 40
0.275590551199997
  0
CIRCLE
  5
13FB3
  8
0
 10
3553.8282213118909567
 20
154.0546072434460996
 30
0.0
 40
0.2952755905999993
  0
CIRCLE
  5
13FB4
  8
0
 10
3553.8282213118909567
 20
154.0546072434460996
 30
0.0
 40
0.3244881890000002
  0
CIRCLE
  5
13FB5
  8
0
 10
3553.8282213118909567
 20
154.0546072434460996
 30
0.0
 40
0.3937007874000002
  0
CIRCLE
  5
13FB6
  8
0
 10
3553.8282213118909567
 20
154.0546072434460996
 30
0.0
 40
0.4566929133999978
  0
LINE
  5
13FB7
  8
0
 10
3553.8282213118909567
 20
153.620953833046002
 30
0.0
 11
3553.8420549602901701
 21
153.6020584448459942
 31
0.0
  0
LINE
  5
13FB8
  8
0
 10
3553.8420549602901701
 20
153.6020584448459942
 30
0.0
 11
3553.8459895698902073
 21
153.6021958444459869
 31
0.0
  0
LINE
  5
13FB9
  8
0
 10
3553.8459895698902073
 20
153.6021958444459869
 30
0.0
 11
3553.8584714445901227
 21
153.6220101910460016
 31
0.0
  0
LINE
  5
13FBA
  8
0
 10
3553.8584714445901227
 20
153.6220101910460016
 30
0.0
 11
3553.8735894705901046
 21
153.604125817446004
 31
0.0
  0
LINE
  5
13FBB
  8
0
 10
3553.8735894705901046
 20
153.604125817446004
 30
0.0
 11
3553.8775049111900444
 21
153.6045373468460014
 31
0.0
  0
LINE
  5
13FBC
  8
0
 10
3553.8775049111900444
 20
153.6045373468460014
 30
0.0
 11
3553.8885742016900622
 21
153.625174118246008
 31
0.0
  0
LINE
  5
13FBD
  8
0
 10
3553.8885742016900622
 20
153.625174118246008
 30
0.0
 11
3553.904902951790973
 21
153.6083878903459947
 31
0.0
  0
LINE
  5
13FBE
  8
0
 10
3553.904902951790973
 20
153.6083878903459947
 30
0.0
 11
3553.9087801476898676
 21
153.6090715446460138
 31
0.0
  0
LINE
  5
13FBF
  8
0
 10
3553.9087801476898676
 20
153.6090715446460138
 30
0.0
 11
3553.9183829255898672
 21
153.6304302005459874
 31
0.0
  0
LINE
  5
13FC0
  8
0
 10
3553.9183829255898672
 20
153.6304302005459874
 30
0.0
 11
3553.9358428477898997
 21
153.6148238991459891
 31
0.0
  0
LINE
  5
13FC1
  8
0
 10
3553.9358428477898997
 20
153.6148238991459891
 30
0.0
 11
3553.9396629096900142
 21
153.6157763475459888
 31
0.0
  0
LINE
  5
13FC2
  8
0
 10
3553.9396629096900142
 20
153.6157763475459888
 30
0.0
 11
3553.9477523911900789
 21
153.6377528307459954
 31
0.0
  0
LINE
  5
13FC3
  8
0
 10
3553.9477523911900789
 20
153.6377528307459954
 30
0.0
 11
3553.966258422491137
 21
153.623402488045997
 31
0.0
  0
LINE
  5
13FC4
  8
0
 10
3553.966258422491137
 20
153.623402488045997
 30
0.0
 11
3553.9700027394901554
 21
153.6246190904460036
 31
0.0
  0
LINE
  5
13FC5
  8
0
 10
3553.9700027394901554
 20
153.6246190904460036
 30
0.0
 11
3553.9765395133899801
 21
153.6471063337459952
 31
0.0
  0
LINE
  5
13FC6
  8
0
 10
3553.9765395133899801
 20
153.6471063337459952
 30
0.0
 11
3553.9960014941898407
 21
153.6340818632459957
 31
0.0
  0
LINE
  5
13FC7
  8
0
 10
3553.9960014941898407
 20
153.6340818632459957
 30
0.0
 11
3553.9996518242901402
 21
153.6355566923460003
 31
0.0
  0
LINE
  5
13FC8
  8
0
 10
3553.9996518242901402
 20
153.6355566923460003
 30
0.0
 11
3554.0046040441898185
 21
153.6584451402459877
 31
0.0
  0
LINE
  5
13FC9
  8
0
 10
3554.0046040441898185
 20
153.6584451402459877
 30
0.0
 11
3554.024927157789989
 21
153.646809995846013
 31
0.0
  0
LINE
  5
13FCA
  8
0
 10
3554.024927157789989
 20
153.646809995846013
 30
0.0
 11
3554.0284657169900129
 21
153.6485358664459966
 31
0.0
  0
LINE
  5
13FCB
  8
0
 10
3554.0284657169900129
 20
153.6485358664459966
 30
0.0
 11
3554.0318092560901277
 21
153.6717140086460063
 31
0.0
  0
LINE
  5
13FCC
  8
0
 10
3554.0318092560901277
 20
153.6717140086460063
 30
0.0
 11
3554.0528944901898285
 21
153.6615248756459948
 31
0.0
  0
LINE
  5
13FCD
  8
0
 10
3554.0528944901898285
 20
153.6615248756459948
 30
0.0
 11
3554.0563040389902199
 21
153.6634933795459972
 31
0.0
  0
LINE
  5
13FCE
  8
0
 10
3554.0563040389902199
 20
153.6634933795459972
 30
0.0
 11
3554.0580226079900967
 21
153.6868482944460084
 31
0.0
  0
LINE
  5
13FCF
  8
0
 10
3554.0580226079900967
 20
153.6868482944460084
 30
0.0
 11
3554.0797672374901595
 21
153.6781548131459942
 31
0.0
  0
LINE
  5
13FD0
  8
0
 10
3554.0797672374901595
 20
153.6781548131459942
 30
0.0
 11
3554.0830311648901443
 21
153.6803563600460052
 31
0.0
  0
LINE
  5
13FD1
  8
0
 10
3554.0830311648901443
 20
153.6803563600460052
 30
0.0
 11
3554.0831163910897885
 21
153.7037742648460039
 31
0.0
  0
LINE
  5
13FD2
  8
0
 10
3554.0831163910897885
 20
153.7037742648460039
 30
0.0
 11
3554.1054144782910953
 21
153.6966187891459867
 31
0.0
  0
LINE
  5
13FD3
  8
0
 10
3554.1054144782910953
 20
153.6966187891459867
 30
0.0
 11
3554.1085168828899441
 21
153.6990426532460106
 31
0.0
  0
LINE
  5
13FD4
  8
0
 10
3554.1085168828899441
 20
153.6990426532460106
 30
0.0
 11
3554.1069683508899288
 21
153.7224094582460054
 31
0.0
  0
LINE
  5
13FD5
  8
0
 10
3554.1069683508899288
 20
153.7224094582460054
 30
0.0
 11
3554.1297112618899519
 21
153.7168268488460114
 31
0.0
  0
LINE
  5
13FD6
  8
0
 10
3554.1297112618899519
 20
153.7168268488460114
 30
0.0
 11
3554.1326370289898477
 21
153.7194612213459948
 31
0.0
  0
LINE
  5
13FD7
  8
0
 10
3554.1326370289898477
 20
153.7194612213459948
 30
0.0
 11
3554.1294622831910601
 21
153.7426630858460044
 31
0.0
  0
LINE
  5
13FD8
  8
0
 10
3554.1294622831910601
 20
153.7426630858460044
 30
0.0
 11
3554.1525392167900463
 21
153.7386805407460031
 31
0.0
  0
LINE
  5
13FD9
  8
0
 10
3554.1525392167900463
 20
153.7386805407460031
 30
0.0
 11
3554.155274092289801
 21
153.7415125871459907
 31
0.0
  0
LINE
  5
13FDA
  8
0
 10
3554.155274092289801
 20
153.7415125871459907
 30
0.0
 11
3554.1504885997901511
 21
153.7644364740459935
 31
0.0
  0
LINE
  5
13FDB
  8
0
 10
3554.1504885997901511
 20
153.7644364740459935
 30
0.0
 11
3554.1737871273899145
 21
153.7620733956460128
 31
0.0
  0
LINE
  5
13FDC
  8
0
 10
3554.1737871273899145
 20
153.7620733956460128
 30
0.0
 11
3554.1763177872899178
 21
153.7650893186460053
 31
0.0
  0
LINE
  5
13FDD
  8
0
 10
3554.1763177872899178
 20
153.7650893186460053
 30
0.0
 11
3554.1699448625900004
 21
153.7876235450459887
 31
0.0
  0
LINE
  5
13FDE
  8
0
 10
3554.1699448625900004
 20
153.7876235450459887
 30
0.0
 11
3554.1933514760899016
 21
153.7868914461460008
 31
0.0
  0
LINE
  5
13FDF
  8
0
 10
3554.1933514760899016
 20
153.7868914461460008
 30
0.0
 11
3554.1956655912899805
 21
153.7900765524460951
 31
0.0
  0
LINE
  5
13FE0
  8
0
 10
3554.1956655912899805
 20
153.7900765524460951
 30
0.0
 11
3554.1877362824898228
 21
153.8121113338459907
 31
0.0
  0
LINE
  5
13FE1
  8
0
 10
3554.1877362824898228
 20
153.8121113338459907
 30
0.0
 11
3554.2111369473900595
 21
153.8130137811459974
 31
0.0
  0
LINE
  5
13FE2
  8
0
 10
3554.2111369473900595
 20
153.8130137811459974
 30
0.0
 11
3554.2132232436911181
 21
153.8163525531460039
 31
0.0
  0
LINE
  5
13FE3
  8
0
 10
3554.2132232436911181
 20
153.8163525531460039
 30
0.0
 11
3554.2037761816900456
 21
153.837780538245994
 31
0.0
  0
LINE
  5
13FE4
  8
0
 10
3554.2037761816900456
 20
153.837780538245994
 30
0.0
 11
3554.2270568921899212
 21
153.8403131351460047
 31
0.0
  0
LINE
  5
13FE5
  8
0
 10
3554.2270568921899212
 20
153.8403131351460047
 30
0.0
 11
3554.2289052053902196
 21
153.8437893067460038
 31
0.0
  0
LINE
  5
13FE6
  8
0
 10
3554.2289052053902196
 20
153.8437893067460038
 30
0.0
 11
3554.2179864152899427
 21
153.8645061006459969
 31
0.0
  0
LINE
  5
13FE7
  8
0
 10
3554.2179864152899427
 20
153.8645061006459969
 30
0.0
 11
3554.2410337500900823
 21
153.8686565084460938
 31
0.0
  0
LINE
  5
13FE8
  8
0
 10
3554.2410337500900823
 20
153.8686565084460938
 30
0.0
 11
3554.2426350753898987
 21
153.8722531441459864
 31
0.0
  0
LINE
  5
13FE9
  8
0
 10
3554.2426350753898987
 20
153.8722531441459864
 30
0.0
 11
3554.2302977523900154
 21
153.8921578166460051
 31
0.0
  0
LINE
  5
13FEA
  8
0
 10
3554.2302977523900154
 20
153.8921578166460051
 30
0.0
 11
3554.252999427290888
 21
153.8979058151460038
 31
0.0
  0
LINE
  5
13FEB
  8
0
 10
3554.252999427290888
 20
153.8979058151460038
 30
0.0
 11
3554.2543459632897793
 21
153.9016053923459992
 31
0.0
  0
LINE
  5
13FEC
  8
0
 10
3554.2543459632897793
 20
153.9016053923459992
 30
0.0
 11
3554.240650213590925
 21
153.9206009699460083
 31
0.0
  0
LINE
  5
13FED
  8
0
 10
3554.240650213590925
 20
153.9206009699460083
 30
0.0
 11
3554.2628956281901083
 21
153.9279185554460128
 31
0.0
  0
LINE
  5
13FEE
  8
0
 10
3554.2628956281901083
 20
153.9279185554460128
 30
0.0
 11
3554.2639808146900577
 21
153.931703050246
 31
0.0
  0
LINE
  5
13FEF
  8
0
 10
3554.2639808146900577
 20
153.931703050246
 30
0.0
 11
3554.2489933625902268
 21
153.9496969883460054
 31
0.0
  0
LINE
  5
13FF0
  8
0
 10
3554.2489933625902268
 20
153.9496969883460054
 30
0.0
 11
3554.2706741395909376
 21
153.9585485102460041
 31
0.0
  0
LINE
  5
13FF1
  8
0
 10
3554.2706741395909376
 20
153.9585485102460041
 30
0.0
 11
3554.27149268949006
 21
153.9623994850460065
 31
0.0
  0
LINE
  5
13FF2
  8
0
 10
3554.27149268949006
 20
153.9623994850460065
 30
0.0
 11
3554.2552865524899062
 21
153.9793041190459917
 31
0.0
  0
LINE
  5
13FF3
  8
0
 10
3554.2552865524899062
 20
153.9793041190459917
 30
0.0
 11
3554.2762970651901924
 21
153.989646453545987
 31
0.0
  0
LINE
  5
13FF4
  8
0
 10
3554.2762970651901924
 20
153.989646453545987
 30
0.0
 11
3554.2768449907898685
 21
153.993545146745987
 31
0.0
  0
LINE
  5
13FF5
  8
0
 10
3554.2768449907898685
 20
153.993545146745987
 30
0.0
 11
3554.259499123490059
 21
154.0092781188459981
 31
0.0
  0
LINE
  5
13FF6
  8
0
 10
3554.259499123490059
 20
154.0092781188459981
 30
0.0
 11
3554.2797370107900861
 21
154.0210608792459936
 31
0.0
  0
LINE
  5
13FF7
  8
0
 10
3554.2797370107900861
 20
154.0210608792459936
 30
0.0
 11
3554.2800116425901251
 21
154.0249882967459882
 31
0.0
  0
LINE
  5
13FF8
  8
0
 10
3554.2800116425901251
 20
154.0249882967459882
 30
0.0
 11
3554.2616105522902217
 21
154.0394729577459998
 31
0.0
  0
LINE
  5
13FF9
  8
0
 10
3554.2616105522902217
 20
154.0394729577459998
 30
0.0
 11
3554.2809772173900456
 21
154.0526387395460119
 31
0.0
  0
LINE
  5
13FFA
  8
0
 10
3554.2809772173900456
 20
154.0526387395460119
 30
0.0
 11
3554.2809772173900456
 21
154.0565757473459882
 31
0.0
  0
LINE
  5
13FFB
  8
0
 10
3553.8282213118909567
 20
153.620953833046002
 30
0.0
 11
3553.8143876634899243
 21
153.6020584448459942
 31
0.0
  0
LINE
  5
13FFC
  8
0
 10
3553.8143876634899243
 20
153.6020584448459942
 30
0.0
 11
3553.8104530538898871
 21
153.6021958444459869
 31
0.0
  0
LINE
  5
13FFD
  8
0
 10
3553.8104530538898871
 20
153.6021958444459869
 30
0.0
 11
3553.7979711791899717
 21
153.6220101910460016
 31
0.0
  0
LINE
  5
13FFE
  8
0
 10
3553.7979711791899717
 20
153.6220101910460016
 30
0.0
 11
3553.7828531531899898
 21
153.604125817446004
 31
0.0
  0
LINE
  5
13FFF
  8
0
 10
3553.7828531531899898
 20
153.604125817446004
 30
0.0
 11
3553.7789377125909596
 21
153.6045373468460014
 31
0.0
  0
LINE
  5
14000
  8
0
 10
3553.7789377125909596
 20
153.6045373468460014
 30
0.0
 11
3553.7678684220900323
 21
153.625174118246008
 31
0.0
  0
LINE
  5
14001
  8
0
 10
3553.7678684220900323
 20
153.625174118246008
 30
0.0
 11
3553.7515396719909404
 21
153.6083878903459947
 31
0.0
  0
LINE
  5
14002
  8
0
 10
3553.7515396719909404
 20
153.6083878903459947
 30
0.0
 11
3553.7476624760911363
 21
153.6090715446460138
 31
0.0
  0
LINE
  5
14003
  8
0
 10
3553.7476624760911363
 20
153.6090715446460138
 30
0.0
 11
3553.7380596981902272
 21
153.6304302005459874
 31
0.0
  0
LINE
  5
14004
  8
0
 10
3553.7380596981902272
 20
153.6304302005459874
 30
0.0
 11
3553.7205997759911043
 21
153.6148238991459891
 31
0.0
  0
LINE
  5
14005
  8
0
 10
3553.7205997759911043
 20
153.6148238991459891
 30
0.0
 11
3553.7167797140900802
 21
153.6157763475459888
 31
0.0
  0
LINE
  5
14006
  8
0
 10
3553.7167797140900802
 20
153.6157763475459888
 30
0.0
 11
3553.7086902325900155
 21
153.6377528307459954
 31
0.0
  0
LINE
  5
14007
  8
0
 10
3553.7086902325900155
 20
153.6377528307459954
 30
0.0
 11
3553.6901842012898669
 21
153.623402488045997
 31
0.0
  0
LINE
  5
14008
  8
0
 10
3553.6901842012898669
 20
153.623402488045997
 30
0.0
 11
3553.6864398842899391
 21
153.6246190904460036
 31
0.0
  0
LINE
  5
14009
  8
0
 10
3553.6864398842899391
 20
153.6246190904460036
 30
0.0
 11
3553.6799031103910238
 21
153.6471063337459952
 31
0.0
  0
LINE
  5
1400A
  8
0
 10
3553.6799031103910238
 20
153.6471063337459952
 30
0.0
 11
3553.6604411295897989
 21
153.6340818632459957
 31
0.0
  0
LINE
  5
1400B
  8
0
 10
3553.6604411295897989
 20
153.6340818632459957
 30
0.0
 11
3553.6567907994899542
 21
153.6355566923460003
 31
0.0
  0
LINE
  5
1400C
  8
0
 10
3553.6567907994899542
 20
153.6355566923460003
 30
0.0
 11
3553.6518385795898212
 21
153.6584451402459877
 31
0.0
  0
LINE
  5
1400D
  8
0
 10
3553.6518385795898212
 20
153.6584451402459877
 30
0.0
 11
3553.6315154659901054
 21
153.646809995846013
 31
0.0
  0
LINE
  5
1400E
  8
0
 10
3553.6315154659901054
 20
153.646809995846013
 30
0.0
 11
3553.6279769067909911
 21
153.6485358664459966
 31
0.0
  0
LINE
  5
1400F
  8
0
 10
3553.6279769067909911
 20
153.6485358664459966
 30
0.0
 11
3553.6246333676899667
 21
153.6717140086460063
 31
0.0
  0
LINE
  5
14010
  8
0
 10
3553.6246333676899667
 20
153.6717140086460063
 30
0.0
 11
3553.6035481335898112
 21
153.6615248756459948
 31
0.0
  0
LINE
  5
14011
  8
0
 10
3553.6035481335898112
 20
153.6615248756459948
 30
0.0
 11
3553.6001385847898746
 21
153.6634933795459972
 31
0.0
  0
LINE
  5
14012
  8
0
 10
3553.6001385847898746
 20
153.6634933795459972
 30
0.0
 11
3553.5984200157899977
 21
153.6868482944460084
 31
0.0
  0
LINE
  5
14013
  8
0
 10
3553.5984200157899977
 20
153.6868482944460084
 30
0.0
 11
3553.576675386289935
 21
153.6781548131459942
 31
0.0
  0
LINE
  5
14014
  8
0
 10
3553.576675386289935
 20
153.6781548131459942
 30
0.0
 11
3553.5734114588899502
 21
153.6803563600460052
 31
0.0
  0
LINE
  5
14015
  8
0
 10
3553.5734114588899502
 20
153.6803563600460052
 30
0.0
 11
3553.5733262326898512
 21
153.7037742648460039
 31
0.0
  0
LINE
  5
14016
  8
0
 10
3553.5733262326898512
 20
153.7037742648460039
 30
0.0
 11
3553.5510281454899086
 21
153.6966187891459867
 31
0.0
  0
LINE
  5
14017
  8
0
 10
3553.5510281454899086
 20
153.6966187891459867
 30
0.0
 11
3553.5479257408901503
 21
153.6990426532460106
 31
0.0
  0
LINE
  5
14018
  8
0
 10
3553.5479257408901503
 20
153.6990426532460106
 30
0.0
 11
3553.5494742728901656
 21
153.7224094582460054
 31
0.0
  0
LINE
  5
14019
  8
0
 10
3553.5494742728901656
 20
153.7224094582460054
 30
0.0
 11
3553.5267313618901426
 21
153.7168268488460114
 31
0.0
  0
LINE
  5
1401A
  8
0
 10
3553.5267313618901426
 20
153.7168268488460114
 30
0.0
 11
3553.5238055947897919
 21
153.7194612213459948
 31
0.0
  0
LINE
  5
1401B
  8
0
 10
3553.5238055947897919
 20
153.7194612213459948
 30
0.0
 11
3553.5269803405908533
 21
153.7426630858460044
 31
0.0
  0
LINE
  5
1401C
  8
0
 10
3553.5269803405908533
 20
153.7426630858460044
 30
0.0
 11
3553.5039034069909576
 21
153.7386805407460031
 31
0.0
  0
LINE
  5
1401D
  8
0
 10
3553.5039034069909576
 20
153.7386805407460031
 30
0.0
 11
3553.5011685314898386
 21
153.7415125871459907
 31
0.0
  0
LINE
  5
1401E
  8
0
 10
3553.5011685314898386
 20
153.7415125871459907
 30
0.0
 11
3553.5059540239899434
 21
153.7644364740459935
 31
0.0
  0
LINE
  5
1401F
  8
0
 10
3553.5059540239899434
 20
153.7644364740459935
 30
0.0
 11
3553.4826554963901799
 21
153.7620733956460128
 31
0.0
  0
LINE
  5
14020
  8
0
 10
3553.4826554963901799
 20
153.7620733956460128
 30
0.0
 11
3553.4801248364901767
 21
153.7650893186460053
 31
0.0
  0
LINE
  5
14021
  8
0
 10
3553.4801248364901767
 20
153.7650893186460053
 30
0.0
 11
3553.486497761190094
 21
153.7876235450459887
 31
0.0
  0
LINE
  5
14022
  8
0
 10
3553.486497761190094
 20
153.7876235450459887
 30
0.0
 11
3553.4630911476901929
 21
153.7868914461460008
 31
0.0
  0
LINE
  5
14023
  8
0
 10
3553.4630911476901929
 20
153.7868914461460008
 30
0.0
 11
3553.4607770324910234
 21
153.7900765524460951
 31
0.0
  0
LINE
  5
14024
  8
0
 10
3553.4607770324910234
 20
153.7900765524460951
 30
0.0
 11
3553.4687063412898169
 21
153.8121113338459907
 31
0.0
  0
LINE
  5
14025
  8
0
 10
3553.4687063412898169
 20
153.8121113338459907
 30
0.0
 11
3553.4453056763900349
 21
153.8130137811459974
 31
0.0
  0
LINE
  5
14026
  8
0
 10
3553.4453056763900349
 20
153.8130137811459974
 30
0.0
 11
3553.4432193800907953
 21
153.8163525531460039
 31
0.0
  0
LINE
  5
14027
  8
0
 10
3553.4432193800907953
 20
153.8163525531460039
 30
0.0
 11
3553.4526664420900488
 21
153.837780538245994
 31
0.0
  0
LINE
  5
14028
  8
0
 10
3553.4526664420900488
 20
153.837780538245994
 30
0.0
 11
3553.4293857315901732
 21
153.8403131351460047
 31
0.0
  0
LINE
  5
14029
  8
0
 10
3553.4293857315901732
 20
153.8403131351460047
 30
0.0
 11
3553.4275374183898748
 21
153.8437893067460038
 31
0.0
  0
LINE
  5
1402A
  8
0
 10
3553.4275374183898748
 20
153.8437893067460038
 30
0.0
 11
3553.4384562084901518
 21
153.8645061006459969
 31
0.0
  0
LINE
  5
1402B
  8
0
 10
3553.4384562084901518
 20
153.8645061006459969
 30
0.0
 11
3553.4154088736900121
 21
153.8686565084460938
 31
0.0
  0
LINE
  5
1402C
  8
0
 10
3553.4154088736900121
 20
153.8686565084460938
 30
0.0
 11
3553.4138075483901957
 21
153.8722531441459864
 31
0.0
  0
LINE
  5
1402D
  8
0
 10
3553.4138075483901957
 20
153.8722531441459864
 30
0.0
 11
3553.4261448713900791
 21
153.8921578166460051
 31
0.0
  0
LINE
  5
1402E
  8
0
 10
3553.4261448713900791
 20
153.8921578166460051
 30
0.0
 11
3553.403443196490116
 21
153.8979058151460038
 31
0.0
  0
LINE
  5
1402F
  8
0
 10
3553.403443196490116
 20
153.8979058151460038
 30
0.0
 11
3553.4020966604898604
 21
153.9016053923459992
 31
0.0
  0
LINE
  5
14030
  8
0
 10
3553.4020966604898604
 20
153.9016053923459992
 30
0.0
 11
3553.4157924101909884
 21
153.9206009699460083
 31
0.0
  0
LINE
  5
14031
  8
0
 10
3553.4157924101909884
 20
153.9206009699460083
 30
0.0
 11
3553.3935469955899862
 21
153.9279185554460128
 31
0.0
  0
LINE
  5
14032
  8
0
 10
3553.3935469955899862
 20
153.9279185554460128
 30
0.0
 11
3553.3924618090900367
 21
153.931703050246
 31
0.0
  0
LINE
  5
14033
  8
0
 10
3553.3924618090900367
 20
153.931703050246
 30
0.0
 11
3553.4074492611898677
 21
153.9496969883460054
 31
0.0
  0
LINE
  5
14034
  8
0
 10
3553.4074492611898677
 20
153.9496969883460054
 30
0.0
 11
3553.3857684841900664
 21
153.9585485102460041
 31
0.0
  0
LINE
  5
14035
  8
0
 10
3553.3857684841900664
 20
153.9585485102460041
 30
0.0
 11
3553.3849499342900344
 21
153.9623994850460065
 31
0.0
  0
LINE
  5
14036
  8
0
 10
3553.3849499342900344
 20
153.9623994850460065
 30
0.0
 11
3553.4011560712910978
 21
153.9793041190459917
 31
0.0
  0
LINE
  5
14037
  8
0
 10
3553.4011560712910978
 20
153.9793041190459917
 30
0.0
 11
3553.3801455585899021
 21
153.989646453545987
 31
0.0
  0
LINE
  5
14038
  8
0
 10
3553.3801455585899021
 20
153.989646453545987
 30
0.0
 11
3553.3795976329911355
 21
153.993545146745987
 31
0.0
  0
LINE
  5
14039
  8
0
 10
3553.3795976329911355
 20
153.993545146745987
 30
0.0
 11
3553.3969435002909449
 21
154.0092781188459981
 31
0.0
  0
LINE
  5
1403A
  8
0
 10
3553.3969435002909449
 20
154.0092781188459981
 30
0.0
 11
3553.3767056129900084
 21
154.0210608792459936
 31
0.0
  0
LINE
  5
1403B
  8
0
 10
3553.3767056129900084
 20
154.0210608792459936
 30
0.0
 11
3553.3764309811899693
 21
154.0249882967459882
 31
0.0
  0
LINE
  5
1403C
  8
0
 10
3553.3764309811899693
 20
154.0249882967459882
 30
0.0
 11
3553.3948320714898728
 21
154.0394729577459998
 31
0.0
  0
LINE
  5
1403D
  8
0
 10
3553.3948320714898728
 20
154.0394729577459998
 30
0.0
 11
3553.3754654063900489
 21
154.0526387395460119
 31
0.0
  0
LINE
  5
1403E
  8
0
 10
3553.3754654063900489
 20
154.0526387395460119
 30
0.0
 11
3553.3754654063900489
 21
154.0546072434960081
 31
0.0
  0
LINE
  5
1403F
  8
0
 10
3553.8282213118909567
 20
154.4882606538459981
 30
0.0
 11
3553.8420549602901701
 21
154.507156042046006
 31
0.0
  0
LINE
  5
14040
  8
0
 10
3553.8420549602901701
 20
154.507156042046006
 30
0.0
 11
3553.8459895698902073
 21
154.5070186424460132
 31
0.0
  0
LINE
  5
14041
  8
0
 10
3553.8459895698902073
 20
154.5070186424460132
 30
0.0
 11
3553.8584714445901227
 21
154.4872042958459986
 31
0.0
  0
LINE
  5
14042
  8
0
 10
3553.8584714445901227
 20
154.4872042958459986
 30
0.0
 11
3553.8735894705901046
 21
154.5050886694459962
 31
0.0
  0
LINE
  5
14043
  8
0
 10
3553.8735894705901046
 20
154.5050886694459962
 30
0.0
 11
3553.8775049111900444
 21
154.5046771400459988
 31
0.0
  0
LINE
  5
14044
  8
0
 10
3553.8775049111900444
 20
154.5046771400459988
 30
0.0
 11
3553.8885742016900622
 21
154.4840403686459922
 31
0.0
  0
LINE
  5
14045
  8
0
 10
3553.8885742016900622
 20
154.4840403686459922
 30
0.0
 11
3553.904902951790973
 21
154.5008265965460055
 31
0.0
  0
LINE
  5
14046
  8
0
 10
3553.904902951790973
 20
154.5008265965460055
 30
0.0
 11
3553.9087801476898676
 21
154.5001429422461001
 31
0.0
  0
LINE
  5
14047
  8
0
 10
3553.9087801476898676
 20
154.5001429422461001
 30
0.0
 11
3553.9183829255898672
 21
154.4787842863460128
 31
0.0
  0
LINE
  5
14048
  8
0
 10
3553.9183829255898672
 20
154.4787842863460128
 30
0.0
 11
3553.9358428477898997
 21
154.4943905877460111
 31
0.0
  0
LINE
  5
14049
  8
0
 10
3553.9358428477898997
 20
154.4943905877460111
 30
0.0
 11
3553.9396629096900142
 21
154.4934381393460114
 31
0.0
  0
LINE
  5
1404A
  8
0
 10
3553.9396629096900142
 20
154.4934381393460114
 30
0.0
 11
3553.9477523911900789
 21
154.4714616561460048
 31
0.0
  0
LINE
  5
1404B
  8
0
 10
3553.9477523911900789
 20
154.4714616561460048
 30
0.0
 11
3553.966258422491137
 21
154.4858119988460032
 31
0.0
  0
LINE
  5
1404C
  8
0
 10
3553.966258422491137
 20
154.4858119988460032
 30
0.0
 11
3553.9700027394901554
 21
154.4845953964459966
 31
0.0
  0
LINE
  5
1404D
  8
0
 10
3553.9700027394901554
 20
154.4845953964459966
 30
0.0
 11
3553.9765395133899801
 21
154.462108153146005
 31
0.0
  0
LINE
  5
1404E
  8
0
 10
3553.9765395133899801
 20
154.462108153146005
 30
0.0
 11
3553.9960014941898407
 21
154.4751326236460045
 31
0.0
  0
LINE
  5
1404F
  8
0
 10
3553.9960014941898407
 20
154.4751326236460045
 30
0.0
 11
3553.9996518242901402
 21
154.4736577945459999
 31
0.0
  0
LINE
  5
14050
  8
0
 10
3553.9996518242901402
 20
154.4736577945459999
 30
0.0
 11
3554.0046040441898185
 21
154.4507693466460125
 31
0.0
  0
LINE
  5
14051
  8
0
 10
3554.0046040441898185
 20
154.4507693466460125
 30
0.0
 11
3554.024927157789989
 21
154.4624044910459872
 31
0.0
  0
LINE
  5
14052
  8
0
 10
3554.024927157789989
 20
154.4624044910459872
 30
0.0
 11
3554.0284657169900129
 21
154.4606786204460036
 31
0.0
  0
LINE
  5
14053
  8
0
 10
3554.0284657169900129
 20
154.4606786204460036
 30
0.0
 11
3554.0318092560901277
 21
154.4375004782459939
 31
0.0
  0
LINE
  5
14054
  8
0
 10
3554.0318092560901277
 20
154.4375004782459939
 30
0.0
 11
3554.0528944901898285
 21
154.4476896112460054
 31
0.0
  0
LINE
  5
14055
  8
0
 10
3554.0528944901898285
 20
154.4476896112460054
 30
0.0
 11
3554.0563040389902199
 21
154.445721107346003
 31
0.0
  0
LINE
  5
14056
  8
0
 10
3554.0563040389902199
 20
154.445721107346003
 30
0.0
 11
3554.0580226079900967
 21
154.4223661924459918
 31
0.0
  0
LINE
  5
14057
  8
0
 10
3554.0580226079900967
 20
154.4223661924459918
 30
0.0
 11
3554.0797672374901595
 21
154.431059673746006
 31
0.0
  0
LINE
  5
14058
  8
0
 10
3554.0797672374901595
 20
154.431059673746006
 30
0.0
 11
3554.0830311648901443
 21
154.428858126845995
 31
0.0
  0
LINE
  5
14059
  8
0
 10
3554.0830311648901443
 20
154.428858126845995
 30
0.0
 11
3554.0831163910897885
 21
154.4054402220459963
 31
0.0
  0
LINE
  5
1405A
  8
0
 10
3554.0831163910897885
 20
154.4054402220459963
 30
0.0
 11
3554.1054144782910953
 21
154.4125956977460987
 31
0.0
  0
LINE
  5
1405B
  8
0
 10
3554.1054144782910953
 20
154.4125956977460987
 30
0.0
 11
3554.1085168828899441
 21
154.4101718336459896
 31
0.0
  0
LINE
  5
1405C
  8
0
 10
3554.1085168828899441
 20
154.4101718336459896
 30
0.0
 11
3554.1069683508899288
 21
154.3868050286459948
 31
0.0
  0
LINE
  5
1405D
  8
0
 10
3554.1069683508899288
 20
154.3868050286459948
 30
0.0
 11
3554.1297112618899519
 21
154.3923876380459888
 31
0.0
  0
LINE
  5
1405E
  8
0
 10
3554.1297112618899519
 20
154.3923876380459888
 30
0.0
 11
3554.1326370289898477
 21
154.3897532655460054
 31
0.0
  0
LINE
  5
1405F
  8
0
 10
3554.1326370289898477
 20
154.3897532655460054
 30
0.0
 11
3554.1294622831910601
 21
154.3665514010459958
 31
0.0
  0
LINE
  5
14060
  8
0
 10
3554.1294622831910601
 20
154.3665514010459958
 30
0.0
 11
3554.1525392167900463
 21
154.3705339461459971
 31
0.0
  0
LINE
  5
14061
  8
0
 10
3554.1525392167900463
 20
154.3705339461459971
 30
0.0
 11
3554.155274092289801
 21
154.3677018997460095
 31
0.0
  0
LINE
  5
14062
  8
0
 10
3554.155274092289801
 20
154.3677018997460095
 30
0.0
 11
3554.1504885997901511
 21
154.3447780128460067
 31
0.0
  0
LINE
  5
14063
  8
0
 10
3554.1504885997901511
 20
154.3447780128460067
 30
0.0
 11
3554.1737871273899145
 21
154.3471410912459874
 31
0.0
  0
LINE
  5
14064
  8
0
 10
3554.1737871273899145
 20
154.3471410912459874
 30
0.0
 11
3554.1763177872899178
 21
154.3441251682459949
 31
0.0
  0
LINE
  5
14065
  8
0
 10
3554.1763177872899178
 20
154.3441251682459949
 30
0.0
 11
3554.1699448625900004
 21
154.3215909418460114
 31
0.0
  0
LINE
  5
14066
  8
0
 10
3554.1699448625900004
 20
154.3215909418460114
 30
0.0
 11
3554.1933514760899016
 21
154.3223230407459994
 31
0.0
  0
LINE
  5
14067
  8
0
 10
3554.1933514760899016
 20
154.3223230407459994
 30
0.0
 11
3554.1956655912899805
 21
154.3191379344459904
 31
0.0
  0
LINE
  5
14068
  8
0
 10
3554.1956655912899805
 20
154.3191379344459904
 30
0.0
 11
3554.1877362824898228
 21
154.2971031530460948
 31
0.0
  0
LINE
  5
14069
  8
0
 10
3554.1877362824898228
 20
154.2971031530460948
 30
0.0
 11
3554.2111369473900595
 21
154.2962007057460028
 31
0.0
  0
LINE
  5
1406A
  8
0
 10
3554.2111369473900595
 20
154.2962007057460028
 30
0.0
 11
3554.2132232436911181
 21
154.2928619337459963
 31
0.0
  0
LINE
  5
1406B
  8
0
 10
3554.2132232436911181
 20
154.2928619337459963
 30
0.0
 11
3554.2037761816900456
 21
154.2714339486460062
 31
0.0
  0
LINE
  5
1406C
  8
0
 10
3554.2037761816900456
 20
154.2714339486460062
 30
0.0
 11
3554.2270568921899212
 21
154.2689013517461092
 31
0.0
  0
LINE
  5
1406D
  8
0
 10
3554.2270568921899212
 20
154.2689013517461092
 30
0.0
 11
3554.2289052053902196
 21
154.2654251801459964
 31
0.0
  0
LINE
  5
1406E
  8
0
 10
3554.2289052053902196
 20
154.2654251801459964
 30
0.0
 11
3554.2179864152899427
 21
154.2447083862460033
 31
0.0
  0
LINE
  5
1406F
  8
0
 10
3554.2179864152899427
 20
154.2447083862460033
 30
0.0
 11
3554.2410337500900823
 21
154.2405579784461054
 31
0.0
  0
LINE
  5
14070
  8
0
 10
3554.2410337500900823
 20
154.2405579784461054
 30
0.0
 11
3554.2426350753898987
 21
154.2369613427460138
 31
0.0
  0
LINE
  5
14071
  8
0
 10
3554.2426350753898987
 20
154.2369613427460138
 30
0.0
 11
3554.2302977523900154
 21
154.2170566702459951
 31
0.0
  0
LINE
  5
14072
  8
0
 10
3554.2302977523900154
 20
154.2170566702459951
 30
0.0
 11
3554.252999427290888
 21
154.2113086717459964
 31
0.0
  0
LINE
  5
14073
  8
0
 10
3554.252999427290888
 20
154.2113086717459964
 30
0.0
 11
3554.2543459632897793
 21
154.207609094546001
 31
0.0
  0
LINE
  5
14074
  8
0
 10
3554.2543459632897793
 20
154.207609094546001
 30
0.0
 11
3554.240650213590925
 21
154.1886135169461056
 31
0.0
  0
LINE
  5
14075
  8
0
 10
3554.240650213590925
 20
154.1886135169461056
 30
0.0
 11
3554.2628956281901083
 21
154.1812959314459874
 31
0.0
  0
LINE
  5
14076
  8
0
 10
3554.2628956281901083
 20
154.1812959314459874
 30
0.0
 11
3554.2639808146900577
 21
154.1775114366460002
 31
0.0
  0
LINE
  5
14077
  8
0
 10
3554.2639808146900577
 20
154.1775114366460002
 30
0.0
 11
3554.2489933625902268
 21
154.1595174985459948
 31
0.0
  0
LINE
  5
14078
  8
0
 10
3554.2489933625902268
 20
154.1595174985459948
 30
0.0
 11
3554.2706741395909376
 21
154.1506659766459961
 31
0.0
  0
LINE
  5
14079
  8
0
 10
3554.2706741395909376
 20
154.1506659766459961
 30
0.0
 11
3554.27149268949006
 21
154.1468150018459937
 31
0.0
  0
LINE
  5
1407A
  8
0
 10
3554.27149268949006
 20
154.1468150018459937
 30
0.0
 11
3554.2552865524899062
 21
154.1299103678460085
 31
0.0
  0
LINE
  5
1407B
  8
0
 10
3554.2552865524899062
 20
154.1299103678460085
 30
0.0
 11
3554.2762970651901924
 21
154.1195680333460132
 31
0.0
  0
LINE
  5
1407C
  8
0
 10
3554.2762970651901924
 20
154.1195680333460132
 30
0.0
 11
3554.2768449907898685
 21
154.1156693401460132
 31
0.0
  0
LINE
  5
1407D
  8
0
 10
3554.2768449907898685
 20
154.1156693401460132
 30
0.0
 11
3554.259499123490059
 21
154.0999363680460021
 31
0.0
  0
LINE
  5
1407E
  8
0
 10
3554.259499123490059
 20
154.0999363680460021
 30
0.0
 11
3554.2797370107900861
 21
154.0881536076460065
 31
0.0
  0
LINE
  5
1407F
  8
0
 10
3554.2797370107900861
 20
154.0881536076460065
 30
0.0
 11
3554.2800116425901251
 21
154.0842261901460972
 31
0.0
  0
LINE
  5
14080
  8
0
 10
3554.2800116425901251
 20
154.0842261901460972
 30
0.0
 11
3554.2616105522902217
 21
154.0697415291460004
 31
0.0
  0
LINE
  5
14081
  8
0
 10
3554.2616105522902217
 20
154.0697415291460004
 30
0.0
 11
3554.2809772173900456
 21
154.0565757473459882
 31
0.0
  0
LINE
  5
14082
  8
0
 10
3553.8282213118909567
 20
154.4882606538459981
 30
0.0
 11
3553.8143876634899243
 21
154.507156042046006
 31
0.0
  0
LINE
  5
14083
  8
0
 10
3553.8143876634899243
 20
154.507156042046006
 30
0.0
 11
3553.8104530538898871
 21
154.5070186424460132
 31
0.0
  0
LINE
  5
14084
  8
0
 10
3553.8104530538898871
 20
154.5070186424460132
 30
0.0
 11
3553.7979711791899717
 21
154.4872042958459986
 31
0.0
  0
LINE
  5
14085
  8
0
 10
3553.7979711791899717
 20
154.4872042958459986
 30
0.0
 11
3553.7828531531899898
 21
154.5050886694459962
 31
0.0
  0
LINE
  5
14086
  8
0
 10
3553.7828531531899898
 20
154.5050886694459962
 30
0.0
 11
3553.7789377125909596
 21
154.5046771400459988
 31
0.0
  0
LINE
  5
14087
  8
0
 10
3553.7789377125909596
 20
154.5046771400459988
 30
0.0
 11
3553.7678684220900323
 21
154.4840403686459922
 31
0.0
  0
LINE
  5
14088
  8
0
 10
3553.7678684220900323
 20
154.4840403686459922
 30
0.0
 11
3553.7515396719909404
 21
154.5008265965460055
 31
0.0
  0
LINE
  5
14089
  8
0
 10
3553.7515396719909404
 20
154.5008265965460055
 30
0.0
 11
3553.7476624760911363
 21
154.5001429422461001
 31
0.0
  0
LINE
  5
1408A
  8
0
 10
3553.7476624760911363
 20
154.5001429422461001
 30
0.0
 11
3553.7380596981902272
 21
154.4787842863460128
 31
0.0
  0
LINE
  5
1408B
  8
0
 10
3553.7380596981902272
 20
154.4787842863460128
 30
0.0
 11
3553.7205997759911043
 21
154.4943905877460111
 31
0.0
  0
LINE
  5
1408C
  8
0
 10
3553.7205997759911043
 20
154.4943905877460111
 30
0.0
 11
3553.7167797140900802
 21
154.4934381393460114
 31
0.0
  0
LINE
  5
1408D
  8
0
 10
3553.7167797140900802
 20
154.4934381393460114
 30
0.0
 11
3553.7086902325900155
 21
154.4714616561460048
 31
0.0
  0
LINE
  5
1408E
  8
0
 10
3553.7086902325900155
 20
154.4714616561460048
 30
0.0
 11
3553.6901842012898669
 21
154.4858119988460032
 31
0.0
  0
LINE
  5
1408F
  8
0
 10
3553.6901842012898669
 20
154.4858119988460032
 30
0.0
 11
3553.6864398842899391
 21
154.4845953964459966
 31
0.0
  0
LINE
  5
14090
  8
0
 10
3553.6864398842899391
 20
154.4845953964459966
 30
0.0
 11
3553.6799031103910238
 21
154.462108153146005
 31
0.0
  0
LINE
  5
14091
  8
0
 10
3553.6799031103910238
 20
154.462108153146005
 30
0.0
 11
3553.6604411295897989
 21
154.4751326236460045
 31
0.0
  0
LINE
  5
14092
  8
0
 10
3553.6604411295897989
 20
154.4751326236460045
 30
0.0
 11
3553.6567907994899542
 21
154.4736577945459999
 31
0.0
  0
LINE
  5
14093
  8
0
 10
3553.6567907994899542
 20
154.4736577945459999
 30
0.0
 11
3553.6518385795898212
 21
154.4507693466460125
 31
0.0
  0
LINE
  5
14094
  8
0
 10
3553.6518385795898212
 20
154.4507693466460125
 30
0.0
 11
3553.6315154659901054
 21
154.4624044910459872
 31
0.0
  0
LINE
  5
14095
  8
0
 10
3553.6315154659901054
 20
154.4624044910459872
 30
0.0
 11
3553.6279769067909911
 21
154.4606786204460036
 31
0.0
  0
LINE
  5
14096
  8
0
 10
3553.6279769067909911
 20
154.4606786204460036
 30
0.0
 11
3553.6246333676899667
 21
154.4375004782459939
 31
0.0
  0
LINE
  5
14097
  8
0
 10
3553.6246333676899667
 20
154.4375004782459939
 30
0.0
 11
3553.6035481335898112
 21
154.4476896112460054
 31
0.0
  0
LINE
  5
14098
  8
0
 10
3553.6035481335898112
 20
154.4476896112460054
 30
0.0
 11
3553.6001385847898746
 21
154.445721107346003
 31
0.0
  0
LINE
  5
14099
  8
0
 10
3553.6001385847898746
 20
154.445721107346003
 30
0.0
 11
3553.5984200157899977
 21
154.4223661924459918
 31
0.0
  0
LINE
  5
1409A
  8
0
 10
3553.5984200157899977
 20
154.4223661924459918
 30
0.0
 11
3553.576675386289935
 21
154.431059673746006
 31
0.0
  0
LINE
  5
1409B
  8
0
 10
3553.576675386289935
 20
154.431059673746006
 30
0.0
 11
3553.5734114588899502
 21
154.428858126845995
 31
0.0
  0
LINE
  5
1409C
  8
0
 10
3553.5734114588899502
 20
154.428858126845995
 30
0.0
 11
3553.5733262326898512
 21
154.4054402220459963
 31
0.0
  0
LINE
  5
1409D
  8
0
 10
3553.5733262326898512
 20
154.4054402220459963
 30
0.0
 11
3553.5510281454899086
 21
154.4125956977460987
 31
0.0
  0
LINE
  5
1409E
  8
0
 10
3553.5510281454899086
 20
154.4125956977460987
 30
0.0
 11
3553.5479257408901503
 21
154.4101718336459896
 31
0.0
  0
LINE
  5
1409F
  8
0
 10
3553.5479257408901503
 20
154.4101718336459896
 30
0.0
 11
3553.5494742728901656
 21
154.3868050286459948
 31
0.0
  0
LINE
  5
140A0
  8
0
 10
3553.5494742728901656
 20
154.3868050286459948
 30
0.0
 11
3553.5267313618901426
 21
154.3923876380459888
 31
0.0
  0
LINE
  5
140A1
  8
0
 10
3553.5267313618901426
 20
154.3923876380459888
 30
0.0
 11
3553.5238055947897919
 21
154.3897532655460054
 31
0.0
  0
LINE
  5
140A2
  8
0
 10
3553.5238055947897919
 20
154.3897532655460054
 30
0.0
 11
3553.5269803405908533
 21
154.3665514010459958
 31
0.0
  0
LINE
  5
140A3
  8
0
 10
3553.5269803405908533
 20
154.3665514010459958
 30
0.0
 11
3553.5039034069909576
 21
154.3705339461459971
 31
0.0
  0
LINE
  5
140A4
  8
0
 10
3553.5039034069909576
 20
154.3705339461459971
 30
0.0
 11
3553.5011685314898386
 21
154.3677018997460095
 31
0.0
  0
LINE
  5
140A5
  8
0
 10
3553.5011685314898386
 20
154.3677018997460095
 30
0.0
 11
3553.5059540239899434
 21
154.3447780128460067
 31
0.0
  0
LINE
  5
140A6
  8
0
 10
3553.5059540239899434
 20
154.3447780128460067
 30
0.0
 11
3553.4826554963901799
 21
154.3471410912459874
 31
0.0
  0
LINE
  5
140A7
  8
0
 10
3553.4826554963901799
 20
154.3471410912459874
 30
0.0
 11
3553.4801248364901767
 21
154.3441251682459949
 31
0.0
  0
LINE
  5
140A8
  8
0
 10
3553.4801248364901767
 20
154.3441251682459949
 30
0.0
 11
3553.486497761190094
 21
154.3215909418460114
 31
0.0
  0
LINE
  5
140A9
  8
0
 10
3553.486497761190094
 20
154.3215909418460114
 30
0.0
 11
3553.4630911476901929
 21
154.3223230407459994
 31
0.0
  0
LINE
  5
140AA
  8
0
 10
3553.4630911476901929
 20
154.3223230407459994
 30
0.0
 11
3553.4607770324910234
 21
154.3191379344459904
 31
0.0
  0
LINE
  5
140AB
  8
0
 10
3553.4607770324910234
 20
154.3191379344459904
 30
0.0
 11
3553.4687063412898169
 21
154.2971031530460948
 31
0.0
  0
LINE
  5
140AC
  8
0
 10
3553.4687063412898169
 20
154.2971031530460948
 30
0.0
 11
3553.4453056763900349
 21
154.2962007057460028
 31
0.0
  0
LINE
  5
140AD
  8
0
 10
3553.4453056763900349
 20
154.2962007057460028
 30
0.0
 11
3553.4432193800907953
 21
154.2928619337459963
 31
0.0
  0
LINE
  5
140AE
  8
0
 10
3553.4432193800907953
 20
154.2928619337459963
 30
0.0
 11
3553.4526664420900488
 21
154.2714339486460062
 31
0.0
  0
LINE
  5
140AF
  8
0
 10
3553.4526664420900488
 20
154.2714339486460062
 30
0.0
 11
3553.4293857315901732
 21
154.2689013517461092
 31
0.0
  0
LINE
  5
140B0
  8
0
 10
3553.4293857315901732
 20
154.2689013517461092
 30
0.0
 11
3553.4275374183898748
 21
154.2654251801459964
 31
0.0
  0
LINE
  5
140B1
  8
0
 10
3553.4275374183898748
 20
154.2654251801459964
 30
0.0
 11
3553.4384562084901518
 21
154.2447083862460033
 31
0.0
  0
LINE
  5
140B2
  8
0
 10
3553.4384562084901518
 20
154.2447083862460033
 30
0.0
 11
3553.4154088736900121
 21
154.2405579784461054
 31
0.0
  0
LINE
  5
140B3
  8
0
 10
3553.4154088736900121
 20
154.2405579784461054
 30
0.0
 11
3553.4138075483901957
 21
154.2369613427460138
 31
0.0
  0
LINE
  5
140B4
  8
0
 10
3553.4138075483901957
 20
154.2369613427460138
 30
0.0
 11
3553.4261448713900791
 21
154.2170566702459951
 31
0.0
  0
LINE
  5
140B5
  8
0
 10
3553.4261448713900791
 20
154.2170566702459951
 30
0.0
 11
3553.403443196490116
 21
154.2113086717459964
 31
0.0
  0
LINE
  5
140B6
  8
0
 10
3553.403443196490116
 20
154.2113086717459964
 30
0.0
 11
3553.4020966604898604
 21
154.207609094546001
 31
0.0
  0
LINE
  5
140B7
  8
0
 10
3553.4020966604898604
 20
154.207609094546001
 30
0.0
 11
3553.4157924101909884
 21
154.1886135169461056
 31
0.0
  0
LINE
  5
140B8
  8
0
 10
3553.4157924101909884
 20
154.1886135169461056
 30
0.0
 11
3553.3935469955899862
 21
154.1812959314459874
 31
0.0
  0
LINE
  5
140B9
  8
0
 10
3553.3935469955899862
 20
154.1812959314459874
 30
0.0
 11
3553.3924618090900367
 21
154.1775114366460002
 31
0.0
  0
LINE
  5
140BA
  8
0
 10
3553.3924618090900367
 20
154.1775114366460002
 30
0.0
 11
3553.4074492611898677
 21
154.1595174985459948
 31
0.0
  0
LINE
  5
140BB
  8
0
 10
3553.4074492611898677
 20
154.1595174985459948
 30
0.0
 11
3553.3857684841900664
 21
154.1506659766459961
 31
0.0
  0
LINE
  5
140BC
  8
0
 10
3553.3857684841900664
 20
154.1506659766459961
 30
0.0
 11
3553.3849499342900344
 21
154.1468150018459937
 31
0.0
  0
LINE
  5
140BD
  8
0
 10
3553.3849499342900344
 20
154.1468150018459937
 30
0.0
 11
3553.4011560712910978
 21
154.1299103678460085
 31
0.0
  0
LINE
  5
140BE
  8
0
 10
3553.4011560712910978
 20
154.1299103678460085
 30
0.0
 11
3553.3801455585899021
 21
154.1195680333460132
 31
0.0
  0
LINE
  5
140BF
  8
0
 10
3553.3801455585899021
 20
154.1195680333460132
 30
0.0
 11
3553.3795976329911355
 21
154.1156693401460132
 31
0.0
  0
LINE
  5
140C0
  8
0
 10
3553.3795976329911355
 20
154.1156693401460132
 30
0.0
 11
3553.3969435002909449
 21
154.0999363680460021
 31
0.0
  0
LINE
  5
140C1
  8
0
 10
3553.3969435002909449
 20
154.0999363680460021
 30
0.0
 11
3553.3767056129900084
 21
154.0881536076460065
 31
0.0
  0
LINE
  5
140C2
  8
0
 10
3553.3767056129900084
 20
154.0881536076460065
 30
0.0
 11
3553.3764309811899693
 21
154.0842261901460972
 31
0.0
  0
LINE
  5
140C3
  8
0
 10
3553.3764309811899693
 20
154.0842261901460972
 30
0.0
 11
3553.3948320714898728
 21
154.0697415291460004
 31
0.0
  0
LINE
  5
140C4
  8
0
 10
3553.3948320714898728
 20
154.0697415291460004
 30
0.0
 11
3553.3754654063900489
 21
154.0565757473459882
 31
0.0
  0
LINE
  5
140C5
  8
0
 10
3553.3754654063900489
 20
154.0565757473459882
 30
0.0
 11
3553.3754654063900489
 21
154.0546072433959921
 31
0.0
  0
ENDSEC
  0
EOF
