  0
SECTION
  2
HEADER
  9
$ACADVER
  1
AC1009
  9
$INSBASE
 10
3545.1218939369100553
 20
202.0127185952792956
 30
0.0
  9
$EXTMIN
 10
3544.6652010235111447
 20
143.0009075716793063
 30
0.0
  9
$EXTMAX
 10
3545.578586850209831
 20
202.0172004881513033
 30
0.0
  9
$LIMMIN
 10
0.0
 20
0.0
  9
$LIMMAX
 10
11.6929133858000007
 20
8.2677165353999982
  9
$ORTHOMODE
 70
     0
  9
$REGENMODE
 70
     1
  9
$FILLMODE
 70
     1
  9
$QTEXTMODE
 70
     0
  9
$MIRRTEXT
 70
     0
  9
$DRAGMODE
 70
     2
  9
$LTSCALE
 40
0.6431102362
  9
$OSMODE
 70
   575
  9
$ATTMODE
 70
     1
  9
$TEXTSIZE
 40
0.2
  9
$TRACEWID
 40
0.05
  9
$TEXTSTYLE
  7
STANDARD
  9
$CLAYER
  8
0
  9
$CELTYPE
  6
BYLAYER
  9
$CECOLOR
 62
   256
  9
$DIMSCALE
 40
1.0
  9
$DIMASZ
 40
0.1875
  9
$DIMEXO
 40
0.0625
  9
$DIMDLI
 40
0.4443307087
  9
$DIMRND
 40
0.0
  9
$DIMDLE
 40
0.0
  9
$DIMEXE
 40
0.125
  9
$DIMTP
 40
0.01
  9
$DIMTM
 40
0.01
  9
$DIMTXT
 40
2.0
  9
$DIMCEN
 40
0.1052362205
  9
$DIMTSZ
 40
0.0
  9
$DIMTOL
 70
     1
  9
$DIMLIM
 70
     0
  9
$DIMTIH
 70
     1
  9
$DIMTOH
 70
     1
  9
$DIMSE1
 70
     0
  9
$DIMSE2
 70
     0
  9
$DIMTAD
 70
     0
  9
$DIMZIN
 70
     0
  9
$DIMBLK
  1

  9
$DIMASO
 70
     1
  9
$DIMSHO
 70
     1
  9
$DIMPOST
  1
\X
  9
$DIMAPOST
  1

  9
$DIMALT
 70
     1
  9
$DIMALTD
 70
     2
  9
$DIMALTF
 40
25.3999999999999986
  9
$DIMLFAC
 40
1.0
  9
$DIMTOFL
 70
     0
  9
$DIMTVP
 40
0.0
  9
$DIMTIX
 70
     0
  9
$DIMSOXD
 70
     0
  9
$DIMSAH
 70
     0
  9
$DIMBLK1
  1

  9
$DIMBLK2
  1

  9
$DIMSTYLE
  2
STANDARD
  9
$DIMCLRD
 70
     0
  9
$DIMCLRE
 70
     0
  9
$DIMCLRT
 70
     0
  9
$DIMTFAC
 40
1.0
  9
$DIMGAP
 40
0.09
  9
$LUNITS
 70
     2
  9
$LUPREC
 70
     4
  9
$SKETCHINC
 40
0.1
  9
$FILLETRAD
 40
0.0
  9
$AUNITS
 70
     0
  9
$AUPREC
 70
     0
  9
$MENU
  1
.
  9
$ELEVATION
 40
0.0
  9
$PELEVATION
 40
0.0
  9
$THICKNESS
 40
0.0
  9
$LIMCHECK
 70
     0
  9
$BLIPMODE
 70
     0
  9
$CHAMFERA
 40
0.0
  9
$CHAMFERB
 40
0.0
  9
$SKPOLY
 70
     0
  9
$TDCREATE
 40
2458060.468368056230247
  9
$TDUPDATE
 40
2459617.0027314820326865
  9
$TDINDWG
 40
0.5973913194
  9
$TDUSRTIMER
 40
0.5973913194
  9
$USRTIMER
 70
     1
  9
$ANGBASE
 50
0.0
  9
$ANGDIR
 70
     0
  9
$PDMODE
 70
     0
  9
$PDSIZE
 40
0.3125
  9
$PLINEWID
 40
0.0
  9
$COORDS
 70
     1
  9
$SPLFRAME
 70
     0
  9
$SPLINETYPE
 70
     6
  9
$SPLINESEGS
 70
     8
  9
$ATTDIA
 70
     1
  9
$ATTREQ
 70
     1
  9
$HANDLING
 70
     1
  9
$HANDSEED
  5
13ED5
  9
$SURFTAB1
 70
     6
  9
$SURFTAB2
 70
     6
  9
$SURFTYPE
 70
     6
  9
$SURFU
 70
     6
  9
$SURFV
 70
     6
  9
$UCSNAME
  2

  9
$UCSORG
 10
0.0
 20
0.0
 30
0.0
  9
$UCSXDIR
 10
1.0
 20
0.0
 30
0.0
  9
$UCSYDIR
 10
0.0
 20
1.0
 30
0.0
  9
$PUCSNAME
  2

  9
$PUCSORG
 10
0.0
 20
0.0
 30
0.0
  9
$PUCSXDIR
 10
1.0
 20
0.0
 30
0.0
  9
$PUCSYDIR
 10
0.0
 20
1.0
 30
0.0
  9
$USERI1
 70
     0
  9
$USERI2
 70
     0
  9
$USERI3
 70
     0
  9
$USERI4
 70
     0
  9
$USERI5
 70
     0
  9
$USERR1
 40
0.0
  9
$USERR2
 40
0.0
  9
$USERR3
 40
0.0
  9
$USERR4
 40
0.0
  9
$USERR5
 40
0.0
  9
$WORLDVIEW
 70
     1
  9
$SHADEDGE
 70
     3
  9
$SHADEDIF
 70
    70
  9
$TILEMODE
 70
     1
  9
$MAXACTVP
 70
    64
  9
$PLIMCHECK
 70
     0
  9
$PEXTMIN
 10
1.0000000000000000E+20
 20
1.0000000000000000E+20
 30
1.0000000000000000E+20
  9
$PEXTMAX
 10
-1.0000000000000000E+20
 20
-1.0000000000000000E+20
 30
-1.0000000000000000E+20
  9
$PLIMMIN
 10
0.0
 20
0.0
  9
$PLIMMAX
 10
12.0
 20
9.0
  9
$UNITMODE
 70
     0
  9
$VISRETAIN
 70
     1
  9
$PLINEGEN
 70
     0
  9
$PSLTSCALE
 70
     1
  0
ENDSEC
  0
SECTION
  2
TABLES
  0
TABLE
  2
VPORT
 70
     1
  0
VPORT
  2
*ACTIVE
 70
     0
 10
0.0
 20
0.0
 11
1.0
 21
1.0
 12
29.6226261820374006
 22
11.8271158585285807
 13
0.0
 23
0.0
 14
1.0
 24
1.0
 15
0.0
 25
0.0
 16
0.0
 26
0.0
 36
20.9203132949307395
 17
3515.499267578125
 27
160.6819381713866903
 37
0.0
 40
78.6505596615591003
 41
2.4735152487961471
 42
50.0
 43
0.0
 44
0.0
 50
0.0
 51
0.0
 71
     0
 72
   100
 73
     1
 74
     1
 75
     0
 76
     0
 77
     0
 78
     0
  0
ENDTAB
  0
TABLE
  2
LTYPE
 70
     2
  0
LTYPE
  2
CONTINUOUS
 70
     0
  3
Solid line
 72
    65
 73
     0
 40
0.0
  0
LTYPE
  2
PHANTOM2
 70
     0
  3
___ _ _ ___ _ _ ___ _ _ ___ _ _
 72
    65
 73
     6
 40
1.25
 49
0.625
 49
-0.125
 49
0.125
 49
-0.125
 49
0.125
 49
-0.125
  0
ENDTAB
  0
TABLE
  2
LAYER
 70
     2
  0
LAYER
  2
0
 70
     0
 62
   255
  6
CONTINUOUS
  0
LAYER
  2
DEFPOINTS
 70
     0
 62
     7
  6
CONTINUOUS
  0
ENDTAB
  0
TABLE
  2
STYLE
 70
     1
  0
STYLE
  2
STANDARD
 70
     0
 40
0.0
 41
0.8
 50
0.0
 71
     0
 42
0.2
  3
txt
  4

  0
ENDTAB
  0
TABLE
  2
VIEW
 70
     0
  0
ENDTAB
  0
TABLE
  2
UCS
 70
     0
  0
ENDTAB
  0
TABLE
  2
APPID
 70
     9
  0
APPID
  2
ACAD
 70
     0
  0
APPID
  2
ACAD_MLEADERVER
 70
     0
  0
APPID
  2
ACAD_EXEMPT_FROM_CAD_STANDARDS
 70
     0
  0
APPID
  2
ACAD_NAV_VCDISPLAY
 70
     0
  0
APPID
  2
ACAECLAYERSTANDARD
 70
     0
  0
APPID
  2
ACCMTRANSPARENCY
 70
     0
  0
APPID
  2
ACAD_DSTYLE_DIMJAG
 70
     0
  0
APPID
  2
ACAD_DSTYLE_DIMTALN
 70
     0
  0
APPID
  2
ACDBATTR
 70
     0
  0
ENDTAB
  0
TABLE
  2
DIMSTYLE
 70
     1
  0
DIMSTYLE
  2
STANDARD
 70
     0
  3

  4

  5

  6

  7

 40
1.0
 41
0.1875
 42
0.0625
 43
0.38
 44
0.125
 45
0.0
 46
0.0
 47
0.01
 48
0.01
140
0.15625
141
0.09
142
0.0
143
25.3999999999999986
144
1.0
145
0.0
146
1.0
147
0.09
 71
     1
 72
     0
 73
     1
 74
     1
 75
     0
 76
     0
 77
     0
 78
     4
170
     0
171
     2
172
     0
173
     0
174
     0
175
     0
176
     0
177
     0
178
     0
  0
ENDTAB
  0
ENDSEC
  0
SECTION
  2
BLOCKS
  0
BLOCK
  8
0
  2
$MODEL_SPACE
 70
     0
 10
0.0
 20
0.0
 30
0.0
  3
$MODEL_SPACE
  1

  0
ENDBLK
  5
21
  8
0
  0
BLOCK
 67
     1
  8
0
  2
$PAPER_SPACE
 70
     0
 10
0.0
 20
0.0
 30
0.0
  3
$PAPER_SPACE
  1

  0
ENDBLK
  5
1D
 67
     1
  8
0
  0
ENDSEC
  0
SECTION
  2
ENTITIES
  0
ATTDEF
  5
12BEB
  8
DEFPOINTS
 10
3545.1218138541521512
 20
202.0162004881512132
 30
0.0
 40
0.001
  1
K-12067BR
  3

  2
MODELNUMBER
 70
     0
1001
ACDBATTR
1070
     0
1070
     1
  0
ATTDEF
  5
12BEC
  8
DEFPOINTS
 10
3545.1218138541521512
 20
202.0145338214846049
 30
0.0
 40
0.001
  1

  3

  2
TRADENAME
 70
     0
1001
ACDBATTR
1070
     0
1070
     1
  0
ATTDEF
  5
12BED
  8
DEFPOINTS
 10
3545.1218138541521512
 20
202.0128671548179113
 30
0.0
 40
0.001
  1
HOSE
  3

  2
PRODUCT
 70
     0
1001
ACDBATTR
1070
     0
1070
     1
  0
LINE
  5
13DA1
  8
0
 10
3544.6652010235111447
 20
143.0009075716793063
 30
0.0
 11
3545.578586850209831
 21
143.0009075716793063
 31
0.0
  0
LINE
  5
13DA2
  8
0
 10
3545.578586850209831
 20
143.0009075716793063
 30
0.0
 11
3545.5313427558098738
 21
143.9851595401792963
 31
0.0
  0
LINE
  5
13DA3
  8
0
 10
3545.4998466928100243
 20
143.9851595401792963
 30
0.0
 11
3545.4998466928100243
 21
144.1821605399686064
 31
0.0
  0
LINE
  5
13DA4
  8
0
 10
3545.4998466928100243
 20
144.1821605399686064
 30
0.0
 11
3544.743941180910042
 21
144.1820099338793
 31
0.0
  0
LINE
  5
13DA5
  8
0
 10
3544.6652010235111447
 20
143.0009075716793063
 30
0.0
 11
3544.7124451180097822
 21
143.9851595401792963
 31
0.0
  0
LINE
  5
13DA6
  8
0
 10
3544.743941180910042
 20
143.9851595401792963
 30
0.0
 11
3544.743941180910042
 21
144.1820099338793
 31
0.0
  0
LINE
  5
13DA7
  8
0
 10
3544.7124451180097822
 20
143.9851595401792963
 30
0.0
 11
3545.5313427558098738
 21
143.9851595401792963
 31
0.0
  0
LINE
  5
13DA8
  8
0
 10
3544.827261582211122
 20
201.5009075716793063
 30
0.0
 11
3544.827261582211122
 21
200.9103563905792953
 31
0.0
  0
LINE
  5
13DA9
  8
0
 10
3545.4165262916098982
 20
201.5009075716793063
 30
0.0
 11
3545.4165262916098982
 21
200.9103563905792953
 31
0.0
  0
LINE
  5
13DAA
  8
0
 10
3545.5155828360097985
 20
202.0127185952792956
 30
0.0
 11
3544.7282050378098575
 21
202.0127185952792956
 31
0.0
  0
LINE
  5
13DAB
  8
0
 10
3545.5155828360097985
 20
202.0127185952792956
 30
0.0
 11
3545.5155828360097985
 21
201.9339784377793023
 31
0.0
  0
LINE
  5
13DAC
  8
0
 10
3545.5155828360097985
 20
201.5796477291792996
 30
0.0
 11
3545.5155828360097985
 21
201.5009075716793063
 31
0.0
  0
LINE
  5
13DAD
  8
0
 10
3545.5155828360097985
 20
201.5009075716793063
 30
0.0
 11
3544.7282050378098575
 21
201.5009075716793063
 31
0.0
  0
LINE
  5
13DAE
  8
0
 10
3545.5746498424100537
 20
201.9339784377793023
 30
0.0
 11
3544.6691380313100126
 21
201.9339784377793023
 31
0.0
  0
LINE
  5
13DAF
  8
0
 10
3545.5746498424100537
 20
201.9339784377793023
 30
0.0
 11
3545.5746498424100537
 21
201.5796477291792996
 31
0.0
  0
LINE
  5
13DB0
  8
0
 10
3545.5746498424100537
 20
201.5796477291792996
 30
0.0
 11
3544.6691380313100126
 21
201.5796477291792996
 31
0.0
  0
LINE
  5
13DB1
  8
0
 10
3545.5727198694107756
 20
201.9339784377793023
 30
0.0
 11
3545.5727198694107756
 21
201.5796477291792996
 31
0.0
  0
LINE
  5
13DB2
  8
0
 10
3545.5723083400098403
 20
201.9339784377793023
 30
0.0
 11
3545.5723083400098403
 21
201.5796477291792996
 31
0.0
  0
LINE
  5
13DB3
  8
0
 10
3545.5681132900099328
 20
201.9339784377793023
 30
0.0
 11
3545.5681132900099328
 21
201.5796477291792996
 31
0.0
  0
LINE
  5
13DB4
  8
0
 10
3545.5674296357101412
 20
201.9339784377793023
 30
0.0
 11
3545.5674296357101412
 21
201.5796477291792996
 31
0.0
  0
LINE
  5
13DB5
  8
0
 10
3545.5616772813091302
 20
201.9339784377793023
 30
0.0
 11
3545.5616772813091302
 21
201.5796477291792996
 31
0.0
  0
LINE
  5
13DB6
  8
0
 10
3545.5607248329101822
 20
201.9339784377793023
 30
0.0
 11
3545.5607248329101822
 21
201.5796477291792996
 31
0.0
  0
LINE
  5
13DB7
  8
0
 10
3545.553098692309959
 20
201.9339784377793023
 30
0.0
 11
3545.553098692309959
 21
201.5796477291792996
 31
0.0
  0
LINE
  5
13DB8
  8
0
 10
3545.5518820900101673
 20
201.9339784377793023
 30
0.0
 11
3545.5518820900101673
 21
201.5796477291792996
 31
0.0
  0
LINE
  5
13DB9
  8
0
 10
3545.5424193171102161
 20
201.9339784377793023
 30
0.0
 11
3545.5424193171102161
 21
201.5796477291792996
 31
0.0
  0
LINE
  5
13DBA
  8
0
 10
3545.5409444880101546
 20
201.9339784377793023
 30
0.0
 11
3545.5409444880101546
 21
201.5796477291792996
 31
0.0
  0
LINE
  5
13DBB
  8
0
 10
3545.5296911845098293
 20
201.9339784377793023
 30
0.0
 11
3545.5296911845098293
 21
201.5796477291792996
 31
0.0
  0
LINE
  5
13DBC
  8
0
 10
3545.5279653139100446
 20
201.9339784377793023
 30
0.0
 11
3545.5279653139100446
 21
201.5796477291792996
 31
0.0
  0
LINE
  5
13DBD
  8
0
 10
3545.5149763047102169
 20
201.9339784377793023
 30
0.0
 11
3545.5149763047102169
 21
201.5796477291792996
 31
0.0
  0
LINE
  5
13DBE
  8
0
 10
3545.5130078008101009
 20
201.9339784377793023
 30
0.0
 11
3545.5130078008101009
 21
201.5796477291792996
 31
0.0
  0
LINE
  5
13DBF
  8
0
 10
3545.4983463672101607
 20
201.9339784377793023
 30
0.0
 11
3545.4983463672101607
 21
201.5796477291792996
 31
0.0
  0
LINE
  5
13DC0
  8
0
 10
3545.4961448203098371
 20
201.9339784377793023
 30
0.0
 11
3545.4961448203098371
 21
201.5796477291792996
 31
0.0
  0
LINE
  5
13DC1
  8
0
 10
3545.4798823912101398
 20
201.9339784377793023
 30
0.0
 11
3545.4798823912101398
 21
201.5796477291792996
 31
0.0
  0
LINE
  5
13DC2
  8
0
 10
3545.4774585272098193
 20
201.9339784377793023
 30
0.0
 11
3545.4774585272098193
 21
201.5796477291792996
 31
0.0
  0
LINE
  5
13DC3
  8
0
 10
3545.4596743315100866
 20
201.9339784377793023
 30
0.0
 11
3545.4596743315100866
 21
201.5796477291792996
 31
0.0
  0
LINE
  5
13DC4
  8
0
 10
3545.457039959010217
 20
201.9339784377793023
 30
0.0
 11
3545.457039959010217
 21
201.5796477291792996
 31
0.0
  0
LINE
  5
13DC5
  8
0
 10
3545.4378206397109352
 20
201.9339784377793023
 30
0.0
 11
3545.4378206397109352
 21
201.5796477291792996
 31
0.0
  0
LINE
  5
13DC6
  8
0
 10
3545.4349885932101643
 20
201.9339784377793023
 30
0.0
 11
3545.4349885932101643
 21
201.5796477291792996
 31
0.0
  0
LINE
  5
13DC7
  8
0
 10
3545.4144277847099147
 20
201.9339784377793023
 30
0.0
 11
3545.4144277847099147
 21
201.5796477291792996
 31
0.0
  0
LINE
  5
13DC8
  8
0
 10
3545.4114118617098939
 20
201.9339784377793023
 30
0.0
 11
3545.4114118617098939
 21
201.5796477291792996
 31
0.0
  0
LINE
  5
13DC9
  8
0
 10
3545.3896097342098983
 20
201.9339784377793023
 30
0.0
 11
3545.3896097342098983
 21
201.5796477291792996
 31
0.0
  0
LINE
  5
13DCA
  8
0
 10
3545.3864246279099461
 20
201.9339784377793023
 30
0.0
 11
3545.3864246279099461
 21
201.5796477291792996
 31
0.0
  0
LINE
  5
13DCB
  8
0
 10
3545.3643898465102211
 20
201.9339784377793023
 30
0.0
 11
3545.3643898465102211
 21
201.5796477291792996
 31
0.0
  0
LINE
  5
13DCC
  8
0
 10
3545.3601486272100374
 20
201.9339784377793023
 30
0.0
 11
3545.3601486272100374
 21
201.5796477291792996
 31
0.0
  0
LINE
  5
13DCD
  8
0
 10
3545.3387206421098199
 20
201.9339784377793023
 30
0.0
 11
3545.3387206421098199
 21
201.5796477291792996
 31
0.0
  0
LINE
  5
13DCE
  8
0
 10
3545.3327118736101511
 20
201.9339784377793023
 30
0.0
 11
3545.3327118736101511
 21
201.5796477291792996
 31
0.0
  0
LINE
  5
13DCF
  8
0
 10
3545.3119950797099591
 20
201.9339784377793023
 30
0.0
 11
3545.3119950797099591
 21
201.5796477291792996
 31
0.0
  0
LINE
  5
13DD0
  8
0
 10
3545.3042480362100832
 20
201.9339784377793023
 30
0.0
 11
3545.3042480362100832
 21
201.5796477291792996
 31
0.0
  0
LINE
  5
13DD1
  8
0
 10
3545.2843433637099224
 20
201.9339784377793023
 30
0.0
 11
3545.2843433637099224
 21
201.5796477291792996
 31
0.0
  0
LINE
  5
13DD2
  8
0
 10
3545.2748957880098715
 20
201.9339784377793023
 30
0.0
 11
3545.2748957880098715
 21
201.5796477291792996
 31
0.0
  0
LINE
  5
13DD3
  8
0
 10
3545.2559002104098909
 20
201.9339784377793023
 30
0.0
 11
3545.2559002104098909
 21
201.5796477291792996
 31
0.0
  0
LINE
  5
13DD4
  8
0
 10
3545.2447981301102118
 20
201.9339784377793023
 30
0.0
 11
3545.2447981301102118
 21
201.5796477291792996
 31
0.0
  0
LINE
  5
13DD5
  8
0
 10
3545.2268041920101496
 20
201.9339784377793023
 30
0.0
 11
3545.2268041920101496
 21
201.5796477291792996
 31
0.0
  0
LINE
  5
13DD6
  8
0
 10
3545.2141016953100916
 20
201.9339784377793023
 30
0.0
 11
3545.2141016953100916
 21
201.5796477291792996
 31
0.0
  0
LINE
  5
13DD7
  8
0
 10
3545.1971970613099074
 20
201.9339784377793023
 30
0.0
 11
3545.1971970613099074
 21
201.5796477291792996
 31
0.0
  0
LINE
  5
13DD8
  8
0
 10
3545.1829560336100258
 20
201.9339784377793023
 30
0.0
 11
3545.1829560336100258
 21
201.5796477291792996
 31
0.0
  0
LINE
  5
13DD9
  8
0
 10
3545.1672230615099579
 20
201.9339784377793023
 30
0.0
 11
3545.1672230615099579
 21
201.5796477291792996
 31
0.0
  0
LINE
  5
13DDA
  8
0
 10
3545.1515128836099393
 20
201.9339784377793023
 30
0.0
 11
3545.1515128836099393
 21
201.5796477291792996
 31
0.0
  0
LINE
  5
13DDB
  8
0
 10
3545.1370282227098869
 20
201.9339784377793023
 30
0.0
 11
3545.1370282227098869
 21
201.5796477291792996
 31
0.0
  0
LINE
  5
13DDC
  8
0
 10
3545.1238624408101714
 20
201.9339784377793023
 30
0.0
 11
3545.1238624408101714
 21
201.5796477291792996
 31
0.0
  0
LINE
  5
13DDD
  8
0
 10
3544.7282050378098575
 20
202.0127185952792956
 30
0.0
 11
3544.7282050378098575
 21
201.9339784377793023
 31
0.0
  0
LINE
  5
13DDE
  8
0
 10
3544.7282050378098575
 20
201.5796477291792996
 30
0.0
 11
3544.7282050378098575
 21
201.5009075716793063
 31
0.0
  0
LINE
  5
13DDF
  8
0
 10
3544.6691380313100126
 20
201.9339784377793023
 30
0.0
 11
3544.6691380313100126
 21
201.5796477291792996
 31
0.0
  0
LINE
  5
13DE0
  8
0
 10
3544.6714125109101587
 20
201.9339784377793023
 30
0.0
 11
3544.6714125109101587
 21
201.5796477291792996
 31
0.0
  0
LINE
  5
13DE1
  8
0
 10
3544.6718240403101845
 20
201.9339784377793023
 30
0.0
 11
3544.6718240403101845
 21
201.5796477291792996
 31
0.0
  0
LINE
  5
13DE2
  8
0
 10
3544.6756745838101779
 20
201.9339784377793023
 30
0.0
 11
3544.6756745838101779
 21
201.5796477291792996
 31
0.0
  0
LINE
  5
13DE3
  8
0
 10
3544.6763582381099695
 20
201.9339784377793023
 30
0.0
 11
3544.6763582381099695
 21
201.5796477291792996
 31
0.0
  0
LINE
  5
13DE4
  8
0
 10
3544.682110592510071
 20
201.9339784377793023
 30
0.0
 11
3544.682110592510071
 21
201.5796477291792996
 31
0.0
  0
LINE
  5
13DE5
  8
0
 10
3544.6830630409099285
 20
201.9339784377793023
 30
0.0
 11
3544.6830630409099285
 21
201.5796477291792996
 31
0.0
  0
LINE
  5
13DE6
  8
0
 10
3544.6906891815101517
 20
201.9339784377793023
 30
0.0
 11
3544.6906891815101517
 21
201.5796477291792996
 31
0.0
  0
LINE
  5
13DE7
  8
0
 10
3544.6919057838099434
 20
201.9339784377793023
 30
0.0
 11
3544.6919057838099434
 21
201.5796477291792996
 31
0.0
  0
LINE
  5
13DE8
  8
0
 10
3544.7013685567098946
 20
201.9339784377793023
 30
0.0
 11
3544.7013685567098946
 21
201.5796477291792996
 31
0.0
  0
LINE
  5
13DE9
  8
0
 10
3544.7028433858099561
 20
201.9339784377793023
 30
0.0
 11
3544.7028433858099561
 21
201.5796477291792996
 31
0.0
  0
LINE
  5
13DEA
  8
0
 10
3544.7140966893098266
 20
201.9339784377793023
 30
0.0
 11
3544.7140966893098266
 21
201.5796477291792996
 31
0.0
  0
LINE
  5
13DEB
  8
0
 10
3544.715822559910066
 20
201.9339784377793023
 30
0.0
 11
3544.715822559910066
 21
201.5796477291792996
 31
0.0
  0
LINE
  5
13DEC
  8
0
 10
3544.7288115691098938
 20
201.9339784377793023
 30
0.0
 11
3544.7288115691098938
 21
201.5796477291792996
 31
0.0
  0
LINE
  5
13DED
  8
0
 10
3544.7307800730100098
 20
201.9339784377793023
 30
0.0
 11
3544.7307800730100098
 21
201.5796477291792996
 31
0.0
  0
LINE
  5
13DEE
  8
0
 10
3544.74544150660995
 20
201.9339784377793023
 30
0.0
 11
3544.74544150660995
 21
201.5796477291792996
 31
0.0
  0
LINE
  5
13DEF
  8
0
 10
3544.7476430535098189
 20
201.9339784377793023
 30
0.0
 11
3544.7476430535098189
 21
201.5796477291792996
 31
0.0
  0
LINE
  5
13DF0
  8
0
 10
3544.7639054826099709
 20
201.9339784377793023
 30
0.0
 11
3544.7639054826099709
 21
201.5796477291792996
 31
0.0
  0
LINE
  5
13DF1
  8
0
 10
3544.7663293466098366
 20
201.9339784377793023
 30
0.0
 11
3544.7663293466098366
 21
201.5796477291792996
 31
0.0
  0
LINE
  5
13DF2
  8
0
 10
3544.7841135423109336
 20
201.9339784377793023
 30
0.0
 11
3544.7841135423109336
 21
201.5796477291792996
 31
0.0
  0
LINE
  5
13DF3
  8
0
 10
3544.7867479148098937
 20
201.9339784377793023
 30
0.0
 11
3544.7867479148098937
 21
201.5796477291792996
 31
0.0
  0
LINE
  5
13DF4
  8
0
 10
3544.805967234110085
 20
201.9339784377793023
 30
0.0
 11
3544.805967234110085
 21
201.5796477291792996
 31
0.0
  0
LINE
  5
13DF5
  8
0
 10
3544.8087992806099464
 20
201.9339784377793023
 30
0.0
 11
3544.8087992806099464
 21
201.5796477291792996
 31
0.0
  0
LINE
  5
13DF6
  8
0
 10
3544.829360089110196
 20
201.9339784377793023
 30
0.0
 11
3544.829360089110196
 21
201.5796477291792996
 31
0.0
  0
LINE
  5
13DF7
  8
0
 10
3544.8323760121102168
 20
201.9339784377793023
 30
0.0
 11
3544.8323760121102168
 21
201.5796477291792996
 31
0.0
  0
LINE
  5
13DF8
  8
0
 10
3544.8541781396102124
 20
201.9339784377793023
 30
0.0
 11
3544.8541781396102124
 21
201.5796477291792996
 31
0.0
  0
LINE
  5
13DF9
  8
0
 10
3544.8573632459101646
 20
201.9339784377793023
 30
0.0
 11
3544.8573632459101646
 21
201.5796477291792996
 31
0.0
  0
LINE
  5
13DFA
  8
0
 10
3544.8793980273107991
 20
201.9339784377793023
 30
0.0
 11
3544.8793980273107991
 21
201.5796477291792996
 31
0.0
  0
LINE
  5
13DFB
  8
0
 10
3544.8836392466100733
 20
201.9339784377793023
 30
0.0
 11
3544.8836392466100733
 21
201.5796477291792996
 31
0.0
  0
LINE
  5
13DFC
  8
0
 10
3544.9050672317098361
 20
201.9339784377793023
 30
0.0
 11
3544.9050672317098361
 21
201.5796477291792996
 31
0.0
  0
LINE
  5
13DFD
  8
0
 10
3544.9110760002099596
 20
201.9339784377793023
 30
0.0
 11
3544.9110760002099596
 21
201.5796477291792996
 31
0.0
  0
LINE
  5
13DFE
  8
0
 10
3544.9317927941087873
 20
201.9339784377793023
 30
0.0
 11
3544.9317927941087873
 21
201.5796477291792996
 31
0.0
  0
LINE
  5
13DFF
  8
0
 10
3544.9395398376100275
 20
201.9339784377793023
 30
0.0
 11
3544.9395398376100275
 21
201.5796477291792996
 31
0.0
  0
LINE
  5
13E00
  8
0
 10
3544.9594445101101883
 20
201.9339784377793023
 30
0.0
 11
3544.9594445101101883
 21
201.5796477291792996
 31
0.0
  0
LINE
  5
13E01
  8
0
 10
3544.9688920858097845
 20
201.9339784377793023
 30
0.0
 11
3544.9688920858097845
 21
201.5796477291792996
 31
0.0
  0
LINE
  5
13E02
  8
0
 10
3544.9878876634102198
 20
201.9339784377793023
 30
0.0
 11
3544.9878876634102198
 21
201.5796477291792996
 31
0.0
  0
LINE
  5
13E03
  8
0
 10
3544.9989897437098989
 20
201.9339784377793023
 30
0.0
 11
3544.9989897437098989
 21
201.5796477291792996
 31
0.0
  0
LINE
  5
13E04
  8
0
 10
3545.0169836818099611
 20
201.9339784377793023
 30
0.0
 11
3545.0169836818099611
 21
201.5796477291792996
 31
0.0
  0
LINE
  5
13E05
  8
0
 10
3545.0296861785100191
 20
201.9339784377793023
 30
0.0
 11
3545.0296861785100191
 21
201.5796477291792996
 31
0.0
  0
LINE
  5
13E06
  8
0
 10
3545.0465908125102032
 20
201.9339784377793023
 30
0.0
 11
3545.0465908125102032
 21
201.5796477291792996
 31
0.0
  0
LINE
  5
13E07
  8
0
 10
3545.0608318402100849
 20
201.9339784377793023
 30
0.0
 11
3545.0608318402100849
 21
201.5796477291792996
 31
0.0
  0
LINE
  5
13E08
  8
0
 10
3545.0765648123101528
 20
201.9339784377793023
 30
0.0
 11
3545.0765648123101528
 21
201.5796477291792996
 31
0.0
  0
LINE
  5
13E09
  8
0
 10
3545.0922749902101714
 20
201.9339784377793023
 30
0.0
 11
3545.0922749902101714
 21
201.5796477291792996
 31
0.0
  0
LINE
  5
13E0A
  8
0
 10
3545.1067596511102238
 20
201.9339784377793023
 30
0.0
 11
3545.1067596511102238
 21
201.5796477291792996
 31
0.0
  0
LINE
  5
13E0B
  8
0
 10
3545.1199254330099393
 20
201.9339784377793023
 30
0.0
 11
3545.1199254330099393
 21
201.5796477291792996
 31
0.0
  0
LINE
  5
13E0C
  8
0
 10
3544.827261582211122
 20
200.9103563905792953
 30
0.0
 11
3545.4165262916098982
 21
200.9103563905792953
 31
0.0
  0
LINE
  5
13E0D
  8
0
 10
3544.8463033857101436
 20
200.9103563905792953
 30
0.0
 11
3544.8463033857101436
 21
144.1820303284538909
 31
0.0
  0
LINE
  5
13E0E
  8
0
 10
3545.3974844880099226
 20
200.9103563905792953
 30
0.0
 11
3545.3974844880099226
 21
144.182140145393987
 31
0.0
  0
ENDSEC
  0
EOF
