  0
SECTION
  2
HEADER
  9
$ACADVER
  1
AC1009
  9
$INSBASE
 10
4437.3909831209193726
 20
223.1213670828065005
 30
0.0
  9
$EXTMIN
 10
4430.8228593128551438
 20
222.6632083499021917
 30
-0.0000000000112498
  9
$EXTMAX
 10
4437.9037545703376964
 20
223.5818629971531095
 30
0.0000000000002956
  9
$LIMMIN
 10
0.0
 20
0.0
  9
$LIMMAX
 10
11.6929133858000007
 20
8.2677165353999982
  9
$ORTHOMODE
 70
     0
  9
$REGENMODE
 70
     1
  9
$FILLMODE
 70
     1
  9
$QTEXTMODE
 70
     0
  9
$MIRRTEXT
 70
     0
  9
$DRAGMODE
 70
     2
  9
$LTSCALE
 40
0.6431102362
  9
$OSMODE
 70
   575
  9
$ATTMODE
 70
     1
  9
$TEXTSIZE
 40
0.2
  9
$TRACEWID
 40
0.05
  9
$TEXTSTYLE
  7
STANDARD
  9
$CLAYER
  8
0
  9
$CELTYPE
  6
BYLAYER
  9
$CECOLOR
 62
   256
  9
$DIMSCALE
 40
1.0
  9
$DIMASZ
 40
0.1875
  9
$DIMEXO
 40
0.0625
  9
$DIMDLI
 40
0.4443307087
  9
$DIMRND
 40
0.0
  9
$DIMDLE
 40
0.0
  9
$DIMEXE
 40
0.125
  9
$DIMTP
 40
0.01
  9
$DIMTM
 40
0.01
  9
$DIMTXT
 40
2.0
  9
$DIMCEN
 40
0.1052362205
  9
$DIMTSZ
 40
0.0
  9
$DIMTOL
 70
     1
  9
$DIMLIM
 70
     0
  9
$DIMTIH
 70
     1
  9
$DIMTOH
 70
     1
  9
$DIMSE1
 70
     0
  9
$DIMSE2
 70
     0
  9
$DIMTAD
 70
     0
  9
$DIMZIN
 70
     0
  9
$DIMBLK
  1

  9
$DIMASO
 70
     1
  9
$DIMSHO
 70
     1
  9
$DIMPOST
  1
\X
  9
$DIMAPOST
  1

  9
$DIMALT
 70
     1
  9
$DIMALTD
 70
     2
  9
$DIMALTF
 40
25.3999999999999986
  9
$DIMLFAC
 40
1.0
  9
$DIMTOFL
 70
     0
  9
$DIMTVP
 40
0.0
  9
$DIMTIX
 70
     0
  9
$DIMSOXD
 70
     0
  9
$DIMSAH
 70
     0
  9
$DIMBLK1
  1

  9
$DIMBLK2
  1

  9
$DIMSTYLE
  2
STANDARD
  9
$DIMCLRD
 70
     0
  9
$DIMCLRE
 70
     0
  9
$DIMCLRT
 70
     0
  9
$DIMTFAC
 40
1.0
  9
$DIMGAP
 40
0.09
  9
$LUNITS
 70
     2
  9
$LUPREC
 70
     4
  9
$SKETCHINC
 40
0.1
  9
$FILLETRAD
 40
0.0
  9
$AUNITS
 70
     0
  9
$AUPREC
 70
     0
  9
$MENU
  1
.
  9
$ELEVATION
 40
0.0
  9
$PELEVATION
 40
0.0
  9
$THICKNESS
 40
0.0
  9
$LIMCHECK
 70
     0
  9
$BLIPMODE
 70
     0
  9
$CHAMFERA
 40
0.0
  9
$CHAMFERB
 40
0.0
  9
$SKPOLY
 70
     0
  9
$TDCREATE
 40
2458060.468368056230247
  9
$TDUPDATE
 40
2459627.5529513889923692
  9
$TDINDWG
 40
0.4729815972
  9
$TDUSRTIMER
 40
0.4729815972
  9
$USRTIMER
 70
     1
  9
$ANGBASE
 50
0.0
  9
$ANGDIR
 70
     0
  9
$PDMODE
 70
     0
  9
$PDSIZE
 40
0.3125
  9
$PLINEWID
 40
0.0
  9
$COORDS
 70
     1
  9
$SPLFRAME
 70
     0
  9
$SPLINETYPE
 70
     6
  9
$SPLINESEGS
 70
     8
  9
$ATTDIA
 70
     1
  9
$ATTREQ
 70
     1
  9
$HANDLING
 70
     1
  9
$HANDSEED
  5
1DA25
  9
$SURFTAB1
 70
     6
  9
$SURFTAB2
 70
     6
  9
$SURFTYPE
 70
     6
  9
$SURFU
 70
     6
  9
$SURFV
 70
     6
  9
$UCSNAME
  2

  9
$UCSORG
 10
0.0
 20
0.0
 30
0.0
  9
$UCSXDIR
 10
1.0
 20
0.0
 30
0.0
  9
$UCSYDIR
 10
0.0
 20
1.0
 30
0.0
  9
$PUCSNAME
  2

  9
$PUCSORG
 10
0.0
 20
0.0
 30
0.0
  9
$PUCSXDIR
 10
1.0
 20
0.0
 30
0.0
  9
$PUCSYDIR
 10
0.0
 20
1.0
 30
0.0
  9
$USERI1
 70
     0
  9
$USERI2
 70
     0
  9
$USERI3
 70
     0
  9
$USERI4
 70
     0
  9
$USERI5
 70
     0
  9
$USERR1
 40
0.0
  9
$USERR2
 40
0.0
  9
$USERR3
 40
0.0
  9
$USERR4
 40
0.0
  9
$USERR5
 40
0.0
  9
$WORLDVIEW
 70
     1
  9
$SHADEDGE
 70
     3
  9
$SHADEDIF
 70
    70
  9
$TILEMODE
 70
     1
  9
$MAXACTVP
 70
    64
  9
$PLIMCHECK
 70
     0
  9
$PEXTMIN
 10
1.0000000000000000E+20
 20
1.0000000000000000E+20
 30
1.0000000000000000E+20
  9
$PEXTMAX
 10
-1.0000000000000000E+20
 20
-1.0000000000000000E+20
 30
-1.0000000000000000E+20
  9
$PLIMMIN
 10
0.0
 20
0.0
  9
$PLIMMAX
 10
12.0
 20
9.0
  9
$UNITMODE
 70
     0
  9
$VISRETAIN
 70
     1
  9
$PLINEGEN
 70
     0
  9
$PSLTSCALE
 70
     1
  0
ENDSEC
  0
SECTION
  2
TABLES
  0
TABLE
  2
VPORT
 70
     1
  0
VPORT
  2
*ACTIVE
 70
     0
 10
0.0
 20
0.0
 11
1.0
 21
1.0
 12
522.9564346022003747
 22
90.2938358577660836
 13
0.0
 23
0.0
 14
1.0
 24
1.0
 15
0.0
 25
0.0
 16
0.0
 26
0.0
 36
60.4960186965801583
 17
3911.3653564453120453
 27
132.5796051025390057
 37
0.0
 40
4.7051222028387096
 41
2.2661764705882348
 42
50.0
 43
0.0
 44
0.0
 50
0.0
 51
0.0
 71
     0
 72
   100
 73
     1
 74
     1
 75
     0
 76
     0
 77
     0
 78
     0
  0
ENDTAB
  0
TABLE
  2
LTYPE
 70
     2
  0
LTYPE
  2
CONTINUOUS
 70
     0
  3
Solid line
 72
    65
 73
     0
 40
0.0
  0
LTYPE
  2
PHANTOM2
 70
     0
  3
___ _ _ ___ _ _ ___ _ _ ___ _ _
 72
    65
 73
     6
 40
1.25
 49
0.625
 49
-0.125
 49
0.125
 49
-0.125
 49
0.125
 49
-0.125
  0
ENDTAB
  0
TABLE
  2
LAYER
 70
     2
  0
LAYER
  2
0
 70
     0
 62
   255
  6
CONTINUOUS
  0
LAYER
  2
DEFPOINTS
 70
     0
 62
     7
  6
CONTINUOUS
  0
ENDTAB
  0
TABLE
  2
STYLE
 70
     1
  0
STYLE
  2
STANDARD
 70
     0
 40
0.0
 41
0.8
 50
0.0
 71
     0
 42
0.2
  3
txt
  4

  0
ENDTAB
  0
TABLE
  2
VIEW
 70
     0
  0
ENDTAB
  0
TABLE
  2
UCS
 70
     0
  0
ENDTAB
  0
TABLE
  2
APPID
 70
    11
  0
APPID
  2
ACAD
 70
     0
  0
APPID
  2
ACAD_MLEADERVER
 70
     0
  0
APPID
  2
ACAD_EXEMPT_FROM_CAD_STANDARDS
 70
     0
  0
APPID
  2
ACAD_NAV_VCDISPLAY
 70
     0
  0
APPID
  2
ACAECLAYERSTANDARD
 70
     0
  0
APPID
  2
ACCMTRANSPARENCY
 70
     0
  0
APPID
  2
ACAD_DSTYLE_DIMJAG
 70
     0
  0
APPID
  2
ACAD_DSTYLE_DIMTALN
 70
     0
  0
APPID
  2
ACDBATTR
 70
     0
  0
APPID
  2
ACADANNOTATIVE
 70
     0
  0
APPID
  2
DCO15
 70
     0
  0
ENDTAB
  0
TABLE
  2
DIMSTYLE
 70
     1
  0
DIMSTYLE
  2
STANDARD
 70
     0
  3

  4

  5

  6

  7

 40
1.0
 41
0.1875
 42
0.0625
 43
0.38
 44
0.125
 45
0.0
 46
0.0
 47
0.01
 48
0.01
140
0.15625
141
0.09
142
0.0
143
25.3999999999999986
144
1.0
145
0.0
146
1.0
147
0.09
 71
     1
 72
     0
 73
     1
 74
     1
 75
     0
 76
     0
 77
     0
 78
     4
170
     0
171
     2
172
     0
173
     0
174
     0
175
     0
176
     0
177
     0
178
     0
  0
ENDTAB
  0
ENDSEC
  0
SECTION
  2
BLOCKS
  0
BLOCK
  8
0
  2
$MODEL_SPACE
 70
     0
 10
0.0
 20
0.0
 30
0.0
  3
$MODEL_SPACE
  1

  0
ENDBLK
  5
21
  8
0
  0
BLOCK
 67
     1
  8
0
  2
$PAPER_SPACE
 70
     0
 10
0.0
 20
0.0
 30
0.0
  3
$PAPER_SPACE
  1

  0
ENDBLK
  5
1D
 67
     1
  8
0
  0
ENDSEC
  0
SECTION
  2
ENTITIES
  0
ATTDEF
  5
1CA69
  8
DEFPOINTS
 10
4437.3911297043860031
 20
223.1251458990765002
 30
0.0
 40
0.001
  1
K-11628BR
  3

  2
MODELNUMBER
 70
     0
1001
ACDBATTR
1070
     0
1070
     1
  0
ATTDEF
  5
1CA6A
  8
DEFPOINTS
 10
4437.3910038947278736
 20
223.1234790586973133
 30
0.0
 40
0.001
  1

  3

  2
TRADENAME
 70
     0
1001
ACDBATTR
1070
     0
1070
     1
  0
ATTDEF
  5
1CA6B
  8
DEFPOINTS
 10
4437.3911297043860031
 20
223.1218125657431131
 30
0.0
 40
0.001
  1
HOSE 
  3

  2
PRODUCT
 70
     0
1001
ACDBATTR
1070
     0
1070
     1
  0
LINE
  5
1D256
  8
0
 10
4431.260471309768036
 20
223.0964276057889037
 30
0.0
 11
4431.260471309768036
 21
223.1085905834065954
 31
0.0
  0
LINE
  5
1D257
  8
0
 10
4431.260471309768036
 20
223.1135905834065909
 30
0.0
 11
4431.260471309768036
 21
223.1335905834066011
 31
0.0
  0
LINE
  5
1D258
  8
0
 10
4431.260471309768036
 20
223.1385905834065113
 30
0.0
 11
4431.260471309768036
 21
223.1463065598242963
 31
0.0
  0
LINE
  5
1D259
  8
0
 10
4431.2654713097672357
 20
223.1747241583815935
 30
0.0
 11
4431.2654713097672357
 21
223.1635905834064886
 31
0.0
  0
LINE
  5
1D25A
  8
0
 10
4431.2654713097672357
 20
223.1585905834064931
 30
0.0
 11
4431.2654713097672357
 21
223.1385905834065113
 31
0.0
  0
LINE
  5
1D25B
  8
0
 10
4431.2654713097672357
 20
223.1335905834066011
 30
0.0
 11
4431.2654713097672357
 21
223.1135905834065909
 31
0.0
  0
LINE
  5
1D25C
  8
0
 10
4431.2654713097672357
 20
223.1085905834065954
 30
0.0
 11
4431.2654713097672357
 21
223.0885905834066136
 31
0.0
  0
LINE
  5
1D25D
  8
0
 10
4431.2654713097672357
 20
223.0835905834065898
 30
0.0
 11
4431.2654713097672357
 21
223.0680100072314929
 31
0.0
  0
LINE
  5
1D25E
  8
0
 10
4431.2904713097668719
 20
223.0063802248012905
 30
0.0
 11
4431.2904713097668719
 21
223.0085905834064874
 31
0.0
  0
LINE
  5
1D25F
  8
0
 10
4431.2904713097668719
 20
223.0135905834065113
 30
0.0
 11
4431.2904713097668719
 21
223.0335905834066068
 31
0.0
  0
LINE
  5
1D260
  8
0
 10
4431.2904713097668719
 20
223.0385905834066023
 30
0.0
 11
4431.2904713097668719
 21
223.0585905834066125
 31
0.0
  0
LINE
  5
1D261
  8
0
 10
4431.2904713097668719
 20
223.0635905834064943
 30
0.0
 11
4431.2904713097668719
 21
223.0835905834065898
 31
0.0
  0
LINE
  5
1D262
  8
0
 10
4431.2904713097668719
 20
223.0885905834066136
 30
0.0
 11
4431.2904713097668719
 21
223.1085905834065954
 31
0.0
  0
LINE
  5
1D263
  8
0
 10
4431.2904713097668719
 20
223.1135905834065909
 30
0.0
 11
4431.2904713097668719
 21
223.1335905834066011
 31
0.0
  0
LINE
  5
1D264
  8
0
 10
4431.2904713097668719
 20
223.1385905834065113
 30
0.0
 11
4431.2904713097668719
 21
223.1585905834064931
 31
0.0
  0
LINE
  5
1D265
  8
0
 10
4431.2904713097668719
 20
223.1635905834064886
 30
0.0
 11
4431.2904713097668719
 21
223.1835905834066125
 31
0.0
  0
LINE
  5
1D266
  8
0
 10
4431.2904713097668719
 20
223.1885905834066079
 30
0.0
 11
4431.2904713097668719
 21
223.2085905834065898
 31
0.0
  0
LINE
  5
1D267
  8
0
 10
4431.2904713097668719
 20
223.2135905834064999
 30
0.0
 11
4431.2904713097668719
 21
223.2335905834065954
 31
0.0
  0
LINE
  5
1D268
  8
0
 10
4431.2954713097678905
 20
223.2444401404345911
 30
0.0
 11
4431.2954713097678905
 21
223.2385905834065909
 31
0.0
  0
LINE
  5
1D269
  8
0
 10
4431.2954713097678905
 20
223.2335905834065954
 30
0.0
 11
4431.2954713097678905
 21
223.2135905834064999
 31
0.0
  0
LINE
  5
1D26A
  8
0
 10
4431.2954713097678905
 20
223.2085905834065898
 30
0.0
 11
4431.2954713097678905
 21
223.1885905834066079
 31
0.0
  0
LINE
  5
1D26B
  8
0
 10
4431.2954713097678905
 20
223.1835905834066125
 30
0.0
 11
4431.2954713097678905
 21
223.1635905834064886
 31
0.0
  0
LINE
  5
1D26C
  8
0
 10
4431.2954713097678905
 20
223.1585905834064931
 30
0.0
 11
4431.2954713097678905
 21
223.1385905834065113
 31
0.0
  0
LINE
  5
1D26D
  8
0
 10
4431.2954713097678905
 20
223.1335905834066011
 30
0.0
 11
4431.2954713097678905
 21
223.1135905834065909
 31
0.0
  0
LINE
  5
1D26E
  8
0
 10
4431.2954713097678905
 20
223.1085905834065954
 30
0.0
 11
4431.2954713097678905
 21
223.0885905834066136
 31
0.0
  0
LINE
  5
1D26F
  8
0
 10
4431.2954713097678905
 20
223.0835905834065898
 30
0.0
 11
4431.2954713097678905
 21
223.0635905834064943
 31
0.0
  0
LINE
  5
1D270
  8
0
 10
4431.2954713097678905
 20
223.0585905834066125
 30
0.0
 11
4431.2954713097678905
 21
223.0385905834066023
 31
0.0
  0
LINE
  5
1D271
  8
0
 10
4431.2954713097678905
 20
223.0335905834066068
 30
0.0
 11
4431.2954713097678905
 21
223.0135905834065113
 31
0.0
  0
LINE
  5
1D272
  8
0
 10
4431.2954713097678905
 20
223.0085905834064874
 30
0.0
 11
4431.2954713097678905
 21
222.9982940251784953
 31
0.0
  0
LINE
  5
1D273
  8
0
 10
4431.3204713097684362
 20
222.9663768330682956
 30
0.0
 11
4431.3204713097684362
 21
222.9835905834065102
 31
0.0
  0
LINE
  5
1D274
  8
0
 10
4431.3204713097684362
 20
222.9885905834065909
 30
0.0
 11
4431.3204713097684362
 21
223.0085905834064874
 31
0.0
  0
LINE
  5
1D275
  8
0
 10
4431.3204713097684362
 20
223.0135905834065113
 30
0.0
 11
4431.3204713097684362
 21
223.0335905834066068
 31
0.0
  0
LINE
  5
1D276
  8
0
 10
4431.3204713097684362
 20
223.0385905834066023
 30
0.0
 11
4431.3204713097684362
 21
223.0585905834066125
 31
0.0
  0
LINE
  5
1D277
  8
0
 10
4431.3204713097684362
 20
223.0635905834064943
 30
0.0
 11
4431.3204713097684362
 21
223.0835905834065898
 31
0.0
  0
LINE
  5
1D278
  8
0
 10
4431.3204713097684362
 20
223.0885905834066136
 30
0.0
 11
4431.3204713097684362
 21
223.1085905834065954
 31
0.0
  0
LINE
  5
1D279
  8
0
 10
4431.3204713097684362
 20
223.1135905834065909
 30
0.0
 11
4431.3204713097684362
 21
223.1335905834066011
 31
0.0
  0
LINE
  5
1D27A
  8
0
 10
4431.3204713097684362
 20
223.1385905834065113
 30
0.0
 11
4431.3204713097684362
 21
223.1585905834064931
 31
0.0
  0
LINE
  5
1D27B
  8
0
 10
4431.3204713097684362
 20
223.1635905834064886
 30
0.0
 11
4431.3204713097684362
 21
223.1835905834066125
 31
0.0
  0
LINE
  5
1D27C
  8
0
 10
4431.3204713097684362
 20
223.1885905834066079
 30
0.0
 11
4431.3204713097684362
 21
223.2085905834065898
 31
0.0
  0
LINE
  5
1D27D
  8
0
 10
4431.3204713097684362
 20
223.2135905834064999
 30
0.0
 11
4431.3204713097684362
 21
223.2335905834065954
 31
0.0
  0
LINE
  5
1D27E
  8
0
 10
4431.3204713097684362
 20
223.2385905834065909
 30
0.0
 11
4431.3204713097684362
 21
223.2585905834064874
 31
0.0
  0
LINE
  5
1D27F
  8
0
 10
4431.3204713097684362
 20
223.2635905834065113
 30
0.0
 11
4431.3204713097684362
 21
223.2763573325447908
 31
0.0
  0
LINE
  5
1D280
  8
0
 10
4431.3254713097676358
 20
223.2815138202504102
 30
0.0
 11
4431.3254713097676358
 21
223.2635905834065113
 31
0.0
  0
LINE
  5
1D281
  8
0
 10
4431.3254713097676358
 20
223.2585905834064874
 30
0.0
 11
4431.3254713097676358
 21
223.2385905834065909
 31
0.0
  0
LINE
  5
1D282
  8
0
 10
4431.3254713097676358
 20
223.2335905834065954
 30
0.0
 11
4431.3254713097676358
 21
223.2135905834064999
 31
0.0
  0
LINE
  5
1D283
  8
0
 10
4431.3254713097676358
 20
223.2085905834065898
 30
0.0
 11
4431.3254713097676358
 21
223.1885905834066079
 31
0.0
  0
LINE
  5
1D284
  8
0
 10
4431.3254713097676358
 20
223.1835905834066125
 30
0.0
 11
4431.3254713097676358
 21
223.1635905834064886
 31
0.0
  0
LINE
  5
1D285
  8
0
 10
4431.3254713097676358
 20
223.1585905834064931
 30
0.0
 11
4431.3254713097676358
 21
223.1385905834065113
 31
0.0
  0
LINE
  5
1D286
  8
0
 10
4431.3254713097676358
 20
223.1335905834066011
 30
0.0
 11
4431.3254713097676358
 21
223.1135905834065909
 31
0.0
  0
LINE
  5
1D287
  8
0
 10
4431.3254713097676358
 20
223.1085905834065954
 30
0.0
 11
4431.3254713097676358
 21
223.0885905834066136
 31
0.0
  0
LINE
  5
1D288
  8
0
 10
4431.3254713097676358
 20
223.0835905834065898
 30
0.0
 11
4431.3254713097676358
 21
223.0635905834064943
 31
0.0
  0
LINE
  5
1D289
  8
0
 10
4431.3254713097676358
 20
223.0585905834066125
 30
0.0
 11
4431.3254713097676358
 21
223.0385905834066023
 31
0.0
  0
LINE
  5
1D28A
  8
0
 10
4431.3254713097676358
 20
223.0335905834066068
 30
0.0
 11
4431.3254713097676358
 21
223.0135905834065113
 31
0.0
  0
LINE
  5
1D28B
  8
0
 10
4431.3254713097676358
 20
223.0085905834064874
 30
0.0
 11
4431.3254713097676358
 21
222.9885905834065909
 31
0.0
  0
LINE
  5
1D28C
  8
0
 10
4431.3254713097676358
 20
222.9835905834065102
 30
0.0
 11
4431.3254713097676358
 21
222.9635905834066136
 31
0.0
  0
LINE
  5
1D28D
  8
0
 10
4431.350471309769091
 20
222.9396475805127125
 30
0.0
 11
4431.350471309769091
 21
222.9585905834065898
 31
0.0
  0
LINE
  5
1D28E
  8
0
 10
4431.350471309769091
 20
222.9635905834066136
 30
0.0
 11
4431.350471309769091
 21
222.9835905834065102
 31
0.0
  0
LINE
  5
1D28F
  8
0
 10
4431.350471309769091
 20
222.9885905834065909
 30
0.0
 11
4431.350471309769091
 21
223.0085905834064874
 31
0.0
  0
LINE
  5
1D290
  8
0
 10
4431.350471309769091
 20
223.0135905834065113
 30
0.0
 11
4431.350471309769091
 21
223.0335905834066068
 31
0.0
  0
LINE
  5
1D291
  8
0
 10
4431.350471309769091
 20
223.0385905834066023
 30
0.0
 11
4431.350471309769091
 21
223.0585905834066125
 31
0.0
  0
LINE
  5
1D292
  8
0
 10
4431.350471309769091
 20
223.0635905834064943
 30
0.0
 11
4431.350471309769091
 21
223.0835905834065898
 31
0.0
  0
LINE
  5
1D293
  8
0
 10
4431.350471309769091
 20
223.0885905834066136
 30
0.0
 11
4431.350471309769091
 21
223.1085905834065954
 31
0.0
  0
LINE
  5
1D294
  8
0
 10
4431.350471309769091
 20
223.1135905834065909
 30
0.0
 11
4431.350471309769091
 21
223.1335905834066011
 31
0.0
  0
LINE
  5
1D295
  8
0
 10
4431.350471309769091
 20
223.1385905834065113
 30
0.0
 11
4431.350471309769091
 21
223.1585905834064931
 31
0.0
  0
LINE
  5
1D296
  8
0
 10
4431.350471309769091
 20
223.1635905834064886
 30
0.0
 11
4431.350471309769091
 21
223.1835905834066125
 31
0.0
  0
LINE
  5
1D297
  8
0
 10
4431.350471309769091
 20
223.1885905834066079
 30
0.0
 11
4431.350471309769091
 21
223.2085905834065898
 31
0.0
  0
LINE
  5
1D298
  8
0
 10
4431.350471309769091
 20
223.2135905834064999
 30
0.0
 11
4431.350471309769091
 21
223.2335905834065954
 31
0.0
  0
LINE
  5
1D299
  8
0
 10
4431.350471309769091
 20
223.2385905834065909
 30
0.0
 11
4431.350471309769091
 21
223.2585905834064874
 31
0.0
  0
LINE
  5
1D29A
  8
0
 10
4431.350471309769091
 20
223.2635905834065113
 30
0.0
 11
4431.350471309769091
 21
223.2835905834066068
 31
0.0
  0
LINE
  5
1D29B
  8
0
 10
4431.350471309769091
 20
223.2885905834064886
 30
0.0
 11
4431.350471232268319
 21
223.303086527525295
 31
0.0
  0
LINE
  5
1D29C
  8
0
 10
4431.3554713097682907
 20
223.3066964585511869
 30
0.0
 11
4431.3554713097682907
 21
223.2885905834064886
 31
0.0
  0
LINE
  5
1D29D
  8
0
 10
4431.3554713097682907
 20
223.2835905834066068
 30
0.0
 11
4431.3554713097682907
 21
223.2635905834065113
 31
0.0
  0
LINE
  5
1D29E
  8
0
 10
4431.3554713097682907
 20
223.2585905834064874
 30
0.0
 11
4431.3554713097682907
 21
223.2385905834065909
 31
0.0
  0
LINE
  5
1D29F
  8
0
 10
4431.3554713097682907
 20
223.2335905834065954
 30
0.0
 11
4431.3554713097682907
 21
223.2135905834064999
 31
0.0
  0
LINE
  5
1D2A0
  8
0
 10
4431.3554713097682907
 20
223.2085905834065898
 30
0.0
 11
4431.3554713097682907
 21
223.1885905834066079
 31
0.0
  0
LINE
  5
1D2A1
  8
0
 10
4431.3554713097682907
 20
223.1835905834066125
 30
0.0
 11
4431.3554713097682907
 21
223.1635905834064886
 31
0.0
  0
LINE
  5
1D2A2
  8
0
 10
4431.3554713097682907
 20
223.1585905834064931
 30
0.0
 11
4431.3554713097682907
 21
223.1385905834065113
 31
0.0
  0
LINE
  5
1D2A3
  8
0
 10
4431.3554713097682907
 20
223.1335905834066011
 30
0.0
 11
4431.3554713097682907
 21
223.1135905834065909
 31
0.0
  0
LINE
  5
1D2A4
  8
0
 10
4431.3554713097682907
 20
223.1085905834065954
 30
0.0
 11
4431.3554713097682907
 21
223.0885905834066136
 31
0.0
  0
LINE
  5
1D2A5
  8
0
 10
4431.3554713097682907
 20
223.0835905834065898
 30
0.0
 11
4431.3554713097682907
 21
223.0635905834064943
 31
0.0
  0
LINE
  5
1D2A6
  8
0
 10
4431.3554713097682907
 20
223.0585905834066125
 30
0.0
 11
4431.3554713097682907
 21
223.0385905834066023
 31
0.0
  0
LINE
  5
1D2A7
  8
0
 10
4431.3554713097682907
 20
223.0335905834066068
 30
0.0
 11
4431.3554713097682907
 21
223.0135905834065113
 31
0.0
  0
LINE
  5
1D2A8
  8
0
 10
4431.3554713097682907
 20
223.0085905834064874
 30
0.0
 11
4431.3554713097682907
 21
222.9885905834065909
 31
0.0
  0
LINE
  5
1D2A9
  8
0
 10
4431.3554713097682907
 20
222.9835905834065102
 30
0.0
 11
4431.3554713097682907
 21
222.9635905834066136
 31
0.0
  0
LINE
  5
1D2AA
  8
0
 10
4431.3554713097682907
 20
222.9585905834065898
 30
0.0
 11
4431.3554713097682907
 21
222.9385905834066079
 31
0.0
  0
LINE
  5
1D2AB
  8
0
 10
4431.3804713097670174
 20
222.920812906799398
 30
0.0
 11
4431.3804713097670174
 21
222.9335905834066125
 31
0.0
  0
LINE
  5
1D2AC
  8
0
 10
4431.3804713097670174
 20
222.9385905834066079
 30
0.0
 11
4431.3804713097670174
 21
222.9585905834065898
 31
0.0
  0
LINE
  5
1D2AD
  8
0
 10
4431.3804713097670174
 20
222.9635905834066136
 30
0.0
 11
4431.3804713097670174
 21
222.9835905834065102
 31
0.0
  0
LINE
  5
1D2AE
  8
0
 10
4431.3804713097670174
 20
222.9885905834065909
 30
0.0
 11
4431.3804713097670174
 21
223.0085905834064874
 31
0.0
  0
LINE
  5
1D2AF
  8
0
 10
4431.3804713097670174
 20
223.0135905834065113
 30
0.0
 11
4431.3804713097670174
 21
223.0335905834066068
 31
0.0
  0
LINE
  5
1D2B0
  8
0
 10
4431.3804713097670174
 20
223.0385905834066023
 30
0.0
 11
4431.3804713097670174
 21
223.0585905834066125
 31
0.0
  0
LINE
  5
1D2B1
  8
0
 10
4431.3804713097670174
 20
223.0635905834064943
 30
0.0
 11
4431.3804713097670174
 21
223.0835905834065898
 31
0.0
  0
LINE
  5
1D2B2
  8
0
 10
4431.3804713097670174
 20
223.0885905834066136
 30
0.0
 11
4431.3804713097670174
 21
223.1085905834065954
 31
0.0
  0
LINE
  5
1D2B3
  8
0
 10
4431.3804713097670174
 20
223.1135905834065909
 30
0.0
 11
4431.3804713097670174
 21
223.1335905834066011
 31
0.0
  0
LINE
  5
1D2B4
  8
0
 10
4431.3804713097670174
 20
223.1385905834065113
 30
0.0
 11
4431.3804713097670174
 21
223.1585905834064931
 31
0.0
  0
LINE
  5
1D2B5
  8
0
 10
4431.3804713097670174
 20
223.1635905834064886
 30
0.0
 11
4431.3804713097670174
 21
223.1835905834066125
 31
0.0
  0
LINE
  5
1D2B6
  8
0
 10
4431.3804713097670174
 20
223.1885905834066079
 30
0.0
 11
4431.3804713097670174
 21
223.2085905834065898
 31
0.0
  0
LINE
  5
1D2B7
  8
0
 10
4431.3804713097670174
 20
223.2135905834064999
 30
0.0
 11
4431.3804713097670174
 21
223.2335905834065954
 31
0.0
  0
LINE
  5
1D2B8
  8
0
 10
4431.3804713097670174
 20
223.2385905834065909
 30
0.0
 11
4431.3804713097670174
 21
223.2585905834064874
 31
0.0
  0
LINE
  5
1D2B9
  8
0
 10
4431.3804713097670174
 20
223.2635905834065113
 30
0.0
 11
4431.3804713097670174
 21
223.2835905834066068
 31
0.0
  0
LINE
  5
1D2BA
  8
0
 10
4431.3804713097670174
 20
223.2885905834064886
 30
0.0
 11
4431.3804713097670174
 21
223.3085905834064988
 31
0.0
  0
LINE
  5
1D2BB
  8
0
 10
4431.3804713097670174
 20
223.3135905834064943
 30
0.0
 11
4431.3804713097670174
 21
223.3219212588136884
 31
0.0
  0
LINE
  5
1D2BC
  8
0
 10
4431.385471309768036
 20
223.3244606019397906
 30
0.0
 11
4431.385471309768036
 21
223.3135905834064943
 31
0.0
  0
LINE
  5
1D2BD
  8
0
 10
4431.385471309768036
 20
223.3085905834064988
 30
0.0
 11
4431.385471309768036
 21
223.2885905834064886
 31
0.0
  0
LINE
  5
1D2BE
  8
0
 10
4431.385471309768036
 20
223.2835905834066068
 30
0.0
 11
4431.385471309768036
 21
223.2635905834065113
 31
0.0
  0
LINE
  5
1D2BF
  8
0
 10
4431.385471309768036
 20
223.2585905834064874
 30
0.0
 11
4431.385471309768036
 21
223.2385905834065909
 31
0.0
  0
LINE
  5
1D2C0
  8
0
 10
4431.385471309768036
 20
223.2335905834065954
 30
0.0
 11
4431.385471309768036
 21
223.2135905834064999
 31
0.0
  0
LINE
  5
1D2C1
  8
0
 10
4431.385471309768036
 20
223.2085905834065898
 30
0.0
 11
4431.385471309768036
 21
223.1885905834066079
 31
0.0
  0
LINE
  5
1D2C2
  8
0
 10
4431.385471309768036
 20
223.1835905834066125
 30
0.0
 11
4431.385471309768036
 21
223.1635905834064886
 31
0.0
  0
LINE
  5
1D2C3
  8
0
 10
4431.385471309768036
 20
223.1585905834064931
 30
0.0
 11
4431.385471309768036
 21
223.1385905834065113
 31
0.0
  0
LINE
  5
1D2C4
  8
0
 10
4431.385471309768036
 20
223.1335905834066011
 30
0.0
 11
4431.385471309768036
 21
223.1135905834065909
 31
0.0
  0
LINE
  5
1D2C5
  8
0
 10
4431.385471309768036
 20
223.1085905834065954
 30
0.0
 11
4431.385471309768036
 21
223.0885905834066136
 31
0.0
  0
LINE
  5
1D2C6
  8
0
 10
4431.385471309768036
 20
223.0835905834065898
 30
0.0
 11
4431.385471309768036
 21
223.0635905834064943
 31
0.0
  0
LINE
  5
1D2C7
  8
0
 10
4431.385471309768036
 20
223.0585905834066125
 30
0.0
 11
4431.385471309768036
 21
223.0385905834066023
 31
0.0
  0
LINE
  5
1D2C8
  8
0
 10
4431.385471309768036
 20
223.0335905834066068
 30
0.0
 11
4431.385471309768036
 21
223.0135905834065113
 31
0.0
  0
LINE
  5
1D2C9
  8
0
 10
4431.385471309768036
 20
223.0085905834064874
 30
0.0
 11
4431.385471309768036
 21
222.9885905834065909
 31
0.0
  0
LINE
  5
1D2CA
  8
0
 10
4431.385471309768036
 20
222.9835905834065102
 30
0.0
 11
4431.385471309768036
 21
222.9635905834066136
 31
0.0
  0
LINE
  5
1D2CB
  8
0
 10
4431.385471309768036
 20
222.9585905834065898
 30
0.0
 11
4431.385471309768036
 21
222.9385905834066079
 31
0.0
  0
LINE
  5
1D2CC
  8
0
 10
4431.385471309768036
 20
222.9335905834066125
 30
0.0
 11
4431.385471309768036
 21
222.9182735636732957
 31
0.0
  0
LINE
  5
1D2CD
  8
0
 10
4431.4104713097667627
 20
222.9077740643955963
 30
0.0
 11
4431.4104713097667627
 21
222.9085905834064931
 31
0.0
  0
LINE
  5
1D2CE
  8
0
 10
4431.4104713097667627
 20
222.9135905834064886
 30
0.0
 11
4431.4104713097667627
 21
222.9335905834066125
 31
0.0
  0
LINE
  5
1D2CF
  8
0
 10
4431.4104713097667627
 20
222.9385905834066079
 30
0.0
 11
4431.4104713097667627
 21
222.9585905834065898
 31
0.0
  0
LINE
  5
1D2D0
  8
0
 10
4431.4104713097667627
 20
222.9635905834066136
 30
0.0
 11
4431.4104713097667627
 21
222.9835905834065102
 31
0.0
  0
LINE
  5
1D2D1
  8
0
 10
4431.4104713097667627
 20
222.9885905834065909
 30
0.0
 11
4431.4104713097667627
 21
223.0085905834064874
 31
0.0
  0
LINE
  5
1D2D2
  8
0
 10
4431.4104713097667627
 20
223.0135905834065113
 30
0.0
 11
4431.4104713097667627
 21
223.0335905834066068
 31
0.0
  0
LINE
  5
1D2D3
  8
0
 10
4431.4104713097667627
 20
223.0385905834066023
 30
0.0
 11
4431.4104713097667627
 21
223.0585905834066125
 31
0.0
  0
LINE
  5
1D2D4
  8
0
 10
4431.4104713097667627
 20
223.0635905834064943
 30
0.0
 11
4431.4104713097667627
 21
223.0835905834065898
 31
0.0
  0
LINE
  5
1D2D5
  8
0
 10
4431.4104713097667627
 20
223.0885905834066136
 30
0.0
 11
4431.4104713097667627
 21
223.1085905834065954
 31
0.0
  0
LINE
  5
1D2D6
  8
0
 10
4431.4104713097667627
 20
223.1135905834065909
 30
0.0
 11
4431.4104713097667627
 21
223.1335905834066011
 31
0.0
  0
LINE
  5
1D2D7
  8
0
 10
4431.4104713097667627
 20
223.1385905834065113
 30
0.0
 11
4431.4104713097667627
 21
223.1585905834064931
 31
0.0
  0
LINE
  5
1D2D8
  8
0
 10
4431.4104713097667627
 20
223.1635905834064886
 30
0.0
 11
4431.4104713097667627
 21
223.1835905834066125
 31
0.0
  0
LINE
  5
1D2D9
  8
0
 10
4431.4104713097667627
 20
223.1885905834066079
 30
0.0
 11
4431.4104713097667627
 21
223.2085905834065898
 31
0.0
  0
LINE
  5
1D2DA
  8
0
 10
4431.4104713097667627
 20
223.2135905834064999
 30
0.0
 11
4431.4104713097667627
 21
223.2335905834065954
 31
0.0
  0
LINE
  5
1D2DB
  8
0
 10
4431.4104713097667627
 20
223.2385905834065909
 30
0.0
 11
4431.4104713097667627
 21
223.2585905834064874
 31
0.0
  0
LINE
  5
1D2DC
  8
0
 10
4431.4104713097667627
 20
223.2635905834065113
 30
0.0
 11
4431.4104713097667627
 21
223.2835905834066068
 31
0.0
  0
LINE
  5
1D2DD
  8
0
 10
4431.4104713097667627
 20
223.2885905834064886
 30
0.0
 11
4431.4104713097667627
 21
223.3085905834064988
 31
0.0
  0
LINE
  5
1D2DE
  8
0
 10
4431.4104713097667627
 20
223.3135905834064943
 30
0.0
 11
4431.4104713097667627
 21
223.3335905834065898
 31
0.0
  0
LINE
  5
1D2DF
  8
0
 10
4431.4154713097677813
 20
223.3335905834065898
 30
0.0
 11
4431.4154713097677813
 21
223.3135905834064943
 31
0.0
  0
LINE
  5
1D2E0
  8
0
 10
4431.4154713097677813
 20
223.3085905834064988
 30
0.0
 11
4431.4154713097677813
 21
223.2885905834064886
 31
0.0
  0
LINE
  5
1D2E1
  8
0
 10
4431.4154713097677813
 20
223.2835905834066068
 30
0.0
 11
4431.4154713097677813
 21
223.2635905834065113
 31
0.0
  0
LINE
  5
1D2E2
  8
0
 10
4431.4154713097677813
 20
223.2585905834064874
 30
0.0
 11
4431.4154713097677813
 21
223.2385905834065909
 31
0.0
  0
LINE
  5
1D2E3
  8
0
 10
4431.4154713097677813
 20
223.2335905834065954
 30
0.0
 11
4431.4154713097677813
 21
223.2135905834064999
 31
0.0
  0
LINE
  5
1D2E4
  8
0
 10
4431.4154713097677813
 20
223.2085905834065898
 30
0.0
 11
4431.4154713097677813
 21
223.1885905834066079
 31
0.0
  0
LINE
  5
1D2E5
  8
0
 10
4431.4154713097677813
 20
223.1835905834066125
 30
0.0
 11
4431.4154713097677813
 21
223.1635905834064886
 31
0.0
  0
LINE
  5
1D2E6
  8
0
 10
4431.4154713097677813
 20
223.1585905834064931
 30
0.0
 11
4431.4154713097677813
 21
223.1385905834065113
 31
0.0
  0
LINE
  5
1D2E7
  8
0
 10
4431.4154713097677813
 20
223.1335905834066011
 30
0.0
 11
4431.4154713097677813
 21
223.1135905834065909
 31
0.0
  0
LINE
  5
1D2E8
  8
0
 10
4431.4154713097677813
 20
223.1085905834065954
 30
0.0
 11
4431.4154713097677813
 21
223.0885905834066136
 31
0.0
  0
LINE
  5
1D2E9
  8
0
 10
4431.4154713097677813
 20
223.0835905834065898
 30
0.0
 11
4431.4154713097677813
 21
223.0635905834064943
 31
0.0
  0
LINE
  5
1D2EA
  8
0
 10
4431.4154713097677813
 20
223.0585905834066125
 30
0.0
 11
4431.4154713097677813
 21
223.0385905834066023
 31
0.0
  0
LINE
  5
1D2EB
  8
0
 10
4431.4154713097677813
 20
223.0335905834066068
 30
0.0
 11
4431.4154713097677813
 21
223.0135905834065113
 31
0.0
  0
LINE
  5
1D2EC
  8
0
 10
4431.4154713097677813
 20
223.0085905834064874
 30
0.0
 11
4431.4154713097677813
 21
222.9885905834065909
 31
0.0
  0
LINE
  5
1D2ED
  8
0
 10
4431.4154713097677813
 20
222.9835905834065102
 30
0.0
 11
4431.4154713097677813
 21
222.9635905834066136
 31
0.0
  0
LINE
  5
1D2EE
  8
0
 10
4431.4154713097677813
 20
222.9585905834065898
 30
0.0
 11
4431.4154713097677813
 21
222.9385905834066079
 31
0.0
  0
LINE
  5
1D2EF
  8
0
 10
4431.4154713097677813
 20
222.9335905834066125
 30
0.0
 11
4431.4154713097677813
 21
222.9135905834064886
 31
0.0
  0
LINE
  5
1D2F0
  8
0
 10
4431.4154713097677813
 20
222.9085905834064931
 30
0.0
 11
4431.4154713097677813
 21
222.906083601057702
 31
0.0
  0
LINE
  5
1D2F1
  8
0
 10
4431.4404713097692365
 20
222.8995068170671914
 30
0.0
 11
4431.4404713097692365
 21
222.9085905834064931
 31
0.0
  0
LINE
  5
1D2F2
  8
0
 10
4431.4404713097692365
 20
222.9135905834064886
 30
0.0
 11
4431.4404713097692365
 21
222.9335905834066125
 31
0.0
  0
LINE
  5
1D2F3
  8
0
 10
4431.4404713097692365
 20
222.9385905834066079
 30
0.0
 11
4431.4404713097692365
 21
222.9585905834065898
 31
0.0
  0
LINE
  5
1D2F4
  8
0
 10
4431.4404713097692365
 20
222.9635905834066136
 30
0.0
 11
4431.4404713097692365
 21
222.9835905834065102
 31
0.0
  0
LINE
  5
1D2F5
  8
0
 10
4431.4404713097692365
 20
222.9885905834065909
 30
0.0
 11
4431.4404713097692365
 21
223.0085905834064874
 31
0.0
  0
LINE
  5
1D2F6
  8
0
 10
4431.4404713097692365
 20
223.0135905834065113
 30
0.0
 11
4431.4404713097692365
 21
223.0335905834066068
 31
0.0
  0
LINE
  5
1D2F7
  8
0
 10
4431.4404713097692365
 20
223.0385905834066023
 30
0.0
 11
4431.4404713097692365
 21
223.0585905834066125
 31
0.0
  0
LINE
  5
1D2F8
  8
0
 10
4431.4404713097692365
 20
223.0635905834064943
 30
0.0
 11
4431.4404713097692365
 21
223.0835905834065898
 31
0.0
  0
LINE
  5
1D2F9
  8
0
 10
4431.4404713097692365
 20
223.0885905834066136
 30
0.0
 11
4431.4404713097692365
 21
223.1085905834065954
 31
0.0
  0
LINE
  5
1D2FA
  8
0
 10
4431.4404713097692365
 20
223.1135905834065909
 30
0.0
 11
4431.4404713097692365
 21
223.1335905834066011
 31
0.0
  0
LINE
  5
1D2FB
  8
0
 10
4431.4404713097692365
 20
223.1385905834065113
 30
0.0
 11
4431.4404713097692365
 21
223.1585905834064931
 31
0.0
  0
LINE
  5
1D2FC
  8
0
 10
4431.4404713097692365
 20
223.1635905834064886
 30
0.0
 11
4431.4404713097692365
 21
223.1835905834066125
 31
0.0
  0
LINE
  5
1D2FD
  8
0
 10
4431.4404713097692365
 20
223.1885905834066079
 30
0.0
 11
4431.4404713097692365
 21
223.2085905834065898
 31
0.0
  0
LINE
  5
1D2FE
  8
0
 10
4431.4404713097692365
 20
223.2135905834064999
 30
0.0
 11
4431.4404713097692365
 21
223.2335905834065954
 31
0.0
  0
LINE
  5
1D2FF
  8
0
 10
4431.4404713097692365
 20
223.2385905834065909
 30
0.0
 11
4431.4404713097692365
 21
223.2585905834064874
 31
0.0
  0
LINE
  5
1D300
  8
0
 10
4431.4404713097692365
 20
223.2635905834065113
 30
0.0
 11
4431.4404713097692365
 21
223.2835905834066068
 31
0.0
  0
LINE
  5
1D301
  8
0
 10
4431.4404713097692365
 20
223.2885905834064886
 30
0.0
 11
4431.4404713097692365
 21
223.3085905834064988
 31
0.0
  0
LINE
  5
1D302
  8
0
 10
4431.4404713097692365
 20
223.3385905834066136
 30
0.0
 11
4431.4404713097692365
 21
223.343227348545895
 31
0.0
  0
LINE
  5
1D303
  8
0
 10
4431.4404713097692365
 20
223.3135905834064943
 30
0.0
 11
4431.4404713097692365
 21
223.3335905834065898
 31
0.0
  0
LINE
  5
1D304
  8
0
 10
4431.4454713097684362
 20
223.3441830999908859
 30
0.0
 11
4431.4454713097684362
 21
223.3385905834066136
 31
0.0
  0
LINE
  5
1D305
  8
0
 10
4431.4454713097684362
 20
223.3335905834065898
 30
0.0
 11
4431.4454713097684362
 21
223.3135905834064943
 31
0.0
  0
LINE
  5
1D306
  8
0
 10
4431.4454713097684362
 20
223.3085905834064988
 30
0.0
 11
4431.4454713097684362
 21
223.2885905834064886
 31
0.0
  0
LINE
  5
1D307
  8
0
 10
4431.4454713097684362
 20
223.2835905834066068
 30
0.0
 11
4431.4454713097684362
 21
223.2635905834065113
 31
0.0
  0
LINE
  5
1D308
  8
0
 10
4431.4454713097684362
 20
223.2585905834064874
 30
0.0
 11
4431.4454713097684362
 21
223.2385905834065909
 31
0.0
  0
LINE
  5
1D309
  8
0
 10
4431.4454713097684362
 20
223.2335905834065954
 30
0.0
 11
4431.4454713097684362
 21
223.2135905834064999
 31
0.0
  0
LINE
  5
1D30A
  8
0
 10
4431.4454713097684362
 20
223.2085905834065898
 30
0.0
 11
4431.4454713097684362
 21
223.1885905834066079
 31
0.0
  0
LINE
  5
1D30B
  8
0
 10
4431.4454713097684362
 20
223.1835905834066125
 30
0.0
 11
4431.4454713097684362
 21
223.1635905834064886
 31
0.0
  0
LINE
  5
1D30C
  8
0
 10
4431.4454713097684362
 20
223.1585905834064931
 30
0.0
 11
4431.4454713097684362
 21
223.1385905834065113
 31
0.0
  0
LINE
  5
1D30D
  8
0
 10
4431.4454713097684362
 20
223.1335905834066011
 30
0.0
 11
4431.4454713097684362
 21
223.1135905834065909
 31
0.0
  0
LINE
  5
1D30E
  8
0
 10
4431.4454713097684362
 20
223.1085905834065954
 30
0.0
 11
4431.4454713097684362
 21
223.0885905834066136
 31
0.0
  0
LINE
  5
1D30F
  8
0
 10
4431.4454713097684362
 20
223.0835905834065898
 30
0.0
 11
4431.4454713097684362
 21
223.0635905834064943
 31
0.0
  0
LINE
  5
1D310
  8
0
 10
4431.4454713097684362
 20
223.0585905834066125
 30
0.0
 11
4431.4454713097684362
 21
223.0385905834066023
 31
0.0
  0
LINE
  5
1D311
  8
0
 10
4431.4454713097684362
 20
223.0335905834066068
 30
0.0
 11
4431.4454713097684362
 21
223.0135905834065113
 31
0.0
  0
LINE
  5
1D312
  8
0
 10
4431.4454713097684362
 20
223.0085905834064874
 30
0.0
 11
4431.4454713097684362
 21
222.9885905834065909
 31
0.0
  0
LINE
  5
1D313
  8
0
 10
4431.4454713097684362
 20
222.9835905834065102
 30
0.0
 11
4431.4454713097684362
 21
222.9635905834066136
 31
0.0
  0
LINE
  5
1D314
  8
0
 10
4431.4454713097684362
 20
222.9585905834065898
 30
0.0
 11
4431.4454713097684362
 21
222.9385905834066079
 31
0.0
  0
LINE
  5
1D315
  8
0
 10
4431.4454713097684362
 20
222.9335905834066125
 30
0.0
 11
4431.4454713097684362
 21
222.9135905834064886
 31
0.0
  0
LINE
  5
1D316
  8
0
 10
4431.4454713097684362
 20
222.9085905834064931
 30
0.0
 11
4431.4454713097684362
 21
222.8985510656220868
 31
0.0
  0
LINE
  5
1D317
  8
0
 10
4431.4704713097680724
 20
222.8954866332011875
 30
0.0
 11
4431.4704713097680724
 21
222.9085905834064931
 31
0.0
  0
LINE
  5
1D318
  8
0
 10
4431.4704713097680724
 20
222.9135905834064886
 30
0.0
 11
4431.4704713097680724
 21
222.9335905834066125
 31
0.0
  0
LINE
  5
1D319
  8
0
 10
4431.4704713097680724
 20
222.9385905834066079
 30
0.0
 11
4431.4704713097680724
 21
222.9585905834065898
 31
0.0
  0
LINE
  5
1D31A
  8
0
 10
4431.4704713097680724
 20
222.9635905834066136
 30
0.0
 11
4431.4704713097680724
 21
222.9835905834065102
 31
0.0
  0
LINE
  5
1D31B
  8
0
 10
4431.4704713097680724
 20
222.9885905834065909
 30
0.0
 11
4431.4704713097680724
 21
223.0085905834064874
 31
0.0
  0
LINE
  5
1D31C
  8
0
 10
4431.4704713097680724
 20
223.0135905834065113
 30
0.0
 11
4431.4704713097680724
 21
223.0335905834066068
 31
0.0
  0
LINE
  5
1D31D
  8
0
 10
4431.4704713097680724
 20
223.0385905834066023
 30
0.0
 11
4431.4704713097680724
 21
223.0585905834066125
 31
0.0
  0
LINE
  5
1D31E
  8
0
 10
4431.4704713097680724
 20
223.0635905834064943
 30
0.0
 11
4431.4704713097680724
 21
223.0835905834065898
 31
0.0
  0
LINE
  5
1D31F
  8
0
 10
4431.4704713097680724
 20
223.0885905834066136
 30
0.0
 11
4431.4704713097680724
 21
223.1085905834065954
 31
0.0
  0
LINE
  5
1D320
  8
0
 10
4431.4704713097680724
 20
223.1135905834065909
 30
0.0
 11
4431.4704713097680724
 21
223.1335905834066011
 31
0.0
  0
LINE
  5
1D321
  8
0
 10
4431.4704713097680724
 20
223.1385905834065113
 30
0.0
 11
4431.4704713097680724
 21
223.1585905834064931
 31
0.0
  0
LINE
  5
1D322
  8
0
 10
4431.4704713097680724
 20
223.1635905834064886
 30
0.0
 11
4431.4704713097680724
 21
223.1835905834066125
 31
0.0
  0
LINE
  5
1D323
  8
0
 10
4431.4704713097680724
 20
223.1885905834066079
 30
0.0
 11
4431.4704713097680724
 21
223.2085905834065898
 31
0.0
  0
LINE
  5
1D324
  8
0
 10
4431.4704713097680724
 20
223.2135905834064999
 30
0.0
 11
4431.4704713097680724
 21
223.2335905834065954
 31
0.0
  0
LINE
  5
1D325
  8
0
 10
4431.4704713097680724
 20
223.2385905834065909
 30
0.0
 11
4431.4704713097680724
 21
223.2585905834064874
 31
0.0
  0
LINE
  5
1D326
  8
0
 10
4431.4704713097680724
 20
223.2635905834065113
 30
0.0
 11
4431.4704713097680724
 21
223.2835905834066068
 31
0.0
  0
LINE
  5
1D327
  8
0
 10
4431.4704713097680724
 20
223.2885905834064886
 30
0.0
 11
4431.4704713097680724
 21
223.3085905834064988
 31
0.0
  0
LINE
  5
1D328
  8
0
 10
4431.4704713097680724
 20
223.3385905834066136
 30
0.0
 11
4431.4704713097680724
 21
223.3472475324118989
 31
0.0
  0
LINE
  5
1D329
  8
0
 10
4431.4704713097680724
 20
223.3135905834064943
 30
0.0
 11
4431.4704713097680724
 21
223.3335905834065898
 31
0.0
  0
LINE
  5
1D32A
  8
0
 10
4431.4754713097681815
 20
223.3475240581884975
 30
0.0
 11
4431.4754713097681815
 21
223.3385905834066136
 31
0.0
  0
LINE
  5
1D32B
  8
0
 10
4431.4754713097681815
 20
223.3335905834065898
 30
0.0
 11
4431.4754713097681815
 21
223.3135905834064943
 31
0.0
  0
LINE
  5
1D32C
  8
0
 10
4431.4754713097681815
 20
223.3085905834064988
 30
0.0
 11
4431.4754713097681815
 21
223.2885905834064886
 31
0.0
  0
LINE
  5
1D32D
  8
0
 10
4431.4754713097681815
 20
223.2835905834066068
 30
0.0
 11
4431.4754713097681815
 21
223.2635905834065113
 31
0.0
  0
LINE
  5
1D32E
  8
0
 10
4431.4754713097681815
 20
223.2585905834064874
 30
0.0
 11
4431.4754713097681815
 21
223.2385905834065909
 31
0.0
  0
LINE
  5
1D32F
  8
0
 10
4431.4754713097681815
 20
223.2335905834065954
 30
0.0
 11
4431.4754713097681815
 21
223.2135905834064999
 31
0.0
  0
LINE
  5
1D330
  8
0
 10
4431.4754713097681815
 20
223.2085905834065898
 30
0.0
 11
4431.4754713097681815
 21
223.1885905834066079
 31
0.0
  0
LINE
  5
1D331
  8
0
 10
4431.4754713097681815
 20
223.1835905834066125
 30
0.0
 11
4431.4754713097681815
 21
223.1635905834064886
 31
0.0
  0
LINE
  5
1D332
  8
0
 10
4431.4754713097681815
 20
223.1585905834064931
 30
0.0
 11
4431.4754713097681815
 21
223.1385905834065113
 31
0.0
  0
LINE
  5
1D333
  8
0
 10
4431.4754713097681815
 20
223.1335905834066011
 30
0.0
 11
4431.4754713097681815
 21
223.1135905834065909
 31
0.0
  0
LINE
  5
1D334
  8
0
 10
4431.4754713097681815
 20
223.1085905834065954
 30
0.0
 11
4431.4754713097681815
 21
223.0885905834066136
 31
0.0
  0
LINE
  5
1D335
  8
0
 10
4431.4754713097681815
 20
223.0835905834065898
 30
0.0
 11
4431.4754713097681815
 21
223.0635905834064943
 31
0.0
  0
LINE
  5
1D336
  8
0
 10
4431.4754713097681815
 20
223.0585905834066125
 30
0.0
 11
4431.4754713097681815
 21
223.0385905834066023
 31
0.0
  0
LINE
  5
1D337
  8
0
 10
4431.4754713097681815
 20
223.0335905834066068
 30
0.0
 11
4431.4754713097681815
 21
223.0135905834065113
 31
0.0
  0
LINE
  5
1D338
  8
0
 10
4431.4754713097681815
 20
223.0085905834064874
 30
0.0
 11
4431.4754713097681815
 21
222.9885905834065909
 31
0.0
  0
LINE
  5
1D339
  8
0
 10
4431.4754713097681815
 20
222.9835905834065102
 30
0.0
 11
4431.4754713097681815
 21
222.9635905834066136
 31
0.0
  0
LINE
  5
1D33A
  8
0
 10
4431.4754713097681815
 20
222.9585905834065898
 30
0.0
 11
4431.4754713097681815
 21
222.9385905834066079
 31
0.0
  0
LINE
  5
1D33B
  8
0
 10
4431.4754713097681815
 20
222.9335905834066125
 30
0.0
 11
4431.4754713097681815
 21
222.9135905834064886
 31
0.0
  0
LINE
  5
1D33C
  8
0
 10
4431.4754713097681815
 20
222.9085905834064931
 30
0.0
 11
4431.4754713097681815
 21
222.8952101074245888
 31
0.0
  0
LINE
  5
1D33D
  8
0
 10
4431.5004713097669082
 20
222.8954866332011875
 30
0.0
 11
4431.5004713097669082
 21
222.9085905834064931
 31
0.0
  0
LINE
  5
1D33E
  8
0
 10
4431.5004713097669082
 20
222.9135905834064886
 30
0.0
 11
4431.5004713097669082
 21
222.9335905834066125
 31
0.0
  0
LINE
  5
1D33F
  8
0
 10
4431.5004713097669082
 20
222.9385905834066079
 30
0.0
 11
4431.5004713097669082
 21
222.9585905834065898
 31
0.0
  0
LINE
  5
1D340
  8
0
 10
4431.5004713097669082
 20
222.9635905834066136
 30
0.0
 11
4431.5004713097669082
 21
222.9835905834065102
 31
0.0
  0
LINE
  5
1D341
  8
0
 10
4431.5004713097669082
 20
222.9885905834065909
 30
0.0
 11
4431.5004713097669082
 21
223.0085905834064874
 31
0.0
  0
LINE
  5
1D342
  8
0
 10
4431.5004713097669082
 20
223.0135905834065113
 30
0.0
 11
4431.5004713097669082
 21
223.0335905834066068
 31
0.0
  0
LINE
  5
1D343
  8
0
 10
4431.5004713097669082
 20
223.0385905834066023
 30
0.0
 11
4431.5004713097669082
 21
223.0585905834066125
 31
0.0
  0
LINE
  5
1D344
  8
0
 10
4431.5004713097669082
 20
223.0635905834064943
 30
0.0
 11
4431.5004713097669082
 21
223.0835905834065898
 31
0.0
  0
LINE
  5
1D345
  8
0
 10
4431.5004713097669082
 20
223.0885905834066136
 30
0.0
 11
4431.5004713097669082
 21
223.1085905834065954
 31
0.0
  0
LINE
  5
1D346
  8
0
 10
4431.5004713097669082
 20
223.1135905834065909
 30
0.0
 11
4431.5004713097669082
 21
223.1335905834066011
 31
0.0
  0
LINE
  5
1D347
  8
0
 10
4431.5004713097669082
 20
223.1385905834065113
 30
0.0
 11
4431.5004713097669082
 21
223.1585905834064931
 31
0.0
  0
LINE
  5
1D348
  8
0
 10
4431.5004713097669082
 20
223.1635905834064886
 30
0.0
 11
4431.5004713097669082
 21
223.1835905834066125
 31
0.0
  0
LINE
  5
1D349
  8
0
 10
4431.5004713097669082
 20
223.1885905834066079
 30
0.0
 11
4431.5004713097669082
 21
223.2085905834065898
 31
0.0
  0
LINE
  5
1D34A
  8
0
 10
4431.5004713097669082
 20
223.2135905834064999
 30
0.0
 11
4431.5004713097669082
 21
223.2335905834065954
 31
0.0
  0
LINE
  5
1D34B
  8
0
 10
4431.5004713097669082
 20
223.2385905834065909
 30
0.0
 11
4431.5004713097669082
 21
223.2585905834064874
 31
0.0
  0
LINE
  5
1D34C
  8
0
 10
4431.5004713097669082
 20
223.2635905834065113
 30
0.0
 11
4431.5004713097669082
 21
223.2835905834066068
 31
0.0
  0
LINE
  5
1D34D
  8
0
 10
4431.5004713097669082
 20
223.2885905834064886
 30
0.0
 11
4431.5004713097669082
 21
223.3085905834064988
 31
0.0
  0
LINE
  5
1D34E
  8
0
 10
4431.5004713097669082
 20
223.3385905834066136
 30
0.0
 11
4431.5004713097669082
 21
223.3472475324118989
 31
0.0
  0
LINE
  5
1D34F
  8
0
 10
4431.5004713097669082
 20
223.3135905834064943
 30
0.0
 11
4431.5004713097669082
 21
223.3335905834065898
 31
0.0
  0
LINE
  5
1D350
  8
0
 10
4431.5054713097679269
 20
223.3468598266231027
 30
0.0
 11
4431.5054713097679269
 21
223.3385905834066136
 31
0.0
  0
LINE
  5
1D351
  8
0
 10
4431.5054713097679269
 20
223.3335905834065898
 30
0.0
 11
4431.5054713097679269
 21
223.3135905834064943
 31
0.0
  0
LINE
  5
1D352
  8
0
 10
4431.5054713097679269
 20
223.3085905834064988
 30
0.0
 11
4431.5054713097679269
 21
223.2885905834064886
 31
0.0
  0
LINE
  5
1D353
  8
0
 10
4431.5054713097679269
 20
223.2835905834066068
 30
0.0
 11
4431.5054713097679269
 21
223.2635905834065113
 31
0.0
  0
LINE
  5
1D354
  8
0
 10
4431.5054713097679269
 20
223.2585905834064874
 30
0.0
 11
4431.5054713097679269
 21
223.2385905834065909
 31
0.0
  0
LINE
  5
1D355
  8
0
 10
4431.5054713097679269
 20
223.2335905834065954
 30
0.0
 11
4431.5054713097679269
 21
223.2135905834064999
 31
0.0
  0
LINE
  5
1D356
  8
0
 10
4431.5054713097679269
 20
223.2085905834065898
 30
0.0
 11
4431.5054713097679269
 21
223.1885905834066079
 31
0.0
  0
LINE
  5
1D357
  8
0
 10
4431.5054713097679269
 20
223.1835905834066125
 30
0.0
 11
4431.5054713097679269
 21
223.1635905834064886
 31
0.0
  0
LINE
  5
1D358
  8
0
 10
4431.5054713097679269
 20
223.1585905834064931
 30
0.0
 11
4431.5054713097679269
 21
223.1385905834065113
 31
0.0
  0
LINE
  5
1D359
  8
0
 10
4431.5054713097679269
 20
223.1335905834066011
 30
0.0
 11
4431.5054713097679269
 21
223.1135905834065909
 31
0.0
  0
LINE
  5
1D35A
  8
0
 10
4431.5054713097679269
 20
223.1085905834065954
 30
0.0
 11
4431.5054713097679269
 21
223.0885905834066136
 31
0.0
  0
LINE
  5
1D35B
  8
0
 10
4431.5054713097679269
 20
223.0835905834065898
 30
0.0
 11
4431.5054713097679269
 21
223.0635905834064943
 31
0.0
  0
LINE
  5
1D35C
  8
0
 10
4431.5054713097679269
 20
223.0585905834066125
 30
0.0
 11
4431.5054713097679269
 21
223.0385905834066023
 31
0.0
  0
LINE
  5
1D35D
  8
0
 10
4431.5054713097679269
 20
223.0335905834066068
 30
0.0
 11
4431.5054713097679269
 21
223.0135905834065113
 31
0.0
  0
LINE
  5
1D35E
  8
0
 10
4431.5054713097679269
 20
223.0085905834064874
 30
0.0
 11
4431.5054713097679269
 21
222.9885905834065909
 31
0.0
  0
LINE
  5
1D35F
  8
0
 10
4431.5054713097679269
 20
222.9835905834065102
 30
0.0
 11
4431.5054713097679269
 21
222.9635905834066136
 31
0.0
  0
LINE
  5
1D360
  8
0
 10
4431.5054713097679269
 20
222.9585905834065898
 30
0.0
 11
4431.5054713097679269
 21
222.9385905834066079
 31
0.0
  0
LINE
  5
1D361
  8
0
 10
4431.5054713097679269
 20
222.9335905834066125
 30
0.0
 11
4431.5054713097679269
 21
222.9135905834064886
 31
0.0
  0
LINE
  5
1D362
  8
0
 10
4431.5054713097679269
 20
222.9085905834064931
 30
0.0
 11
4431.5054713097679269
 21
222.8958743389900121
 31
0.0
  0
LINE
  5
1D363
  8
0
 10
4431.5304713097693821
 20
222.8995068170671914
 30
0.0
 11
4431.5304713097693821
 21
222.9085905834064931
 31
0.0
  0
LINE
  5
1D364
  8
0
 10
4431.5304713097693821
 20
222.9135905834064886
 30
0.0
 11
4431.5304713097693821
 21
222.9335905834066125
 31
0.0
  0
LINE
  5
1D365
  8
0
 10
4431.5304713097693821
 20
222.9385905834066079
 30
0.0
 11
4431.5304713097693821
 21
222.9585905834065898
 31
0.0
  0
LINE
  5
1D366
  8
0
 10
4431.5304713097693821
 20
222.9635905834066136
 30
0.0
 11
4431.5304713097693821
 21
222.9835905834065102
 31
0.0
  0
LINE
  5
1D367
  8
0
 10
4431.5304713097693821
 20
222.9885905834065909
 30
0.0
 11
4431.5304713097693821
 21
223.0085905834064874
 31
0.0
  0
LINE
  5
1D368
  8
0
 10
4431.5304713097693821
 20
223.0135905834065113
 30
0.0
 11
4431.5304713097693821
 21
223.0335905834066068
 31
0.0
  0
LINE
  5
1D369
  8
0
 10
4431.5304713097693821
 20
223.0385905834066023
 30
0.0
 11
4431.5304713097693821
 21
223.0585905834066125
 31
0.0
  0
LINE
  5
1D36A
  8
0
 10
4431.5304713097693821
 20
223.0635905834064943
 30
0.0
 11
4431.5304713097693821
 21
223.0835905834065898
 31
0.0
  0
LINE
  5
1D36B
  8
0
 10
4431.5304713097693821
 20
223.0885905834066136
 30
0.0
 11
4431.5304713097693821
 21
223.1085905834065954
 31
0.0
  0
LINE
  5
1D36C
  8
0
 10
4431.5304713097693821
 20
223.1135905834065909
 30
0.0
 11
4431.5304713097693821
 21
223.1335905834066011
 31
0.0
  0
LINE
  5
1D36D
  8
0
 10
4431.5304713097693821
 20
223.1385905834065113
 30
0.0
 11
4431.5304713097693821
 21
223.1585905834064931
 31
0.0
  0
LINE
  5
1D36E
  8
0
 10
4431.5304713097693821
 20
223.1635905834064886
 30
0.0
 11
4431.5304713097693821
 21
223.1835905834066125
 31
0.0
  0
LINE
  5
1D36F
  8
0
 10
4431.5304713097693821
 20
223.1885905834066079
 30
0.0
 11
4431.5304713097693821
 21
223.2085905834065898
 31
0.0
  0
LINE
  5
1D370
  8
0
 10
4431.5304713097693821
 20
223.2135905834064999
 30
0.0
 11
4431.5304713097693821
 21
223.2335905834065954
 31
0.0
  0
LINE
  5
1D371
  8
0
 10
4431.5304713097693821
 20
223.2385905834065909
 30
0.0
 11
4431.5304713097693821
 21
223.2585905834064874
 31
0.0
  0
LINE
  5
1D372
  8
0
 10
4431.5304713097693821
 20
223.2635905834065113
 30
0.0
 11
4431.5304713097693821
 21
223.2835905834066068
 31
0.0
  0
LINE
  5
1D373
  8
0
 10
4431.5304713097693821
 20
223.2885905834064886
 30
0.0
 11
4431.5304713097693821
 21
223.3085905834064988
 31
0.0
  0
LINE
  5
1D374
  8
0
 10
4431.5304713097693821
 20
223.3385905834066136
 30
0.0
 11
4431.5304713097693821
 21
223.343227348545895
 31
0.0
  0
LINE
  5
1D375
  8
0
 10
4431.5304713097693821
 20
223.3135905834064943
 30
0.0
 11
4431.5304713097693821
 21
223.3335905834065898
 31
0.0
  0
LINE
  5
1D376
  8
0
 10
4431.5354713097667627
 20
223.3335905834065898
 30
0.0
 11
4431.5354713097667627
 21
223.3135905834064943
 31
0.0
  0
LINE
  5
1D377
  8
0
 10
4431.5354713097667627
 20
223.3421542597754978
 30
0.0
 11
4431.5354713097667627
 21
223.3385905834066136
 31
0.0
  0
LINE
  5
1D378
  8
0
 10
4431.5354713097667627
 20
223.3085905834064988
 30
0.0
 11
4431.5354713097667627
 21
223.2885905834064886
 31
0.0
  0
LINE
  5
1D379
  8
0
 10
4431.5354713097667627
 20
223.2835905834066068
 30
0.0
 11
4431.5354713097667627
 21
223.2635905834065113
 31
0.0
  0
LINE
  5
1D37A
  8
0
 10
4431.5354713097667627
 20
223.2585905834064874
 30
0.0
 11
4431.5354713097667627
 21
223.2385905834065909
 31
0.0
  0
LINE
  5
1D37B
  8
0
 10
4431.5354713097667627
 20
223.2335905834065954
 30
0.0
 11
4431.5354713097667627
 21
223.2135905834064999
 31
0.0
  0
LINE
  5
1D37C
  8
0
 10
4431.5354713097667627
 20
223.2085905834065898
 30
0.0
 11
4431.5354713097667627
 21
223.1885905834066079
 31
0.0
  0
LINE
  5
1D37D
  8
0
 10
4431.5354713097667627
 20
223.1835905834066125
 30
0.0
 11
4431.5354713097667627
 21
223.1635905834064886
 31
0.0
  0
LINE
  5
1D37E
  8
0
 10
4431.5354713097667627
 20
223.1585905834064931
 30
0.0
 11
4431.5354713097667627
 21
223.1385905834065113
 31
0.0
  0
LINE
  5
1D37F
  8
0
 10
4431.5354713097667627
 20
223.1335905834066011
 30
0.0
 11
4431.5354713097667627
 21
223.1135905834065909
 31
0.0
  0
LINE
  5
1D380
  8
0
 10
4431.5354713097667627
 20
223.1085905834065954
 30
0.0
 11
4431.5354713097667627
 21
223.0885905834066136
 31
0.0
  0
LINE
  5
1D381
  8
0
 10
4431.5354713097667627
 20
223.0835905834065898
 30
0.0
 11
4431.5354713097667627
 21
223.0635905834064943
 31
0.0
  0
LINE
  5
1D382
  8
0
 10
4431.5354713097667627
 20
223.0585905834066125
 30
0.0
 11
4431.5354713097667627
 21
223.0385905834066023
 31
0.0
  0
LINE
  5
1D383
  8
0
 10
4431.5354713097667627
 20
223.0335905834066068
 30
0.0
 11
4431.5354713097667627
 21
223.0135905834065113
 31
0.0
  0
LINE
  5
1D384
  8
0
 10
4431.5354713097667627
 20
223.0085905834064874
 30
0.0
 11
4431.5354713097667627
 21
222.9885905834065909
 31
0.0
  0
LINE
  5
1D385
  8
0
 10
4431.5354713097667627
 20
222.9835905834065102
 30
0.0
 11
4431.5354713097667627
 21
222.9635905834066136
 31
0.0
  0
LINE
  5
1D386
  8
0
 10
4431.5354713097667627
 20
222.9585905834065898
 30
0.0
 11
4431.5354713097667627
 21
222.9385905834066079
 31
0.0
  0
LINE
  5
1D387
  8
0
 10
4431.5354713097667627
 20
222.9335905834066125
 30
0.0
 11
4431.5354713097667627
 21
222.9135905834064886
 31
0.0
  0
LINE
  5
1D388
  8
0
 10
4431.5354713097667627
 20
222.9085905834064931
 30
0.0
 11
4431.5354713097667627
 21
222.9005799058375885
 31
0.0
  0
LINE
  5
1D389
  8
0
 10
4431.5604713097682179
 20
222.9077740643955963
 30
0.0
 11
4431.5604713097682179
 21
222.9085905834064931
 31
0.0
  0
LINE
  5
1D38A
  8
0
 10
4431.5604713097682179
 20
222.9135905834064886
 30
0.0
 11
4431.5604713097682179
 21
222.9335905834066125
 31
0.0
  0
LINE
  5
1D38B
  8
0
 10
4431.5604713097682179
 20
222.9385905834066079
 30
0.0
 11
4431.5604713097682179
 21
222.9585905834065898
 31
0.0
  0
LINE
  5
1D38C
  8
0
 10
4431.5604713097682179
 20
222.9635905834066136
 30
0.0
 11
4431.5604713097682179
 21
222.9835905834065102
 31
0.0
  0
LINE
  5
1D38D
  8
0
 10
4431.5604713097682179
 20
222.9885905834065909
 30
0.0
 11
4431.5604713097682179
 21
223.0085905834064874
 31
0.0
  0
LINE
  5
1D38E
  8
0
 10
4431.5604713097682179
 20
223.0135905834065113
 30
0.0
 11
4431.5604713097682179
 21
223.0335905834066068
 31
0.0
  0
LINE
  5
1D38F
  8
0
 10
4431.5604713097682179
 20
223.0385905834066023
 30
0.0
 11
4431.5604713097682179
 21
223.0585905834066125
 31
0.0
  0
LINE
  5
1D390
  8
0
 10
4431.5604713097682179
 20
223.0635905834064943
 30
0.0
 11
4431.5604713097682179
 21
223.0835905834065898
 31
0.0
  0
LINE
  5
1D391
  8
0
 10
4431.5604713097682179
 20
223.0885905834066136
 30
0.0
 11
4431.5604713097682179
 21
223.1085905834065954
 31
0.0
  0
LINE
  5
1D392
  8
0
 10
4431.5604713097682179
 20
223.1135905834065909
 30
0.0
 11
4431.5604713097682179
 21
223.1335905834066011
 31
0.0
  0
LINE
  5
1D393
  8
0
 10
4431.5604713097682179
 20
223.1385905834065113
 30
0.0
 11
4431.5604713097682179
 21
223.1585905834064931
 31
0.0
  0
LINE
  5
1D394
  8
0
 10
4431.5604713097682179
 20
223.1635905834064886
 30
0.0
 11
4431.5604713097682179
 21
223.1835905834066125
 31
0.0
  0
LINE
  5
1D395
  8
0
 10
4431.5604713097682179
 20
223.1885905834066079
 30
0.0
 11
4431.5604713097682179
 21
223.2085905834065898
 31
0.0
  0
LINE
  5
1D396
  8
0
 10
4431.5604713097682179
 20
223.2135905834064999
 30
0.0
 11
4431.5604713097682179
 21
223.2335905834065954
 31
0.0
  0
LINE
  5
1D397
  8
0
 10
4431.5604713097682179
 20
223.2385905834065909
 30
0.0
 11
4431.5604713097682179
 21
223.2585905834064874
 31
0.0
  0
LINE
  5
1D398
  8
0
 10
4431.5604713097682179
 20
223.2635905834065113
 30
0.0
 11
4431.5604713097682179
 21
223.2835905834066068
 31
0.0
  0
LINE
  5
1D399
  8
0
 10
4431.5604713097682179
 20
223.2885905834064886
 30
0.0
 11
4431.5604713097682179
 21
223.3085905834064988
 31
0.0
  0
LINE
  5
1D39A
  8
0
 10
4431.5604713097682179
 20
223.3135905834064943
 30
0.0
 11
4431.5604713097682179
 21
223.3335905834065898
 31
0.0
  0
LINE
  5
1D39B
  8
0
 10
4431.565471309768327
 20
223.333138132560606
 30
0.0
 11
4431.565471309768327
 21
223.3135905834064943
 31
0.0
  0
LINE
  5
1D39C
  8
0
 10
4431.565471309768327
 20
223.3085905834064988
 30
0.0
 11
4431.565471309768327
 21
223.2885905834064886
 31
0.0
  0
LINE
  5
1D39D
  8
0
 10
4431.565471309768327
 20
223.2835905834066068
 30
0.0
 11
4431.565471309768327
 21
223.2635905834065113
 31
0.0
  0
LINE
  5
1D39E
  8
0
 10
4431.565471309768327
 20
223.2585905834064874
 30
0.0
 11
4431.565471309768327
 21
223.2385905834065909
 31
0.0
  0
LINE
  5
1D39F
  8
0
 10
4431.565471309768327
 20
223.2335905834065954
 30
0.0
 11
4431.565471309768327
 21
223.2135905834064999
 31
0.0
  0
LINE
  5
1D3A0
  8
0
 10
4431.565471309768327
 20
223.2085905834065898
 30
0.0
 11
4431.565471309768327
 21
223.1885905834066079
 31
0.0
  0
LINE
  5
1D3A1
  8
0
 10
4431.565471309768327
 20
223.1835905834066125
 30
0.0
 11
4431.565471309768327
 21
223.1635905834064886
 31
0.0
  0
LINE
  5
1D3A2
  8
0
 10
4431.565471309768327
 20
223.1585905834064931
 30
0.0
 11
4431.565471309768327
 21
223.1385905834065113
 31
0.0
  0
LINE
  5
1D3A3
  8
0
 10
4431.565471309768327
 20
223.1335905834066011
 30
0.0
 11
4431.565471309768327
 21
223.1135905834065909
 31
0.0
  0
LINE
  5
1D3A4
  8
0
 10
4431.565471309768327
 20
223.1085905834065954
 30
0.0
 11
4431.565471309768327
 21
223.0885905834066136
 31
0.0
  0
LINE
  5
1D3A5
  8
0
 10
4431.565471309768327
 20
223.0835905834065898
 30
0.0
 11
4431.565471309768327
 21
223.0635905834064943
 31
0.0
  0
LINE
  5
1D3A6
  8
0
 10
4431.565471309768327
 20
223.0585905834066125
 30
0.0
 11
4431.565471309768327
 21
223.0385905834066023
 31
0.0
  0
LINE
  5
1D3A7
  8
0
 10
4431.565471309768327
 20
223.0335905834066068
 30
0.0
 11
4431.565471309768327
 21
223.0135905834065113
 31
0.0
  0
LINE
  5
1D3A8
  8
0
 10
4431.565471309768327
 20
223.0085905834064874
 30
0.0
 11
4431.565471309768327
 21
222.9885905834065909
 31
0.0
  0
LINE
  5
1D3A9
  8
0
 10
4431.565471309768327
 20
222.9835905834065102
 30
0.0
 11
4431.565471309768327
 21
222.9635905834066136
 31
0.0
  0
LINE
  5
1D3AA
  8
0
 10
4431.565471309768327
 20
222.9585905834065898
 30
0.0
 11
4431.565471309768327
 21
222.9385905834066079
 31
0.0
  0
LINE
  5
1D3AB
  8
0
 10
4431.565471309768327
 20
222.9335905834066125
 30
0.0
 11
4431.565471309768327
 21
222.9135905834064886
 31
0.0
  0
LINE
  5
1D3AC
  8
0
 10
4431.5904713097679632
 20
222.920812906799398
 30
0.0
 11
4431.5904713097679632
 21
222.9335905834066125
 31
0.0
  0
LINE
  5
1D3AD
  8
0
 10
4431.5904713097679632
 20
222.9385905834066079
 30
0.0
 11
4431.5904713097679632
 21
222.9585905834065898
 31
0.0
  0
LINE
  5
1D3AE
  8
0
 10
4431.5904713097679632
 20
222.9635905834066136
 30
0.0
 11
4431.5904713097679632
 21
222.9835905834065102
 31
0.0
  0
LINE
  5
1D3AF
  8
0
 10
4431.5904713097679632
 20
222.9885905834065909
 30
0.0
 11
4431.5904713097679632
 21
223.0085905834064874
 31
0.0
  0
LINE
  5
1D3B0
  8
0
 10
4431.5904713097679632
 20
223.0135905834065113
 30
0.0
 11
4431.5904713097679632
 21
223.0335905834066068
 31
0.0
  0
LINE
  5
1D3B1
  8
0
 10
4431.5904713097679632
 20
223.0385905834066023
 30
0.0
 11
4431.5904713097679632
 21
223.0585905834066125
 31
0.0
  0
LINE
  5
1D3B2
  8
0
 10
4431.5904713097679632
 20
223.0635905834064943
 30
0.0
 11
4431.5904713097679632
 21
223.0835905834065898
 31
0.0
  0
LINE
  5
1D3B3
  8
0
 10
4431.5904713097679632
 20
223.0885905834066136
 30
0.0
 11
4431.5904713097679632
 21
223.1085905834065954
 31
0.0
  0
LINE
  5
1D3B4
  8
0
 10
4431.5904713097679632
 20
223.1135905834065909
 30
0.0
 11
4431.5904713097679632
 21
223.1335905834066011
 31
0.0
  0
LINE
  5
1D3B5
  8
0
 10
4431.5904713097679632
 20
223.1385905834065113
 30
0.0
 11
4431.5904713097679632
 21
223.1585905834064931
 31
0.0
  0
LINE
  5
1D3B6
  8
0
 10
4431.5904713097679632
 20
223.1635905834064886
 30
0.0
 11
4431.5904713097679632
 21
223.1835905834066125
 31
0.0
  0
LINE
  5
1D3B7
  8
0
 10
4431.5904713097679632
 20
223.1885905834066079
 30
0.0
 11
4431.5904713097679632
 21
223.2085905834065898
 31
0.0
  0
LINE
  5
1D3B8
  8
0
 10
4431.5904713097679632
 20
223.2135905834064999
 30
0.0
 11
4431.5904713097679632
 21
223.2335905834065954
 31
0.0
  0
LINE
  5
1D3B9
  8
0
 10
4431.5904713097679632
 20
223.2385905834065909
 30
0.0
 11
4431.5904713097679632
 21
223.2585905834064874
 31
0.0
  0
LINE
  5
1D3BA
  8
0
 10
4431.5904713097679632
 20
223.2635905834065113
 30
0.0
 11
4431.5904713097679632
 21
223.2835905834066068
 31
0.0
  0
LINE
  5
1D3BB
  8
0
 10
4431.5904713097679632
 20
223.2885905834064886
 30
0.0
 11
4431.5904713097679632
 21
223.3085905834064988
 31
0.0
  0
LINE
  5
1D3BC
  8
0
 10
4431.5904713097679632
 20
223.3135905834064943
 30
0.0
 11
4431.5904713097679632
 21
223.3219212588136884
 31
0.0
  0
LINE
  5
1D3BD
  8
0
 10
4431.5954713097680724
 20
223.3192230342305891
 30
0.0
 11
4431.5954713097680724
 21
223.3135905834064943
 31
0.0
  0
LINE
  5
1D3BE
  8
0
 10
4431.5954713097680724
 20
223.3085905834064988
 30
0.0
 11
4431.5954713097680724
 21
223.2885905834064886
 31
0.0
  0
LINE
  5
1D3BF
  8
0
 10
4431.5954713097680724
 20
223.2835905834066068
 30
0.0
 11
4431.5954713097680724
 21
223.2635905834065113
 31
0.0
  0
LINE
  5
1D3C0
  8
0
 10
4431.5954713097680724
 20
223.2585905834064874
 30
0.0
 11
4431.5954713097680724
 21
223.2385905834065909
 31
0.0
  0
LINE
  5
1D3C1
  8
0
 10
4431.5954713097680724
 20
223.2335905834065954
 30
0.0
 11
4431.5954713097680724
 21
223.2135905834064999
 31
0.0
  0
LINE
  5
1D3C2
  8
0
 10
4431.5954713097680724
 20
223.2085905834065898
 30
0.0
 11
4431.5954713097680724
 21
223.1885905834066079
 31
0.0
  0
LINE
  5
1D3C3
  8
0
 10
4431.5954713097680724
 20
223.1835905834066125
 30
0.0
 11
4431.5954713097680724
 21
223.1635905834064886
 31
0.0
  0
LINE
  5
1D3C4
  8
0
 10
4431.5954713097680724
 20
223.1585905834064931
 30
0.0
 11
4431.5954713097680724
 21
223.1385905834065113
 31
0.0
  0
LINE
  5
1D3C5
  8
0
 10
4431.5954713097680724
 20
223.1335905834066011
 30
0.0
 11
4431.5954713097680724
 21
223.1135905834065909
 31
0.0
  0
LINE
  5
1D3C6
  8
0
 10
4431.5954713097680724
 20
223.1085905834065954
 30
0.0
 11
4431.5954713097680724
 21
223.0885905834066136
 31
0.0
  0
LINE
  5
1D3C7
  8
0
 10
4431.5954713097680724
 20
223.0835905834065898
 30
0.0
 11
4431.5954713097680724
 21
223.0635905834064943
 31
0.0
  0
LINE
  5
1D3C8
  8
0
 10
4431.5954713097680724
 20
223.0585905834066125
 30
0.0
 11
4431.5954713097680724
 21
223.0385905834066023
 31
0.0
  0
LINE
  5
1D3C9
  8
0
 10
4431.5954713097680724
 20
223.0335905834066068
 30
0.0
 11
4431.5954713097680724
 21
223.0135905834065113
 31
0.0
  0
LINE
  5
1D3CA
  8
0
 10
4431.5954713097680724
 20
223.0085905834064874
 30
0.0
 11
4431.5954713097680724
 21
222.9885905834065909
 31
0.0
  0
LINE
  5
1D3CB
  8
0
 10
4431.5954713097680724
 20
222.9835905834065102
 30
0.0
 11
4431.5954713097680724
 21
222.9635905834066136
 31
0.0
  0
LINE
  5
1D3CC
  8
0
 10
4431.5954713097680724
 20
222.9585905834065898
 30
0.0
 11
4431.5954713097680724
 21
222.9385905834066079
 31
0.0
  0
LINE
  5
1D3CD
  8
0
 10
4431.5954713097680724
 20
222.9335905834066125
 30
0.0
 11
4431.5954713097680724
 21
222.9235111313824973
 31
0.0
  0
LINE
  5
1D3CE
  8
0
 10
4431.6204713097667991
 20
222.9396475805127125
 30
0.0
 11
4431.6204713097667991
 21
222.9585905834065898
 31
0.0
  0
LINE
  5
1D3CF
  8
0
 10
4431.6204713097667991
 20
222.9635905834066136
 30
0.0
 11
4431.6204713097667991
 21
222.9835905834065102
 31
0.0
  0
LINE
  5
1D3D0
  8
0
 10
4431.6204713097667991
 20
222.9885905834065909
 30
0.0
 11
4431.6204713097667991
 21
223.0085905834064874
 31
0.0
  0
LINE
  5
1D3D1
  8
0
 10
4431.6204713097667991
 20
223.0135905834065113
 30
0.0
 11
4431.6204713097667991
 21
223.0335905834066068
 31
0.0
  0
LINE
  5
1D3D2
  8
0
 10
4431.6204713097667991
 20
223.0385905834066023
 30
0.0
 11
4431.6204713097667991
 21
223.0585905834066125
 31
0.0
  0
LINE
  5
1D3D3
  8
0
 10
4431.6204713097667991
 20
223.0635905834064943
 30
0.0
 11
4431.6204713097667991
 21
223.0835905834065898
 31
0.0
  0
LINE
  5
1D3D4
  8
0
 10
4431.6204713097667991
 20
223.0885905834066136
 30
0.0
 11
4431.6204713097667991
 21
223.1085905834065954
 31
0.0
  0
LINE
  5
1D3D5
  8
0
 10
4431.6204713097667991
 20
223.1135905834065909
 30
0.0
 11
4431.6204713097667991
 21
223.1335905834066011
 31
0.0
  0
LINE
  5
1D3D6
  8
0
 10
4431.6204713097667991
 20
223.1385905834065113
 30
0.0
 11
4431.6204713097667991
 21
223.1585905834064931
 31
0.0
  0
LINE
  5
1D3D7
  8
0
 10
4431.6204713097667991
 20
223.1635905834064886
 30
0.0
 11
4431.6204713097667991
 21
223.1835905834066125
 31
0.0
  0
LINE
  5
1D3D8
  8
0
 10
4431.6204713097667991
 20
223.1885905834066079
 30
0.0
 11
4431.6204713097667991
 21
223.2085905834065898
 31
0.0
  0
LINE
  5
1D3D9
  8
0
 10
4431.6204713097667991
 20
223.2135905834064999
 30
0.0
 11
4431.6204713097667991
 21
223.2335905834065954
 31
0.0
  0
LINE
  5
1D3DA
  8
0
 10
4431.6204713097667991
 20
223.2385905834065909
 30
0.0
 11
4431.6204713097667991
 21
223.2585905834064874
 31
0.0
  0
LINE
  5
1D3DB
  8
0
 10
4431.6204713097667991
 20
223.2635905834065113
 30
0.0
 11
4431.6204713097667991
 21
223.2835905834066068
 31
0.0
  0
LINE
  5
1D3DC
  8
0
 10
4431.6204713097667991
 20
223.2885905834064886
 30
0.0
 11
4431.6204713097667991
 21
223.3030865851004023
 31
0.0
  0
LINE
  5
1D3DD
  8
0
 10
4431.6254713097669082
 20
223.2992630566618004
 30
0.0
 11
4431.6254713097669082
 21
223.2885905834064886
 31
0.0
  0
LINE
  5
1D3DE
  8
0
 10
4431.6254713097669082
 20
223.2835905834066068
 30
0.0
 11
4431.6254713097669082
 21
223.2635905834065113
 31
0.0
  0
LINE
  5
1D3DF
  8
0
 10
4431.6254713097669082
 20
223.2585905834064874
 30
0.0
 11
4431.6254713097669082
 21
223.2385905834065909
 31
0.0
  0
LINE
  5
1D3E0
  8
0
 10
4431.6254713097669082
 20
223.2335905834065954
 30
0.0
 11
4431.6254713097669082
 21
223.2135905834064999
 31
0.0
  0
LINE
  5
1D3E1
  8
0
 10
4431.6254713097669082
 20
223.2085905834065898
 30
0.0
 11
4431.6254713097669082
 21
223.1885905834066079
 31
0.0
  0
LINE
  5
1D3E2
  8
0
 10
4431.6254713097669082
 20
223.1835905834066125
 30
0.0
 11
4431.6254713097669082
 21
223.1635905834064886
 31
0.0
  0
LINE
  5
1D3E3
  8
0
 10
4431.6254713097669082
 20
223.1585905834064931
 30
0.0
 11
4431.6254713097669082
 21
223.1385905834065113
 31
0.0
  0
LINE
  5
1D3E4
  8
0
 10
4431.6254713097669082
 20
223.1335905834066011
 30
0.0
 11
4431.6254713097669082
 21
223.1135905834065909
 31
0.0
  0
LINE
  5
1D3E5
  8
0
 10
4431.6254713097669082
 20
223.1085905834065954
 30
0.0
 11
4431.6254713097669082
 21
223.0885905834066136
 31
0.0
  0
LINE
  5
1D3E6
  8
0
 10
4431.6254713097669082
 20
223.0835905834065898
 30
0.0
 11
4431.6254713097669082
 21
223.0635905834064943
 31
0.0
  0
LINE
  5
1D3E7
  8
0
 10
4431.6254713097669082
 20
223.0585905834066125
 30
0.0
 11
4431.6254713097669082
 21
223.0385905834066023
 31
0.0
  0
LINE
  5
1D3E8
  8
0
 10
4431.6254713097669082
 20
223.0335905834066068
 30
0.0
 11
4431.6254713097669082
 21
223.0135905834065113
 31
0.0
  0
LINE
  5
1D3E9
  8
0
 10
4431.6254713097669082
 20
223.0085905834064874
 30
0.0
 11
4431.6254713097669082
 21
222.9885905834065909
 31
0.0
  0
LINE
  5
1D3EA
  8
0
 10
4431.6254713097669082
 20
222.9835905834065102
 30
0.0
 11
4431.6254713097669082
 21
222.9635905834066136
 31
0.0
  0
LINE
  5
1D3EB
  8
0
 10
4431.6254713097669082
 20
222.9585905834065898
 30
0.0
 11
4431.6254712729678431
 21
222.9434710799905019
 31
0.0
  0
LINE
  5
1D3EC
  8
0
 10
4431.6504713097683634
 20
222.9663768330682956
 30
0.0
 11
4431.6504713097683634
 21
222.9835905834065102
 31
0.0
  0
LINE
  5
1D3ED
  8
0
 10
4431.6504713097683634
 20
222.9885905834065909
 30
0.0
 11
4431.6504713097683634
 21
223.0085905834064874
 31
0.0
  0
LINE
  5
1D3EE
  8
0
 10
4431.6504713097683634
 20
223.0135905834065113
 30
0.0
 11
4431.6504713097683634
 21
223.0335905834066068
 31
0.0
  0
LINE
  5
1D3EF
  8
0
 10
4431.6504713097683634
 20
223.0385905834066023
 30
0.0
 11
4431.6504713097683634
 21
223.0585905834066125
 31
0.0
  0
LINE
  5
1D3F0
  8
0
 10
4431.6504713097683634
 20
223.0635905834064943
 30
0.0
 11
4431.6504713097683634
 21
223.0835905834065898
 31
0.0
  0
LINE
  5
1D3F1
  8
0
 10
4431.6504713097683634
 20
223.0885905834066136
 30
0.0
 11
4431.6504713097683634
 21
223.1085905834065954
 31
0.0
  0
LINE
  5
1D3F2
  8
0
 10
4431.6504713097683634
 20
223.1135905834065909
 30
0.0
 11
4431.6504713097683634
 21
223.1335905834066011
 31
0.0
  0
LINE
  5
1D3F3
  8
0
 10
4431.6504713097683634
 20
223.1385905834065113
 30
0.0
 11
4431.6504713097683634
 21
223.1585905834064931
 31
0.0
  0
LINE
  5
1D3F4
  8
0
 10
4431.6504713097683634
 20
223.1635905834064886
 30
0.0
 11
4431.6504713097683634
 21
223.1835905834066125
 31
0.0
  0
LINE
  5
1D3F5
  8
0
 10
4431.6504713097683634
 20
223.1885905834066079
 30
0.0
 11
4431.6504713097683634
 21
223.2085905834065898
 31
0.0
  0
LINE
  5
1D3F6
  8
0
 10
4431.6504713097683634
 20
223.2135905834064999
 30
0.0
 11
4431.6504713097683634
 21
223.2335905834065954
 31
0.0
  0
LINE
  5
1D3F7
  8
0
 10
4431.6504713097683634
 20
223.2385905834065909
 30
0.0
 11
4431.6504713097683634
 21
223.2585905834064874
 31
0.0
  0
LINE
  5
1D3F8
  8
0
 10
4431.6504713097683634
 20
223.2635905834065113
 30
0.0
 11
4431.6504713097683634
 21
223.2763573325447908
 31
0.0
  0
LINE
  5
1D3F9
  8
0
 10
4431.6554713097693821
 20
223.2708561376364003
 30
0.0
 11
4431.6554713097693821
 21
223.2635905834065113
 31
0.0
  0
LINE
  5
1D3FA
  8
0
 10
4431.6554713097693821
 20
223.2585905834064874
 30
0.0
 11
4431.6554713097693821
 21
223.2385905834065909
 31
0.0
  0
LINE
  5
1D3FB
  8
0
 10
4431.6554713097693821
 20
223.2335905834065954
 30
0.0
 11
4431.6554713097693821
 21
223.2135905834064999
 31
0.0
  0
LINE
  5
1D3FC
  8
0
 10
4431.6554713097693821
 20
223.2085905834065898
 30
0.0
 11
4431.6554713097693821
 21
223.1885905834066079
 31
0.0
  0
LINE
  5
1D3FD
  8
0
 10
4431.6554713097693821
 20
223.1835905834066125
 30
0.0
 11
4431.6554713097693821
 21
223.1635905834064886
 31
0.0
  0
LINE
  5
1D3FE
  8
0
 10
4431.6554713097693821
 20
223.1585905834064931
 30
0.0
 11
4431.6554713097693821
 21
223.1385905834065113
 31
0.0
  0
LINE
  5
1D3FF
  8
0
 10
4431.6554713097693821
 20
223.1335905834066011
 30
0.0
 11
4431.6554713097693821
 21
223.1135905834065909
 31
0.0
  0
LINE
  5
1D400
  8
0
 10
4431.6554713097693821
 20
223.1085905834065954
 30
0.0
 11
4431.6554713097693821
 21
223.0885905834066136
 31
0.0
  0
LINE
  5
1D401
  8
0
 10
4431.6554713097693821
 20
223.0835905834065898
 30
0.0
 11
4431.6554713097693821
 21
223.0635905834064943
 31
0.0
  0
LINE
  5
1D402
  8
0
 10
4431.6554713097693821
 20
223.0585905834066125
 30
0.0
 11
4431.6554713097693821
 21
223.0385905834066023
 31
0.0
  0
LINE
  5
1D403
  8
0
 10
4431.6554713097693821
 20
223.0335905834066068
 30
0.0
 11
4431.6554713097693821
 21
223.0135905834065113
 31
0.0
  0
LINE
  5
1D404
  8
0
 10
4431.6554713097693821
 20
223.0085905834064874
 30
0.0
 11
4431.6554713097693821
 21
222.9885905834065909
 31
0.0
  0
LINE
  5
1D405
  8
0
 10
4431.6554713097693821
 20
222.9835905834065102
 30
0.0
 11
4431.6554713097693821
 21
222.9718780279766861
 31
0.0
  0
LINE
  5
1D406
  8
0
 10
4431.6804713097681088
 20
223.0063802248012905
 30
0.0
 11
4431.6804713097681088
 21
223.0085905834064874
 31
0.0
  0
LINE
  5
1D407
  8
0
 10
4431.6804713097681088
 20
223.0135905834065113
 30
0.0
 11
4431.6804713097681088
 21
223.0335905834066068
 31
0.0
  0
LINE
  5
1D408
  8
0
 10
4431.6804713097681088
 20
223.0385905834066023
 30
0.0
 11
4431.6804713097681088
 21
223.0585905834066125
 31
0.0
  0
LINE
  5
1D409
  8
0
 10
4431.6804713097681088
 20
223.0635905834064943
 30
0.0
 11
4431.6804713097681088
 21
223.0835905834065898
 31
0.0
  0
LINE
  5
1D40A
  8
0
 10
4431.6804713097681088
 20
223.0885905834066136
 30
0.0
 11
4431.6804713097681088
 21
223.1085905834065954
 31
0.0
  0
LINE
  5
1D40B
  8
0
 10
4431.6804713097681088
 20
223.1135905834065909
 30
0.0
 11
4431.6804713097681088
 21
223.1335905834066011
 31
0.0
  0
LINE
  5
1D40C
  8
0
 10
4431.6804713097681088
 20
223.1385905834065113
 30
0.0
 11
4431.6804713097681088
 21
223.1585905834064931
 31
0.0
  0
LINE
  5
1D40D
  8
0
 10
4431.6804713097681088
 20
223.1635905834064886
 30
0.0
 11
4431.6804713097681088
 21
223.1835905834066125
 31
0.0
  0
LINE
  5
1D40E
  8
0
 10
4431.6804713097681088
 20
223.1885905834066079
 30
0.0
 11
4431.6804713097681088
 21
223.2085905834065898
 31
0.0
  0
LINE
  5
1D40F
  8
0
 10
4431.6804713097681088
 20
223.2135905834064999
 30
0.0
 11
4431.6804713097681088
 21
223.2335905834065954
 31
0.0
  0
LINE
  5
1D410
  8
0
 10
4431.6854713097682179
 20
223.2274188508914108
 30
0.0
 11
4431.6854713097682179
 21
223.2135905834064999
 31
0.0
  0
LINE
  5
1D411
  8
0
 10
4431.6854713097682179
 20
223.2085905834065898
 30
0.0
 11
4431.6854713097682179
 21
223.1885905834066079
 31
0.0
  0
LINE
  5
1D412
  8
0
 10
4431.6854713097682179
 20
223.1835905834066125
 30
0.0
 11
4431.6854713097682179
 21
223.1635905834064886
 31
0.0
  0
LINE
  5
1D413
  8
0
 10
4431.6854713097682179
 20
223.1585905834064931
 30
0.0
 11
4431.6854713097682179
 21
223.1385905834065113
 31
0.0
  0
LINE
  5
1D414
  8
0
 10
4431.6854713097682179
 20
223.1335905834066011
 30
0.0
 11
4431.6854713097682179
 21
223.1135905834065909
 31
0.0
  0
LINE
  5
1D415
  8
0
 10
4431.6854713097682179
 20
223.1085905834065954
 30
0.0
 11
4431.6854713097682179
 21
223.0885905834066136
 31
0.0
  0
LINE
  5
1D416
  8
0
 10
4431.6854713097682179
 20
223.0835905834065898
 30
0.0
 11
4431.6854713097682179
 21
223.0635905834064943
 31
0.0
  0
LINE
  5
1D417
  8
0
 10
4431.6854713097682179
 20
223.0585905834066125
 30
0.0
 11
4431.6854713097682179
 21
223.0385905834066023
 31
0.0
  0
LINE
  5
1D418
  8
0
 10
4431.6854713097682179
 20
223.0335905834066068
 30
0.0
 11
4431.6854713097682179
 21
223.015315314721704
 31
0.0
  0
LINE
  5
1D419
  8
0
 10
4431.7104713097669446
 20
223.0964276057887048
 30
0.0
 11
4431.7104713097669446
 21
223.1085905834065954
 31
0.0
  0
LINE
  5
1D41A
  8
0
 10
4431.7104713097669446
 20
223.1135905834065909
 30
0.0
 11
4431.7104713097669446
 21
223.1335905834066011
 31
0.0
  0
LINE
  5
1D41B
  8
0
 10
4431.7104713097669446
 20
223.1385905834065113
 30
0.0
 11
4431.7104713097669446
 21
223.1463065598242963
 31
0.0
  0
LINE
  5
1D41C
  8
0
 10
4431.5604713097682179
 20
222.9085905834064931
 30
0.0
 11
4431.5354713097667627
 21
222.9085905834064931
 31
0.0
  0
LINE
  5
1D41D
  8
0
 10
4431.5304713097693821
 20
222.9085905834064931
 30
0.0
 11
4431.5054713097679269
 21
222.9085905834064931
 31
0.0
  0
LINE
  5
1D41E
  8
0
 10
4431.5004713097669082
 20
222.9085905834064931
 30
0.0
 11
4431.4754713097681815
 21
222.9085905834064931
 31
0.0
  0
LINE
  5
1D41F
  8
0
 10
4431.4704713097680724
 20
222.9085905834064931
 30
0.0
 11
4431.4454713097684362
 21
222.9085905834064931
 31
0.0
  0
LINE
  5
1D420
  8
0
 10
4431.4404713097692365
 20
222.9085905834064931
 30
0.0
 11
4431.4154713097677813
 21
222.9085905834064931
 31
0.0
  0
LINE
  5
1D421
  8
0
 10
4431.4104713097667627
 20
222.9085905834064931
 30
0.0
 11
4431.4081852255294507
 21
222.9085905834064931
 31
0.0
  0
LINE
  5
1D422
  8
0
 10
4431.3956052771918621
 20
222.9135905834064886
 30
0.0
 11
4431.4104713097667627
 21
222.9135905834064886
 31
0.0
  0
LINE
  5
1D423
  8
0
 10
4431.4154713097677813
 20
222.9135905834064886
 30
0.0
 11
4431.4404713097692365
 21
222.9135905834064886
 31
0.0
  0
LINE
  5
1D424
  8
0
 10
4431.4454713097684362
 20
222.9135905834064886
 30
0.0
 11
4431.4704713097680724
 21
222.9135905834064886
 31
0.0
  0
LINE
  5
1D425
  8
0
 10
4431.4754713097681815
 20
222.9135905834064886
 30
0.0
 11
4431.5004713097669082
 21
222.9135905834064886
 31
0.0
  0
LINE
  5
1D426
  8
0
 10
4431.5054713097679269
 20
222.9135905834064886
 30
0.0
 11
4431.5304713097693821
 21
222.9135905834064886
 31
0.0
  0
LINE
  5
1D427
  8
0
 10
4431.5354713097667627
 20
222.9135905834064886
 30
0.0
 11
4431.5604713097682179
 21
222.9135905834064886
 31
0.0
  0
LINE
  5
1D428
  8
0
 10
4431.565471309768327
 20
222.9135905834064886
 30
0.0
 11
4431.5753373423431185
 21
222.9135905834066023
 31
0.0
  0
LINE
  5
1D429
  8
0
 10
4431.6119108755183333
 20
222.9335905834066125
 30
0.0
 11
4431.5954713097680724
 21
222.9335905834066125
 31
0.0
  0
LINE
  5
1D42A
  8
0
 10
4431.5904713097679632
 20
222.9335905834066125
 30
0.0
 11
4431.565471309768327
 21
222.9335905834066125
 31
0.0
  0
LINE
  5
1D42B
  8
0
 10
4431.5604713097682179
 20
222.9335905834066125
 30
0.0
 11
4431.5354713097667627
 21
222.9335905834066125
 31
0.0
  0
LINE
  5
1D42C
  8
0
 10
4431.5304713097693821
 20
222.9335905834066125
 30
0.0
 11
4431.5054713097679269
 21
222.9335905834066125
 31
0.0
  0
LINE
  5
1D42D
  8
0
 10
4431.5004713097669082
 20
222.9335905834066125
 30
0.0
 11
4431.4754713097681815
 21
222.9335905834066125
 31
0.0
  0
LINE
  5
1D42E
  8
0
 10
4431.4704713097680724
 20
222.9335905834066125
 30
0.0
 11
4431.4454713097684362
 21
222.9335905834066125
 31
0.0
  0
LINE
  5
1D42F
  8
0
 10
4431.4404713097692365
 20
222.9335905834066125
 30
0.0
 11
4431.4154713097677813
 21
222.9335905834066125
 31
0.0
  0
LINE
  5
1D430
  8
0
 10
4431.4104713097667627
 20
222.9335905834066125
 30
0.0
 11
4431.385471309768036
 21
222.9335905834066125
 31
0.0
  0
LINE
  5
1D431
  8
0
 10
4431.3804713097670174
 20
222.9335905834066125
 30
0.0
 11
4431.3590317440175568
 21
222.9335905834066125
 31
0.0
  0
LINE
  5
1D432
  8
0
 10
4437.5097910979047811
 20
223.1220291975423891
 30
0.0
 11
4437.5009831208681135
 21
223.1219832711065862
 31
0.0
  0
LINE
  5
1D433
  8
0
 10
4431.4104713097667627
 20
223.1210186600065128
 30
0.0
 11
4431.385471309768036
 21
223.1208883075319136
 31
0.0
  0
LINE
  5
1D434
  8
0
 10
4431.4404713097692365
 20
223.1211750832065093
 30
0.0
 11
4431.4154713097677813
 21
223.1210447305440141
 31
0.0
  0
LINE
  5
1D435
  8
0
 10
4431.4704713097680724
 20
223.1213315066065945
 30
0.0
 11
4431.4454713097684362
 21
223.1212011538391948
 31
0.0
  0
LINE
  5
1D436
  8
0
 10
4437.4359831208676042
 20
223.1216443539767056
 30
0.0
 11
4437.410983120867968
 21
223.1215140009065863
 31
0.0
  0
LINE
  5
1D437
  8
0
 10
4431.5004713097669082
 20
223.1214879302065981
 30
0.0
 11
4431.4754713097681815
 21
223.1213575771973012
 31
0.0
  0
LINE
  5
1D438
  8
0
 10
4437.465983120868259
 20
223.1218007775962064
 30
0.0
 11
4437.4409831208668038
 21
223.1216704246064921
 31
0.0
  0
LINE
  5
1D439
  8
0
 10
4431.5304713097693821
 20
223.1216443537066141
 30
0.0
 11
4431.5054713097679269
 21
223.1215140007494142
 31
0.0
  0
LINE
  5
1D43A
  8
0
 10
4437.4059831208669493
 20
223.1214879303045109
 30
0.0
 11
4437.3809831208682226
 21
223.1213575774065987
 31
0.0
  0
LINE
  5
1D43B
  8
0
 10
4437.285983120867968
 20
223.1208622362125027
 30
0.0
 11
4437.2721746992247063
 21
223.1207902374717094
 31
0.0
  0
LINE
  5
1D43C
  8
0
 10
4431.5604713097682179
 20
223.121800777306504
 30
0.0
 11
4431.5354713097667627
 21
223.1216704242607136
 31
0.0
  0
LINE
  5
1D43D
  8
0
 10
4437.3159831208668038
 20
223.1210186597126039
 30
0.0
 11
4437.2909831208680771
 21
223.1208883068316879
 31
0.0
  0
LINE
  5
1D43E
  8
0
 10
4431.5904713097679632
 20
223.1219572009065928
 30
0.0
 11
4431.565471309768327
 21
223.1218268479040034
 31
0.0
  0
LINE
  5
1D43F
  8
0
 10
4437.3759831208681135
 20
223.1213315067390965
 30
0.0
 11
4437.3509831208675678
 21
223.1212011538065099
 31
0.0
  0
LINE
  5
1D440
  8
0
 10
4431.604279286806559
 20
223.1220291973660892
 30
0.0
 11
4431.5954713097680724
 21
223.1219832715017901
 31
0.0
  0
LINE
  5
1D441
  8
0
 10
4437.3459831208683681
 20
223.1211750833045926
 30
0.0
 11
4437.3209831208669129
 21
223.1210447303066076
 31
0.0
  0
LINE
  5
1D442
  8
0
 10
4437.4959831208670948
 20
223.1219572006224041
 30
0.0
 11
4437.4709831208683681
 21
223.1218268481065081
 31
0.0
  0
LINE
  5
1D443
  8
0
 10
4431.3804713097670174
 20
223.120862236906504
 30
0.0
 11
4431.3666628881255747
 21
223.1207902374709988
 31
0.0
  0
LINE
  5
1D444
  8
0
 10
4431.8928221096321067
 20
222.9245166891064969
 30
0.0
 11
4436.9836323210038245
 21
222.9245166891064969
 31
0.0
  0
LINE
  5
1D445
  8
0
 10
4431.3554713097682907
 20
222.9385905834066079
 30
0.0
 11
4431.3804713097670174
 21
222.9385905834066079
 31
0.0
  0
LINE
  5
1D446
  8
0
 10
4431.385471309768036
 20
222.9385905834066079
 30
0.0
 11
4431.4104713097667627
 21
222.9385905834066079
 31
0.0
  0
LINE
  5
1D447
  8
0
 10
4431.4154713097677813
 20
222.9385905834066079
 30
0.0
 11
4431.4404713097692365
 21
222.9385905834066079
 31
0.0
  0
LINE
  5
1D448
  8
0
 10
4431.4454713097684362
 20
222.9385905834066079
 30
0.0
 11
4431.4704713097680724
 21
222.9385905834066079
 31
0.0
  0
LINE
  5
1D449
  8
0
 10
4431.4754713097681815
 20
222.9385905834066079
 30
0.0
 11
4431.5004713097669082
 21
222.9385905834066079
 31
0.0
  0
LINE
  5
1D44A
  8
0
 10
4431.5054713097679269
 20
222.9385905834066079
 30
0.0
 11
4431.5304713097693821
 21
222.9385905834066079
 31
0.0
  0
LINE
  5
1D44B
  8
0
 10
4431.5354713097667627
 20
222.9385905834066079
 30
0.0
 11
4431.5604713097682179
 21
222.9385905834066079
 31
0.0
  0
LINE
  5
1D44C
  8
0
 10
4431.565471309768327
 20
222.9385905834066079
 30
0.0
 11
4431.5904713097679632
 21
222.9385905834066079
 31
0.0
  0
LINE
  5
1D44D
  8
0
 10
4431.5954713097680724
 20
222.9385905834066079
 30
0.0
 11
4431.6190367573235562
 21
222.9385905834066079
 31
0.0
  0
LINE
  5
1D44E
  8
0
 10
4437.465983120868259
 20
222.9085905834064931
 30
0.0
 11
4437.4409831208668038
 21
222.9085905834064931
 31
0.0
  0
LINE
  5
1D44F
  8
0
 10
4437.4359831208676042
 20
222.9085905834064931
 30
0.0
 11
4437.410983120867968
 21
222.9085905834064931
 31
0.0
  0
LINE
  5
1D450
  8
0
 10
4437.4059831208669493
 20
222.9085905834064931
 30
0.0
 11
4437.3809831208682226
 21
222.9085905834064931
 31
0.0
  0
LINE
  5
1D451
  8
0
 10
4437.3759831208681135
 20
222.9085905834064931
 30
0.0
 11
4437.3509831208675678
 21
222.9085905834064931
 31
0.0
  0
LINE
  5
1D452
  8
0
 10
4437.3459831208683681
 20
222.9085905834064931
 30
0.0
 11
4437.3209831208669129
 21
222.9085905834064931
 31
0.0
  0
LINE
  5
1D453
  8
0
 10
4437.3159831208668038
 20
222.9085905834064931
 30
0.0
 11
4437.3136970366285823
 21
222.9085905834064931
 31
0.0
  0
LINE
  5
1D454
  8
0
 10
4437.3011170882909937
 20
222.9135905834064886
 30
0.0
 11
4437.3159831208668038
 21
222.9135905834064886
 31
0.0
  0
LINE
  5
1D455
  8
0
 10
4437.3209831208669129
 20
222.9135905834064886
 30
0.0
 11
4437.3459831208683681
 21
222.9135905834064886
 31
0.0
  0
LINE
  5
1D456
  8
0
 10
4437.3509831208675678
 20
222.9135905834064886
 30
0.0
 11
4437.3759831208681135
 21
222.9135905834064886
 31
0.0
  0
LINE
  5
1D457
  8
0
 10
4437.3809831208682226
 20
222.9135905834064886
 30
0.0
 11
4437.4059831208669493
 21
222.9135905834064886
 31
0.0
  0
LINE
  5
1D458
  8
0
 10
4437.410983120867968
 20
222.9135905834064886
 30
0.0
 11
4437.4359831208676042
 21
222.9135905834064886
 31
0.0
  0
LINE
  5
1D459
  8
0
 10
4437.4409831208668038
 20
222.9135905834064886
 30
0.0
 11
4437.465983120868259
 21
222.9135905834064886
 31
0.0
  0
LINE
  5
1D45A
  8
0
 10
4437.4709831208683681
 20
222.9135905834064886
 30
0.0
 11
4437.4808491534440691
 21
222.9135905834064886
 31
0.0
  0
LINE
  5
1D45B
  8
0
 10
4431.6427951438072341
 20
222.9585905834065898
 30
0.0
 11
4431.6254713097669082
 21
222.9585905834065898
 31
0.0
  0
LINE
  5
1D45C
  8
0
 10
4431.6204713097667991
 20
222.9585905834065898
 30
0.0
 11
4431.5954713097680724
 21
222.9585905834065898
 31
0.0
  0
LINE
  5
1D45D
  8
0
 10
4431.5904713097679632
 20
222.9585905834065898
 30
0.0
 11
4431.565471309768327
 21
222.9585905834065898
 31
0.0
  0
LINE
  5
1D45E
  8
0
 10
4431.5604713097682179
 20
222.9585905834065898
 30
0.0
 11
4431.5354713097667627
 21
222.9585905834065898
 31
0.0
  0
LINE
  5
1D45F
  8
0
 10
4431.5304713097693821
 20
222.9585905834065898
 30
0.0
 11
4431.5054713097679269
 21
222.9585905834065898
 31
0.0
  0
LINE
  5
1D460
  8
0
 10
4431.5004713097669082
 20
222.9585905834065898
 30
0.0
 11
4431.4754713097681815
 21
222.9585905834065898
 31
0.0
  0
LINE
  5
1D461
  8
0
 10
4431.4704713097680724
 20
222.9585905834065898
 30
0.0
 11
4431.4454713097684362
 21
222.9585905834065898
 31
0.0
  0
LINE
  5
1D462
  8
0
 10
4431.4404713097692365
 20
222.9585905834065898
 30
0.0
 11
4431.4154713097677813
 21
222.9585905834065898
 31
0.0
  0
LINE
  5
1D463
  8
0
 10
4431.4104713097667627
 20
222.9585905834065898
 30
0.0
 11
4431.385471309768036
 21
222.9585905834065898
 31
0.0
  0
LINE
  5
1D464
  8
0
 10
4431.3804713097670174
 20
222.9585905834065898
 30
0.0
 11
4431.3554713097682907
 21
222.9585905834065898
 31
0.0
  0
LINE
  5
1D465
  8
0
 10
4431.350471309769091
 20
222.9585905834065898
 30
0.0
 11
4431.328147475728656
 21
222.9585905834065898
 31
0.0
  0
LINE
  5
1D466
  8
0
 10
4431.3254713097676358
 20
222.9635905834066136
 30
0.0
 11
4431.350471309769091
 21
222.9635905834066136
 31
0.0
  0
LINE
  5
1D467
  8
0
 10
4431.3554713097682907
 20
222.9635905834066136
 30
0.0
 11
4431.3804713097670174
 21
222.9635905834066136
 31
0.0
  0
LINE
  5
1D468
  8
0
 10
4431.385471309768036
 20
222.9635905834066136
 30
0.0
 11
4431.4104713097667627
 21
222.9635905834066136
 31
0.0
  0
LINE
  5
1D469
  8
0
 10
4431.4154713097677813
 20
222.9635905834066136
 30
0.0
 11
4431.4404713097692365
 21
222.9635905834066136
 31
0.0
  0
LINE
  5
1D46A
  8
0
 10
4431.4454713097684362
 20
222.9635905834066136
 30
0.0
 11
4431.4704713097680724
 21
222.9635905834066136
 31
0.0
  0
LINE
  5
1D46B
  8
0
 10
4431.4754713097681815
 20
222.9635905834066136
 30
0.0
 11
4431.5004713097669082
 21
222.9635905834066136
 31
0.0
  0
LINE
  5
1D46C
  8
0
 10
4431.5054713097679269
 20
222.9635905834066136
 30
0.0
 11
4431.5304713097693821
 21
222.9635905834066136
 31
0.0
  0
LINE
  5
1D46D
  8
0
 10
4431.5354713097667627
 20
222.9635905834066136
 30
0.0
 11
4431.5604713097682179
 21
222.9635905834066136
 31
0.0
  0
LINE
  5
1D46E
  8
0
 10
4431.565471309768327
 20
222.9635905834066136
 30
0.0
 11
4431.5904713097679632
 21
222.9635905834066136
 31
0.0
  0
LINE
  5
1D46F
  8
0
 10
4431.5954713097680724
 20
222.9635905834066136
 30
0.0
 11
4431.6204713097667991
 21
222.9635905834066136
 31
0.0
  0
LINE
  5
1D470
  8
0
 10
4431.6254713097669082
 20
222.9635905834066136
 30
0.0
 11
4431.6478090864911792
 21
222.9635905834066136
 31
0.0
  0
LINE
  5
1D471
  8
0
 10
4437.5174226866165554
 20
222.9335905834066125
 30
0.0
 11
4437.5009831208681135
 21
222.9335905834066125
 31
0.0
  0
LINE
  5
1D472
  8
0
 10
4437.4959831208670948
 20
222.9335905834066125
 30
0.0
 11
4437.4709831208683681
 21
222.9335905834066125
 31
0.0
  0
LINE
  5
1D473
  8
0
 10
4437.465983120868259
 20
222.9335905834066125
 30
0.0
 11
4437.4409831208668038
 21
222.9335905834066125
 31
0.0
  0
LINE
  5
1D474
  8
0
 10
4437.4359831208676042
 20
222.9335905834066125
 30
0.0
 11
4437.410983120867968
 21
222.9335905834066125
 31
0.0
  0
LINE
  5
1D475
  8
0
 10
4437.4059831208669493
 20
222.9335905834066125
 30
0.0
 11
4437.3809831208682226
 21
222.9335905834066125
 31
0.0
  0
LINE
  5
1D476
  8
0
 10
4437.3759831208681135
 20
222.9335905834066125
 30
0.0
 11
4437.3509831208675678
 21
222.9335905834066125
 31
0.0
  0
LINE
  5
1D477
  8
0
 10
4437.3459831208683681
 20
222.9335905834066125
 30
0.0
 11
4437.3209831208669129
 21
222.9335905834066125
 31
0.0
  0
LINE
  5
1D478
  8
0
 10
4437.3159831208668038
 20
222.9335905834066125
 30
0.0
 11
4437.2909831208680771
 21
222.9335905834066125
 31
0.0
  0
LINE
  5
1D479
  8
0
 10
4437.285983120867968
 20
222.9335905834066125
 30
0.0
 11
4437.2645435551194169
 21
222.9335905834066125
 31
0.0
  0
LINE
  5
1D47A
  8
0
 10
4437.2609831208683318
 20
222.9385905834066079
 30
0.0
 11
4437.285983120867968
 21
222.9385905834066079
 31
0.0
  0
LINE
  5
1D47B
  8
0
 10
4437.2909831208680771
 20
222.9385905834066079
 30
0.0
 11
4437.3159831208668038
 21
222.9385905834066079
 31
0.0
  0
LINE
  5
1D47C
  8
0
 10
4437.3209831208669129
 20
222.9385905834066079
 30
0.0
 11
4437.3459831208683681
 21
222.9385905834066079
 31
0.0
  0
LINE
  5
1D47D
  8
0
 10
4437.3509831208675678
 20
222.9385905834066079
 30
0.0
 11
4437.3759831208681135
 21
222.9385905834066079
 31
0.0
  0
LINE
  5
1D47E
  8
0
 10
4437.3809831208682226
 20
222.9385905834066079
 30
0.0
 11
4437.4059831208669493
 21
222.9385905834066079
 31
0.0
  0
LINE
  5
1D47F
  8
0
 10
4437.410983120867968
 20
222.9385905834066079
 30
0.0
 11
4437.4359831208676042
 21
222.9385905834066079
 31
0.0
  0
LINE
  5
1D480
  8
0
 10
4437.4409831208668038
 20
222.9385905834066079
 30
0.0
 11
4437.465983120868259
 21
222.9385905834066079
 31
0.0
  0
LINE
  5
1D481
  8
0
 10
4437.4709831208683681
 20
222.9385905834066079
 30
0.0
 11
4437.4959831208670948
 21
222.9385905834066079
 31
0.0
  0
LINE
  5
1D482
  8
0
 10
4437.5009831208681135
 20
222.9385905834066079
 30
0.0
 11
4437.5245485684254163
 21
222.9385905834066079
 31
0.0
  0
LINE
  5
1D483
  8
0
 10
4431.6650948430997232
 20
222.9835905834065102
 30
0.0
 11
4431.6554713097693821
 21
222.9835905834065102
 31
0.0
  0
LINE
  5
1D484
  8
0
 10
4431.6504713097683634
 20
222.9835905834065102
 30
0.0
 11
4431.6254713097669082
 21
222.9835905834065102
 31
0.0
  0
LINE
  5
1D485
  8
0
 10
4431.6204713097667991
 20
222.9835905834065102
 30
0.0
 11
4431.5954713097680724
 21
222.9835905834065102
 31
0.0
  0
LINE
  5
1D486
  8
0
 10
4431.5904713097679632
 20
222.9835905834065102
 30
0.0
 11
4431.565471309768327
 21
222.9835905834065102
 31
0.0
  0
LINE
  5
1D487
  8
0
 10
4431.5604713097682179
 20
222.9835905834065102
 30
0.0
 11
4431.5354713097667627
 21
222.9835905834065102
 31
0.0
  0
LINE
  5
1D488
  8
0
 10
4431.5304713097693821
 20
222.9835905834065102
 30
0.0
 11
4431.5054713097679269
 21
222.9835905834065102
 31
0.0
  0
LINE
  5
1D489
  8
0
 10
4431.5004713097669082
 20
222.9835905834065102
 30
0.0
 11
4431.4754713097681815
 21
222.9835905834065102
 31
0.0
  0
LINE
  5
1D48A
  8
0
 10
4431.4704713097680724
 20
222.9835905834065102
 30
0.0
 11
4431.4454713097684362
 21
222.9835905834065102
 31
0.0
  0
LINE
  5
1D48B
  8
0
 10
4431.4404713097692365
 20
222.9835905834065102
 30
0.0
 11
4431.4154713097677813
 21
222.9835905834065102
 31
0.0
  0
LINE
  5
1D48C
  8
0
 10
4431.4104713097667627
 20
222.9835905834065102
 30
0.0
 11
4431.385471309768036
 21
222.9835905834065102
 31
0.0
  0
LINE
  5
1D48D
  8
0
 10
4431.3804713097670174
 20
222.9835905834065102
 30
0.0
 11
4431.3554713097682907
 21
222.9835905834065102
 31
0.0
  0
LINE
  5
1D48E
  8
0
 10
4431.350471309769091
 20
222.9835905834065102
 30
0.0
 11
4431.3254713097676358
 21
222.9835905834065102
 31
0.0
  0
LINE
  5
1D48F
  8
0
 10
4431.3204713097684362
 20
222.9835905834065102
 30
0.0
 11
4431.3058477764343479
 21
222.9835905834065102
 31
0.0
  0
LINE
  5
1D490
  8
0
 10
4431.3021208837490121
 20
222.9885905834065909
 30
0.0
 11
4431.3204713097684362
 21
222.9885905834065909
 31
0.0
  0
LINE
  5
1D491
  8
0
 10
4431.3254713097676358
 20
222.9885905834065909
 30
0.0
 11
4431.350471309769091
 21
222.9885905834065909
 31
0.0
  0
LINE
  5
1D492
  8
0
 10
4431.3554713097682907
 20
222.9885905834065909
 30
0.0
 11
4431.3804713097670174
 21
222.9885905834065909
 31
0.0
  0
LINE
  5
1D493
  8
0
 10
4431.385471309768036
 20
222.9885905834065909
 30
0.0
 11
4431.4104713097667627
 21
222.9885905834065909
 31
0.0
  0
LINE
  5
1D494
  8
0
 10
4431.4154713097677813
 20
222.9885905834065909
 30
0.0
 11
4431.4404713097692365
 21
222.9885905834065909
 31
0.0
  0
LINE
  5
1D495
  8
0
 10
4431.4454713097684362
 20
222.9885905834065909
 30
0.0
 11
4431.4704713097680724
 21
222.9885905834065909
 31
0.0
  0
LINE
  5
1D496
  8
0
 10
4431.4754713097681815
 20
222.9885905834065909
 30
0.0
 11
4431.5004713097669082
 21
222.9885905834065909
 31
0.0
  0
LINE
  5
1D497
  8
0
 10
4431.5054713097679269
 20
222.9885905834065909
 30
0.0
 11
4431.5304713097693821
 21
222.9885905834065909
 31
0.0
  0
LINE
  5
1D498
  8
0
 10
4431.5354713097667627
 20
222.9885905834065909
 30
0.0
 11
4431.5604713097682179
 21
222.9885905834065909
 31
0.0
  0
LINE
  5
1D499
  8
0
 10
4431.565471309768327
 20
222.9885905834065909
 30
0.0
 11
4431.5904713097679632
 21
222.9885905834065909
 31
0.0
  0
LINE
  5
1D49A
  8
0
 10
4431.5954713097680724
 20
222.9885905834065909
 30
0.0
 11
4431.6204713097667991
 21
222.9885905834065909
 31
0.0
  0
LINE
  5
1D49B
  8
0
 10
4431.6254713097669082
 20
222.9885905834065909
 30
0.0
 11
4431.6504713097683634
 21
222.9885905834065909
 31
0.0
  0
LINE
  5
1D49C
  8
0
 10
4431.6554713097693821
 20
222.9885905834065909
 30
0.0
 11
4431.6688217357859685
 21
222.9885905834065909
 31
0.0
  0
LINE
  5
1D49D
  8
0
 10
4437.5483069549081847
 20
222.9585905834065045
 30
0.0
 11
4437.5309831208678588
 21
222.9585905834065045
 31
0.0
  0
LINE
  5
1D49E
  8
0
 10
4437.5259831208677497
 20
222.9585905834065045
 30
0.0
 11
4437.5009831208681135
 21
222.9585905834065045
 31
0.0
  0
LINE
  5
1D49F
  8
0
 10
4437.4959831208670948
 20
222.9585905834065045
 30
0.0
 11
4437.4709831208683681
 21
222.9585905834065045
 31
0.0
  0
LINE
  5
1D4A0
  8
0
 10
4437.465983120868259
 20
222.9585905834065045
 30
0.0
 11
4437.4409831208668038
 21
222.9585905834065045
 31
0.0
  0
LINE
  5
1D4A1
  8
0
 10
4437.4359831208676042
 20
222.9585905834065045
 30
0.0
 11
4437.410983120867968
 21
222.9585905834065045
 31
0.0
  0
LINE
  5
1D4A2
  8
0
 10
4437.4059831208669493
 20
222.9585905834065045
 30
0.0
 11
4437.3809831208682226
 21
222.9585905834065045
 31
0.0
  0
LINE
  5
1D4A3
  8
0
 10
4437.3759831208681135
 20
222.9585905834065045
 30
0.0
 11
4437.3509831208675678
 21
222.9585905834065045
 31
0.0
  0
LINE
  5
1D4A4
  8
0
 10
4437.3459831208683681
 20
222.9585905834065045
 30
0.0
 11
4437.3209831208669129
 21
222.9585905834065045
 31
0.0
  0
LINE
  5
1D4A5
  8
0
 10
4437.3159831208668038
 20
222.9585905834065045
 30
0.0
 11
4437.2909831208680771
 21
222.9585905834065045
 31
0.0
  0
LINE
  5
1D4A6
  8
0
 10
4437.285983120867968
 20
222.9585905834065045
 30
0.0
 11
4437.2609831208683318
 21
222.9585905834065045
 31
0.0
  0
LINE
  5
1D4A7
  8
0
 10
4437.2559831208682226
 20
222.9585905834065045
 30
0.0
 11
4437.2336592868277876
 21
222.9585905834065045
 31
0.0
  0
LINE
  5
1D4A8
  8
0
 10
4437.2309831208667674
 20
222.9635905834066136
 30
0.0
 11
4437.2559831208682226
 21
222.9635905834066136
 31
0.0
  0
LINE
  5
1D4A9
  8
0
 10
4437.2609831208683318
 20
222.9635905834066136
 30
0.0
 11
4437.285983120867968
 21
222.9635905834066136
 31
0.0
  0
LINE
  5
1D4AA
  8
0
 10
4437.2909831208680771
 20
222.9635905834066136
 30
0.0
 11
4437.3159831208668038
 21
222.9635905834066136
 31
0.0
  0
LINE
  5
1D4AB
  8
0
 10
4437.3209831208669129
 20
222.9635905834066136
 30
0.0
 11
4437.3459831208683681
 21
222.9635905834066136
 31
0.0
  0
LINE
  5
1D4AC
  8
0
 10
4437.3509831208675678
 20
222.9635905834066136
 30
0.0
 11
4437.3759831208681135
 21
222.9635905834066136
 31
0.0
  0
LINE
  5
1D4AD
  8
0
 10
4437.3809831208682226
 20
222.9635905834066136
 30
0.0
 11
4437.4059831208669493
 21
222.9635905834066136
 31
0.0
  0
LINE
  5
1D4AE
  8
0
 10
4437.410983120867968
 20
222.9635905834066136
 30
0.0
 11
4437.4359831208676042
 21
222.9635905834066136
 31
0.0
  0
LINE
  5
1D4AF
  8
0
 10
4437.4409831208668038
 20
222.9635905834066136
 30
0.0
 11
4437.465983120868259
 21
222.9635905834066136
 31
0.0
  0
LINE
  5
1D4B0
  8
0
 10
4437.4709831208683681
 20
222.9635905834066136
 30
0.0
 11
4437.4959831208670948
 21
222.9635905834066136
 31
0.0
  0
LINE
  5
1D4B1
  8
0
 10
4437.5009831208681135
 20
222.9635905834066136
 30
0.0
 11
4437.5259831208677497
 21
222.9635905834066136
 31
0.0
  0
LINE
  5
1D4B2
  8
0
 10
4437.5309831208678588
 20
222.9635905834066136
 30
0.0
 11
4437.5533208975903108
 21
222.9635905834066136
 31
0.0
  0
LINE
  5
1D4B3
  8
0
 10
4431.6804713097681088
 20
223.0085905834064874
 30
0.0
 11
4431.6554713097693821
 21
223.0085905834064874
 31
0.0
  0
LINE
  5
1D4B4
  8
0
 10
4431.6504713097683634
 20
223.0085905834064874
 30
0.0
 11
4431.6254713097669082
 21
223.0085905834064874
 31
0.0
  0
LINE
  5
1D4B5
  8
0
 10
4431.6204713097667991
 20
223.0085905834064874
 30
0.0
 11
4431.5954713097680724
 21
223.0085905834064874
 31
0.0
  0
LINE
  5
1D4B6
  8
0
 10
4431.5904713097679632
 20
223.0085905834064874
 30
0.0
 11
4431.565471309768327
 21
223.0085905834064874
 31
0.0
  0
LINE
  5
1D4B7
  8
0
 10
4431.5604713097682179
 20
223.0085905834064874
 30
0.0
 11
4431.5354713097667627
 21
223.0085905834064874
 31
0.0
  0
LINE
  5
1D4B8
  8
0
 10
4431.5304713097693821
 20
223.0085905834064874
 30
0.0
 11
4431.5054713097679269
 21
223.0085905834064874
 31
0.0
  0
LINE
  5
1D4B9
  8
0
 10
4431.5004713097669082
 20
223.0085905834064874
 30
0.0
 11
4431.4754713097681815
 21
223.0085905834064874
 31
0.0
  0
LINE
  5
1D4BA
  8
0
 10
4431.4704713097680724
 20
223.0085905834064874
 30
0.0
 11
4431.4454713097684362
 21
223.0085905834064874
 31
0.0
  0
LINE
  5
1D4BB
  8
0
 10
4431.4404713097692365
 20
223.0085905834064874
 30
0.0
 11
4431.4154713097677813
 21
223.0085905834064874
 31
0.0
  0
LINE
  5
1D4BC
  8
0
 10
4431.4104713097667627
 20
223.0085905834064874
 30
0.0
 11
4431.385471309768036
 21
223.0085905834064874
 31
0.0
  0
LINE
  5
1D4BD
  8
0
 10
4431.3804713097670174
 20
223.0085905834064874
 30
0.0
 11
4431.3554713097682907
 21
223.0085905834064874
 31
0.0
  0
LINE
  5
1D4BE
  8
0
 10
4431.350471309769091
 20
223.0085905834064874
 30
0.0
 11
4431.3254713097676358
 21
223.0085905834064874
 31
0.0
  0
LINE
  5
1D4BF
  8
0
 10
4431.3204713097684362
 20
223.0085905834064874
 30
0.0
 11
4431.2954713097678905
 21
223.0085905834064874
 31
0.0
  0
LINE
  5
1D4C0
  8
0
 10
4431.2904713097668719
 20
223.0085905834064874
 30
0.0
 11
4431.289184685932014
 21
223.0085905834064874
 31
0.0
  0
LINE
  5
1D4C1
  8
0
 10
4431.2954713097678905
 20
223.0135905834065113
 30
0.0
 11
4431.3204713097684362
 21
223.0135905834065113
 31
0.0
  0
LINE
  5
1D4C2
  8
0
 10
4431.2863954355616443
 20
223.0135905834065113
 30
0.0
 11
4431.2904713097668719
 21
223.0135905834065113
 31
0.0
  0
LINE
  5
1D4C3
  8
0
 10
4431.3254713097676358
 20
223.0135905834065113
 30
0.0
 11
4431.350471309769091
 21
223.0135905834065113
 31
0.0
  0
LINE
  5
1D4C4
  8
0
 10
4431.3554713097682907
 20
223.0135905834065113
 30
0.0
 11
4431.3804713097670174
 21
223.0135905834065113
 31
0.0
  0
LINE
  5
1D4C5
  8
0
 10
4431.385471309768036
 20
223.0135905834065113
 30
0.0
 11
4431.4104713097667627
 21
223.0135905834065113
 31
0.0
  0
LINE
  5
1D4C6
  8
0
 10
4431.4154713097677813
 20
223.0135905834065113
 30
0.0
 11
4431.4404713097692365
 21
223.0135905834065113
 31
0.0
  0
LINE
  5
1D4C7
  8
0
 10
4431.4454713097684362
 20
223.0135905834065113
 30
0.0
 11
4431.4704713097680724
 21
223.0135905834065113
 31
0.0
  0
LINE
  5
1D4C8
  8
0
 10
4431.4754713097681815
 20
223.0135905834065113
 30
0.0
 11
4431.5004713097669082
 21
223.0135905834065113
 31
0.0
  0
LINE
  5
1D4C9
  8
0
 10
4431.5054713097679269
 20
223.0135905834065113
 30
0.0
 11
4431.5304713097693821
 21
223.0135905834065113
 31
0.0
  0
LINE
  5
1D4CA
  8
0
 10
4431.5354713097667627
 20
223.0135905834065113
 30
0.0
 11
4431.5604713097682179
 21
223.0135905834065113
 31
0.0
  0
LINE
  5
1D4CB
  8
0
 10
4431.565471309768327
 20
223.0135905834065113
 30
0.0
 11
4431.5904713097679632
 21
223.0135905834065113
 31
0.0
  0
LINE
  5
1D4CC
  8
0
 10
4431.5954713097680724
 20
223.0135905834065113
 30
0.0
 11
4431.6204713097667991
 21
223.0135905834065113
 31
0.0
  0
LINE
  5
1D4CD
  8
0
 10
4431.6254713097669082
 20
223.0135905834065113
 30
0.0
 11
4431.6504713097683634
 21
223.0135905834065113
 31
0.0
  0
LINE
  5
1D4CE
  8
0
 10
4431.6554713097693821
 20
223.0135905834065113
 30
0.0
 11
4431.6804713097681088
 21
223.0135905834065113
 31
0.0
  0
LINE
  5
1D4CF
  8
0
 10
4437.5706066541997643
 20
222.9835905834065102
 30
0.0
 11
4437.5609831208676042
 21
222.9835905834065102
 31
0.0
  0
LINE
  5
1D4D0
  8
0
 10
4437.5559831208684045
 20
222.9835905834065102
 30
0.0
 11
4437.5309831208678588
 21
222.9835905834065102
 31
0.0
  0
LINE
  5
1D4D1
  8
0
 10
4437.5259831208677497
 20
222.9835905834065102
 30
0.0
 11
4437.5009831208681135
 21
222.9835905834065102
 31
0.0
  0
LINE
  5
1D4D2
  8
0
 10
4437.4959831208670948
 20
222.9835905834065102
 30
0.0
 11
4437.4709831208683681
 21
222.9835905834065102
 31
0.0
  0
LINE
  5
1D4D3
  8
0
 10
4437.465983120868259
 20
222.9835905834065102
 30
0.0
 11
4437.4409831208668038
 21
222.9835905834065102
 31
0.0
  0
LINE
  5
1D4D4
  8
0
 10
4437.4359831208676042
 20
222.9835905834065102
 30
0.0
 11
4437.410983120867968
 21
222.9835905834065102
 31
0.0
  0
LINE
  5
1D4D5
  8
0
 10
4437.4059831208669493
 20
222.9835905834065102
 30
0.0
 11
4437.3809831208682226
 21
222.9835905834065102
 31
0.0
  0
LINE
  5
1D4D6
  8
0
 10
4437.3759831208681135
 20
222.9835905834065102
 30
0.0
 11
4437.3509831208675678
 21
222.9835905834065102
 31
0.0
  0
LINE
  5
1D4D7
  8
0
 10
4437.3459831208683681
 20
222.9835905834065102
 30
0.0
 11
4437.3209831208669129
 21
222.9835905834065102
 31
0.0
  0
LINE
  5
1D4D8
  8
0
 10
4437.3159831208668038
 20
222.9835905834065102
 30
0.0
 11
4437.2909831208680771
 21
222.9835905834065102
 31
0.0
  0
LINE
  5
1D4D9
  8
0
 10
4437.285983120867968
 20
222.9835905834065102
 30
0.0
 11
4437.2609831208683318
 21
222.9835905834065102
 31
0.0
  0
LINE
  5
1D4DA
  8
0
 10
4437.2559831208682226
 20
222.9835905834065102
 30
0.0
 11
4437.2309831208667674
 21
222.9835905834065102
 31
0.0
  0
LINE
  5
1D4DB
  8
0
 10
4437.2259831208675678
 20
222.9835905834065102
 30
0.0
 11
4437.2113595875352985
 21
222.9835905834065102
 31
0.0
  0
LINE
  5
1D4DC
  8
0
 10
4437.2076326948499627
 20
222.9885905834065056
 30
0.0
 11
4437.2259831208675678
 21
222.9885905834065909
 31
0.0
  0
LINE
  5
1D4DD
  8
0
 10
4437.2309831208667674
 20
222.9885905834065909
 30
0.0
 11
4437.2559831208682226
 21
222.9885905834065909
 31
0.0
  0
LINE
  5
1D4DE
  8
0
 10
4437.2609831208683318
 20
222.9885905834065909
 30
0.0
 11
4437.285983120867968
 21
222.9885905834065909
 31
0.0
  0
LINE
  5
1D4DF
  8
0
 10
4437.2909831208680771
 20
222.9885905834065909
 30
0.0
 11
4437.3159831208668038
 21
222.9885905834065909
 31
0.0
  0
LINE
  5
1D4E0
  8
0
 10
4437.3209831208669129
 20
222.9885905834065909
 30
0.0
 11
4437.3459831208683681
 21
222.9885905834065909
 31
0.0
  0
LINE
  5
1D4E1
  8
0
 10
4437.3509831208675678
 20
222.9885905834065909
 30
0.0
 11
4437.3759831208681135
 21
222.9885905834065909
 31
0.0
  0
LINE
  5
1D4E2
  8
0
 10
4437.3809831208682226
 20
222.9885905834065909
 30
0.0
 11
4437.4059831208669493
 21
222.9885905834065909
 31
0.0
  0
LINE
  5
1D4E3
  8
0
 10
4437.410983120867968
 20
222.9885905834065909
 30
0.0
 11
4437.4359831208676042
 21
222.9885905834065909
 31
0.0
  0
LINE
  5
1D4E4
  8
0
 10
4437.4409831208668038
 20
222.9885905834065909
 30
0.0
 11
4437.465983120868259
 21
222.9885905834065909
 31
0.0
  0
LINE
  5
1D4E5
  8
0
 10
4437.4709831208683681
 20
222.9885905834065909
 30
0.0
 11
4437.4959831208670948
 21
222.9885905834065909
 31
0.0
  0
LINE
  5
1D4E6
  8
0
 10
4437.5009831208681135
 20
222.9885905834065909
 30
0.0
 11
4437.5259831208677497
 21
222.9885905834065909
 31
0.0
  0
LINE
  5
1D4E7
  8
0
 10
4437.5309831208678588
 20
222.9885905834065909
 30
0.0
 11
4437.5559831208684045
 21
222.9885905834065909
 31
0.0
  0
LINE
  5
1D4E8
  8
0
 10
4437.5609831208676042
 20
222.9885905834065909
 30
0.0
 11
4437.5743335468860096
 21
222.9885905834065056
 31
0.0
  0
LINE
  5
1D4E9
  8
0
 10
4431.6941391407017363
 20
223.0335905834066068
 30
0.0
 11
4431.6854713097682179
 21
223.0335905834066068
 31
0.0
  0
LINE
  5
1D4EA
  8
0
 10
4431.6804713097681088
 20
223.0335905834066068
 30
0.0
 11
4431.6554713097693821
 21
223.0335905834066068
 31
0.0
  0
LINE
  5
1D4EB
  8
0
 10
4431.6504713097683634
 20
223.0335905834066068
 30
0.0
 11
4431.6254713097669082
 21
223.0335905834066068
 31
0.0
  0
LINE
  5
1D4EC
  8
0
 10
4431.6204713097667991
 20
223.0335905834066068
 30
0.0
 11
4431.5954713097680724
 21
223.0335905834066068
 31
0.0
  0
LINE
  5
1D4ED
  8
0
 10
4431.5904713097679632
 20
223.0335905834066068
 30
0.0
 11
4431.565471309768327
 21
223.0335905834066068
 31
0.0
  0
LINE
  5
1D4EE
  8
0
 10
4431.5604713097682179
 20
223.0335905834066068
 30
0.0
 11
4431.5354713097667627
 21
223.0335905834066068
 31
0.0
  0
LINE
  5
1D4EF
  8
0
 10
4431.5304713097693821
 20
223.0335905834066068
 30
0.0
 11
4431.5054713097679269
 21
223.0335905834066068
 31
0.0
  0
LINE
  5
1D4F0
  8
0
 10
4431.5004713097669082
 20
223.0335905834066068
 30
0.0
 11
4431.4754713097681815
 21
223.0335905834066068
 31
0.0
  0
LINE
  5
1D4F1
  8
0
 10
4431.4704713097680724
 20
223.0335905834066068
 30
0.0
 11
4431.4454713097684362
 21
223.0335905834066068
 31
0.0
  0
LINE
  5
1D4F2
  8
0
 10
4431.4404713097692365
 20
223.0335905834066068
 30
0.0
 11
4431.4154713097677813
 21
223.0335905834066068
 31
0.0
  0
LINE
  5
1D4F3
  8
0
 10
4431.4104713097667627
 20
223.0335905834066068
 30
0.0
 11
4431.385471309768036
 21
223.0335905834066068
 31
0.0
  0
LINE
  5
1D4F4
  8
0
 10
4431.3804713097670174
 20
223.0335905834066068
 30
0.0
 11
4431.3554713097682907
 21
223.0335905834066068
 31
0.0
  0
LINE
  5
1D4F5
  8
0
 10
4431.350471309769091
 20
223.0335905834066068
 30
0.0
 11
4431.3254713097676358
 21
223.0335905834066068
 31
0.0
  0
LINE
  5
1D4F6
  8
0
 10
4431.3204713097684362
 20
223.0335905834066068
 30
0.0
 11
4431.2954713097678905
 21
223.0335905834066068
 31
0.0
  0
LINE
  5
1D4F7
  8
0
 10
4431.2904713097668719
 20
223.0335905834066068
 30
0.0
 11
4431.2768034788332443
 21
223.0335905834066068
 31
0.0
  0
LINE
  5
1D4F8
  8
0
 10
4431.2747700315057955
 20
223.0385905834066023
 30
0.0
 11
4431.2904713097668719
 21
223.0385905834066023
 31
0.0
  0
LINE
  5
1D4F9
  8
0
 10
4431.2954713097678905
 20
223.0385905834066023
 30
0.0
 11
4431.3204713097684362
 21
223.0385905834066023
 31
0.0
  0
LINE
  5
1D4FA
  8
0
 10
4431.3254713097676358
 20
223.0385905834066023
 30
0.0
 11
4431.350471309769091
 21
223.0385905834066023
 31
0.0
  0
LINE
  5
1D4FB
  8
0
 10
4431.3554713097682907
 20
223.0385905834066023
 30
0.0
 11
4431.3804713097670174
 21
223.0385905834066023
 31
0.0
  0
LINE
  5
1D4FC
  8
0
 10
4431.385471309768036
 20
223.0385905834066023
 30
0.0
 11
4431.4104713097667627
 21
223.0385905834066023
 31
0.0
  0
LINE
  5
1D4FD
  8
0
 10
4431.4154713097677813
 20
223.0385905834066023
 30
0.0
 11
4431.4404713097692365
 21
223.0385905834066023
 31
0.0
  0
LINE
  5
1D4FE
  8
0
 10
4431.4454713097684362
 20
223.0385905834066023
 30
0.0
 11
4431.4704713097680724
 21
223.0385905834066023
 31
0.0
  0
LINE
  5
1D4FF
  8
0
 10
4431.4754713097681815
 20
223.0385905834066023
 30
0.0
 11
4431.5004713097669082
 21
223.0385905834066023
 31
0.0
  0
LINE
  5
1D500
  8
0
 10
4431.5054713097679269
 20
223.0385905834066023
 30
0.0
 11
4431.5304713097693821
 21
223.0385905834066023
 31
0.0
  0
LINE
  5
1D501
  8
0
 10
4431.5354713097667627
 20
223.0385905834066023
 30
0.0
 11
4431.5604713097682179
 21
223.0385905834066023
 31
0.0
  0
LINE
  5
1D502
  8
0
 10
4431.565471309768327
 20
223.0385905834066023
 30
0.0
 11
4431.5904713097679632
 21
223.0385905834066023
 31
0.0
  0
LINE
  5
1D503
  8
0
 10
4431.5954713097680724
 20
223.0385905834066023
 30
0.0
 11
4431.6204713097667991
 21
223.0385905834066023
 31
0.0
  0
LINE
  5
1D504
  8
0
 10
4431.6254713097669082
 20
223.0385905834066023
 30
0.0
 11
4431.6504713097683634
 21
223.0385905834066023
 31
0.0
  0
LINE
  5
1D505
  8
0
 10
4431.6554713097693821
 20
223.0385905834066023
 30
0.0
 11
4431.6804713097681088
 21
223.0385905834066023
 31
0.0
  0
LINE
  5
1D506
  8
0
 10
4431.6854713097682179
 20
223.0385905834066023
 30
0.0
 11
4431.6961725880282756
 21
223.0385905834066023
 31
0.0
  0
LINE
  5
1D507
  8
0
 10
4437.5859831208672404
 20
223.0085905834064874
 30
0.0
 11
4437.5609831208676042
 21
223.0085905834064874
 31
0.0
  0
LINE
  5
1D508
  8
0
 10
4437.5559831208684045
 20
223.0085905834064874
 30
0.0
 11
4437.5309831208678588
 21
223.0085905834064874
 31
0.0
  0
LINE
  5
1D509
  8
0
 10
4437.5259831208677497
 20
223.0085905834064874
 30
0.0
 11
4437.5009831208681135
 21
223.0085905834064874
 31
0.0
  0
LINE
  5
1D50A
  8
0
 10
4437.4959831208670948
 20
223.0085905834064874
 30
0.0
 11
4437.4709831208683681
 21
223.0085905834064874
 31
0.0
  0
LINE
  5
1D50B
  8
0
 10
4437.465983120868259
 20
223.0085905834064874
 30
0.0
 11
4437.4409831208668038
 21
223.0085905834064874
 31
0.0
  0
LINE
  5
1D50C
  8
0
 10
4437.4359831208676042
 20
223.0085905834064874
 30
0.0
 11
4437.410983120867968
 21
223.0085905834064874
 31
0.0
  0
LINE
  5
1D50D
  8
0
 10
4437.4059831208669493
 20
223.0085905834064874
 30
0.0
 11
4437.3809831208682226
 21
223.0085905834064874
 31
0.0
  0
LINE
  5
1D50E
  8
0
 10
4437.3759831208681135
 20
223.0085905834064874
 30
0.0
 11
4437.3509831208675678
 21
223.0085905834064874
 31
0.0
  0
LINE
  5
1D50F
  8
0
 10
4437.3459831208683681
 20
223.0085905834064874
 30
0.0
 11
4437.3209831208669129
 21
223.0085905834064874
 31
0.0
  0
LINE
  5
1D510
  8
0
 10
4437.3159831208668038
 20
223.0085905834064874
 30
0.0
 11
4437.2909831208680771
 21
223.0085905834064874
 31
0.0
  0
LINE
  5
1D511
  8
0
 10
4437.285983120867968
 20
223.0085905834064874
 30
0.0
 11
4437.2609831208683318
 21
223.0085905834064874
 31
0.0
  0
LINE
  5
1D512
  8
0
 10
4437.2559831208682226
 20
223.0085905834064874
 30
0.0
 11
4437.2309831208667674
 21
223.0085905834064874
 31
0.0
  0
LINE
  5
1D513
  8
0
 10
4437.2259831208675678
 20
223.0085905834064874
 30
0.0
 11
4437.2009831208679316
 21
223.0085905834064874
 31
0.0
  0
LINE
  5
1D514
  8
0
 10
4437.1959831208678224
 20
223.0085905834064874
 30
0.0
 11
4437.194696497032055
 21
223.0085905834066011
 31
0.0
  0
LINE
  5
1D515
  8
0
 10
4437.2009831208679316
 20
223.0135905834065113
 30
0.0
 11
4437.2259831208675678
 21
223.0135905834065113
 31
0.0
  0
LINE
  5
1D516
  8
0
 10
4437.1919072466616853
 20
223.0135905834065113
 30
0.0
 11
4437.1959831208678224
 21
223.0135905834065113
 31
0.0
  0
LINE
  5
1D517
  8
0
 10
4437.2309831208667674
 20
223.0135905834065113
 30
0.0
 11
4437.2559831208682226
 21
223.0135905834065113
 31
0.0
  0
LINE
  5
1D518
  8
0
 10
4437.2609831208683318
 20
223.0135905834065113
 30
0.0
 11
4437.285983120867968
 21
223.0135905834065113
 31
0.0
  0
LINE
  5
1D519
  8
0
 10
4437.2909831208680771
 20
223.0135905834065113
 30
0.0
 11
4437.3159831208668038
 21
223.0135905834065113
 31
0.0
  0
LINE
  5
1D51A
  8
0
 10
4437.3209831208669129
 20
223.0135905834065113
 30
0.0
 11
4437.3459831208683681
 21
223.0135905834065113
 31
0.0
  0
LINE
  5
1D51B
  8
0
 10
4437.3509831208675678
 20
223.0135905834065113
 30
0.0
 11
4437.3759831208681135
 21
223.0135905834065113
 31
0.0
  0
LINE
  5
1D51C
  8
0
 10
4437.3809831208682226
 20
223.0135905834065113
 30
0.0
 11
4437.4059831208669493
 21
223.0135905834065113
 31
0.0
  0
LINE
  5
1D51D
  8
0
 10
4437.410983120867968
 20
223.0135905834065113
 30
0.0
 11
4437.4359831208676042
 21
223.0135905834065113
 31
0.0
  0
LINE
  5
1D51E
  8
0
 10
4437.4409831208668038
 20
223.0135905834065113
 30
0.0
 11
4437.465983120868259
 21
223.0135905834065113
 31
0.0
  0
LINE
  5
1D51F
  8
0
 10
4437.4709831208683681
 20
223.0135905834065113
 30
0.0
 11
4437.4959831208670948
 21
223.0135905834065113
 31
0.0
  0
LINE
  5
1D520
  8
0
 10
4437.5009831208681135
 20
223.0135905834065113
 30
0.0
 11
4437.5259831208677497
 21
223.0135905834065113
 31
0.0
  0
LINE
  5
1D521
  8
0
 10
4437.5309831208678588
 20
223.0135905834065113
 30
0.0
 11
4437.5559831208684045
 21
223.0135905834065113
 31
0.0
  0
LINE
  5
1D522
  8
0
 10
4437.5609831208676042
 20
223.0135905834065113
 30
0.0
 11
4437.5859831208672404
 21
223.0135905834065113
 31
0.0
  0
LINE
  5
1D523
  8
0
 10
4431.7029709388170886
 20
223.0585905834066125
 30
0.0
 11
4431.6854713097682179
 21
223.0585905834066125
 31
0.0
  0
LINE
  5
1D524
  8
0
 10
4431.6804713097681088
 20
223.0585905834066125
 30
0.0
 11
4431.6554713097693821
 21
223.0585905834066125
 31
0.0
  0
LINE
  5
1D525
  8
0
 10
4431.6504713097683634
 20
223.0585905834066125
 30
0.0
 11
4431.6254713097669082
 21
223.0585905834066125
 31
0.0
  0
LINE
  5
1D526
  8
0
 10
4431.6204713097667991
 20
223.0585905834066125
 30
0.0
 11
4431.5954713097680724
 21
223.0585905834066125
 31
0.0
  0
LINE
  5
1D527
  8
0
 10
4431.5904713097679632
 20
223.0585905834066125
 30
0.0
 11
4431.565471309768327
 21
223.0585905834066125
 31
0.0
  0
LINE
  5
1D528
  8
0
 10
4431.5604713097682179
 20
223.0585905834066125
 30
0.0
 11
4431.5354713097667627
 21
223.0585905834066125
 31
0.0
  0
LINE
  5
1D529
  8
0
 10
4431.5304713097693821
 20
223.0585905834066125
 30
0.0
 11
4431.5054713097679269
 21
223.0585905834066125
 31
0.0
  0
LINE
  5
1D52A
  8
0
 10
4431.5004713097669082
 20
223.0585905834066125
 30
0.0
 11
4431.4754713097681815
 21
223.0585905834066125
 31
0.0
  0
LINE
  5
1D52B
  8
0
 10
4431.4704713097680724
 20
223.0585905834066125
 30
0.0
 11
4431.4454713097684362
 21
223.0585905834066125
 31
0.0
  0
LINE
  5
1D52C
  8
0
 10
4431.4404713097692365
 20
223.0585905834066125
 30
0.0
 11
4431.4154713097677813
 21
223.0585905834066125
 31
0.0
  0
LINE
  5
1D52D
  8
0
 10
4431.4104713097667627
 20
223.0585905834066125
 30
0.0
 11
4431.385471309768036
 21
223.0585905834066125
 31
0.0
  0
LINE
  5
1D52E
  8
0
 10
4431.3804713097670174
 20
223.0585905834066125
 30
0.0
 11
4431.3554713097682907
 21
223.0585905834066125
 31
0.0
  0
LINE
  5
1D52F
  8
0
 10
4431.350471309769091
 20
223.0585905834066125
 30
0.0
 11
4431.3254713097676358
 21
223.0585905834066125
 31
0.0
  0
LINE
  5
1D530
  8
0
 10
4431.3204713097684362
 20
223.0585905834066125
 30
0.0
 11
4431.2954713097678905
 21
223.0585905834066125
 31
0.0
  0
LINE
  5
1D531
  8
0
 10
4431.2904713097668719
 20
223.0585905834066125
 30
0.0
 11
4431.267971680717892
 21
223.0585905834066125
 31
0.0
  0
LINE
  5
1D532
  8
0
 10
4431.2665903977840571
 20
223.0635905834064943
 30
0.0
 11
4431.2904713097668719
 21
223.0635905834064943
 31
0.0
  0
LINE
  5
1D533
  8
0
 10
4431.2954713097678905
 20
223.0635905834064943
 30
0.0
 11
4431.3204713097684362
 21
223.0635905834064943
 31
0.0
  0
LINE
  5
1D534
  8
0
 10
4431.3254713097676358
 20
223.0635905834064943
 30
0.0
 11
4431.350471309769091
 21
223.0635905834064943
 31
0.0
  0
LINE
  5
1D535
  8
0
 10
4431.3554713097682907
 20
223.0635905834064943
 30
0.0
 11
4431.3804713097670174
 21
223.0635905834064943
 31
0.0
  0
LINE
  5
1D536
  8
0
 10
4431.385471309768036
 20
223.0635905834064943
 30
0.0
 11
4431.4104713097667627
 21
223.0635905834064943
 31
0.0
  0
LINE
  5
1D537
  8
0
 10
4431.4154713097677813
 20
223.0635905834064943
 30
0.0
 11
4431.4404713097692365
 21
223.0635905834064943
 31
0.0
  0
LINE
  5
1D538
  8
0
 10
4431.4454713097684362
 20
223.0635905834064943
 30
0.0
 11
4431.4704713097680724
 21
223.0635905834064943
 31
0.0
  0
LINE
  5
1D539
  8
0
 10
4431.4754713097681815
 20
223.0635905834064943
 30
0.0
 11
4431.5004713097669082
 21
223.0635905834064943
 31
0.0
  0
LINE
  5
1D53A
  8
0
 10
4431.5054713097679269
 20
223.0635905834064943
 30
0.0
 11
4431.5304713097693821
 21
223.0635905834064943
 31
0.0
  0
LINE
  5
1D53B
  8
0
 10
4431.5354713097667627
 20
223.0635905834064943
 30
0.0
 11
4431.5604713097682179
 21
223.0635905834064943
 31
0.0
  0
LINE
  5
1D53C
  8
0
 10
4431.565471309768327
 20
223.0635905834064943
 30
0.0
 11
4431.5904713097679632
 21
223.0635905834064943
 31
0.0
  0
LINE
  5
1D53D
  8
0
 10
4431.5954713097680724
 20
223.0635905834064943
 30
0.0
 11
4431.6204713097667991
 21
223.0635905834064943
 31
0.0
  0
LINE
  5
1D53E
  8
0
 10
4431.6254713097669082
 20
223.0635905834064943
 30
0.0
 11
4431.6504713097683634
 21
223.0635905834064943
 31
0.0
  0
LINE
  5
1D53F
  8
0
 10
4431.6554713097693821
 20
223.0635905834064943
 30
0.0
 11
4431.6804713097681088
 21
223.0635905834064943
 31
0.0
  0
LINE
  5
1D540
  8
0
 10
4431.6854713097682179
 20
223.0635905834064943
 30
0.0
 11
4431.704352221751833
 21
223.0635905834064943
 31
0.0
  0
LINE
  5
1D541
  8
0
 10
4437.5996509518017774
 20
223.0335905834066068
 30
0.0
 11
4437.590983120868259
 21
223.0335905834066068
 31
0.0
  0
LINE
  5
1D542
  8
0
 10
4437.5859831208672404
 20
223.0335905834066068
 30
0.0
 11
4437.5609831208676042
 21
223.0335905834066068
 31
0.0
  0
LINE
  5
1D543
  8
0
 10
4437.5559831208684045
 20
223.0335905834066068
 30
0.0
 11
4437.5309831208678588
 21
223.0335905834066068
 31
0.0
  0
LINE
  5
1D544
  8
0
 10
4437.5259831208677497
 20
223.0335905834066068
 30
0.0
 11
4437.5009831208681135
 21
223.0335905834066068
 31
0.0
  0
LINE
  5
1D545
  8
0
 10
4437.4959831208670948
 20
223.0335905834066068
 30
0.0
 11
4437.4709831208683681
 21
223.0335905834066068
 31
0.0
  0
LINE
  5
1D546
  8
0
 10
4437.465983120868259
 20
223.0335905834066068
 30
0.0
 11
4437.4409831208668038
 21
223.0335905834066068
 31
0.0
  0
LINE
  5
1D547
  8
0
 10
4437.4359831208676042
 20
223.0335905834066068
 30
0.0
 11
4437.410983120867968
 21
223.0335905834066068
 31
0.0
  0
LINE
  5
1D548
  8
0
 10
4437.4059831208669493
 20
223.0335905834066068
 30
0.0
 11
4437.3809831208682226
 21
223.0335905834066068
 31
0.0
  0
LINE
  5
1D549
  8
0
 10
4437.3759831208681135
 20
223.0335905834066068
 30
0.0
 11
4437.3509831208675678
 21
223.0335905834066068
 31
0.0
  0
LINE
  5
1D54A
  8
0
 10
4437.3459831208683681
 20
223.0335905834066068
 30
0.0
 11
4437.3209831208669129
 21
223.0335905834066068
 31
0.0
  0
LINE
  5
1D54B
  8
0
 10
4437.3159831208668038
 20
223.0335905834066068
 30
0.0
 11
4437.2909831208680771
 21
223.0335905834066068
 31
0.0
  0
LINE
  5
1D54C
  8
0
 10
4437.285983120867968
 20
223.0335905834066068
 30
0.0
 11
4437.2609831208683318
 21
223.0335905834066068
 31
0.0
  0
LINE
  5
1D54D
  8
0
 10
4437.2559831208682226
 20
223.0335905834066068
 30
0.0
 11
4437.2309831208667674
 21
223.0335905834066068
 31
0.0
  0
LINE
  5
1D54E
  8
0
 10
4437.2259831208675678
 20
223.0335905834066068
 30
0.0
 11
4437.2009831208679316
 21
223.0335905834066068
 31
0.0
  0
LINE
  5
1D54F
  8
0
 10
4437.1959831208678224
 20
223.0335905834066068
 30
0.0
 11
4437.1823152899332854
 21
223.0335905834066068
 31
0.0
  0
LINE
  5
1D550
  8
0
 10
4437.2009831208679316
 20
223.0385905834066023
 30
0.0
 11
4437.2259831208675678
 21
223.0385905834066023
 31
0.0
  0
LINE
  5
1D551
  8
0
 10
4437.1813566131077096
 20
223.0385905834066023
 30
0.0
 11
4437.1959831208678224
 21
223.0385905834066023
 31
0.0
  0
LINE
  5
1D552
  8
0
 10
4437.2309831208667674
 20
223.0385905834066023
 30
0.0
 11
4437.2559831208682226
 21
223.0385905834066023
 31
0.0
  0
LINE
  5
1D553
  8
0
 10
4437.2609831208683318
 20
223.0385905834066023
 30
0.0
 11
4437.285983120867968
 21
223.0385905834066023
 31
0.0
  0
LINE
  5
1D554
  8
0
 10
4437.2909831208680771
 20
223.0385905834066023
 30
0.0
 11
4437.3159831208668038
 21
223.0385905834066023
 31
0.0
  0
LINE
  5
1D555
  8
0
 10
4437.3209831208669129
 20
223.0385905834066023
 30
0.0
 11
4437.3459831208683681
 21
223.0385905834066023
 31
0.0
  0
LINE
  5
1D556
  8
0
 10
4437.3509831208675678
 20
223.0385905834066023
 30
0.0
 11
4437.3759831208681135
 21
223.0385905834066023
 31
0.0
  0
LINE
  5
1D557
  8
0
 10
4437.3809831208682226
 20
223.0385905834066023
 30
0.0
 11
4437.4059831208669493
 21
223.0385905834066023
 31
0.0
  0
LINE
  5
1D558
  8
0
 10
4437.410983120867968
 20
223.0385905834066023
 30
0.0
 11
4437.4359831208676042
 21
223.0385905834066023
 31
0.0
  0
LINE
  5
1D559
  8
0
 10
4437.4409831208668038
 20
223.0385905834066023
 30
0.0
 11
4437.465983120868259
 21
223.0385905834066023
 31
0.0
  0
LINE
  5
1D55A
  8
0
 10
4437.4709831208683681
 20
223.0385905834066023
 30
0.0
 11
4437.4959831208670948
 21
223.0385905834066023
 31
0.0
  0
LINE
  5
1D55B
  8
0
 10
4437.5009831208681135
 20
223.0385905834066023
 30
0.0
 11
4437.5259831208677497
 21
223.0385905834066023
 31
0.0
  0
LINE
  5
1D55C
  8
0
 10
4437.5309831208678588
 20
223.0385905834066023
 30
0.0
 11
4437.5559831208684045
 21
223.0385905834066023
 31
0.0
  0
LINE
  5
1D55D
  8
0
 10
4437.5609831208676042
 20
223.0385905834066023
 30
0.0
 11
4437.5859831208672404
 21
223.0385905834066023
 31
0.0
  0
LINE
  5
1D55E
  8
0
 10
4437.590983120868259
 20
223.0385905834066023
 30
0.0
 11
4437.6016843991292262
 21
223.0385905834066023
 31
0.0
  0
LINE
  5
1D55F
  8
0
 10
4431.708675058855988
 20
223.0835905834065898
 30
0.0
 11
4431.6854713097682179
 21
223.0835905834065898
 31
0.0
  0
LINE
  5
1D560
  8
0
 10
4431.6804713097681088
 20
223.0835905834065898
 30
0.0
 11
4431.6554713097693821
 21
223.0835905834065898
 31
0.0
  0
LINE
  5
1D561
  8
0
 10
4431.6504713097683634
 20
223.0835905834065898
 30
0.0
 11
4431.6254713097669082
 21
223.0835905834065898
 31
0.0
  0
LINE
  5
1D562
  8
0
 10
4431.6204713097667991
 20
223.0835905834065898
 30
0.0
 11
4431.5954713097680724
 21
223.0835905834065898
 31
0.0
  0
LINE
  5
1D563
  8
0
 10
4431.5904713097679632
 20
223.0835905834065898
 30
0.0
 11
4431.565471309768327
 21
223.0835905834065898
 31
0.0
  0
LINE
  5
1D564
  8
0
 10
4431.5604713097682179
 20
223.0835905834065898
 30
0.0
 11
4431.5354713097667627
 21
223.0835905834065898
 31
0.0
  0
LINE
  5
1D565
  8
0
 10
4431.5304713097693821
 20
223.0835905834065898
 30
0.0
 11
4431.5054713097679269
 21
223.0835905834065898
 31
0.0
  0
LINE
  5
1D566
  8
0
 10
4431.5004713097669082
 20
223.0835905834065898
 30
0.0
 11
4431.4754713097681815
 21
223.0835905834065898
 31
0.0
  0
LINE
  5
1D567
  8
0
 10
4431.4704713097680724
 20
223.0835905834065898
 30
0.0
 11
4431.4454713097684362
 21
223.0835905834065898
 31
0.0
  0
LINE
  5
1D568
  8
0
 10
4431.4404713097692365
 20
223.0835905834065898
 30
0.0
 11
4431.4154713097677813
 21
223.0835905834065898
 31
0.0
  0
LINE
  5
1D569
  8
0
 10
4431.4104713097667627
 20
223.0835905834065898
 30
0.0
 11
4431.385471309768036
 21
223.0835905834065898
 31
0.0
  0
LINE
  5
1D56A
  8
0
 10
4431.3804713097670174
 20
223.0835905834065898
 30
0.0
 11
4431.3554713097682907
 21
223.0835905834065898
 31
0.0
  0
LINE
  5
1D56B
  8
0
 10
4431.350471309769091
 20
223.0835905834065898
 30
0.0
 11
4431.3254713097676358
 21
223.0835905834065898
 31
0.0
  0
LINE
  5
1D56C
  8
0
 10
4431.3204713097684362
 20
223.0835905834065898
 30
0.0
 11
4431.2954713097678905
 21
223.0835905834065898
 31
0.0
  0
LINE
  5
1D56D
  8
0
 10
4431.2904713097668719
 20
223.0835905834065898
 30
0.0
 11
4431.2654713097672357
 21
223.0835905834065898
 31
0.0
  0
LINE
  5
1D56E
  8
0
 10
4431.2654713097672357
 20
223.0885905834066136
 30
0.0
 11
4431.2904713097668719
 21
223.0885905834066136
 31
0.0
  0
LINE
  5
1D56F
  8
0
 10
4431.2954713097678905
 20
223.0885905834066136
 30
0.0
 11
4431.3204713097684362
 21
223.0885905834066136
 31
0.0
  0
LINE
  5
1D570
  8
0
 10
4431.3254713097676358
 20
223.0885905834066136
 30
0.0
 11
4431.350471309769091
 21
223.0885905834066136
 31
0.0
  0
LINE
  5
1D571
  8
0
 10
4431.3554713097682907
 20
223.0885905834066136
 30
0.0
 11
4431.3804713097670174
 21
223.0885905834066136
 31
0.0
  0
LINE
  5
1D572
  8
0
 10
4431.385471309768036
 20
223.0885905834066136
 30
0.0
 11
4431.4104713097667627
 21
223.0885905834066136
 31
0.0
  0
LINE
  5
1D573
  8
0
 10
4431.4154713097677813
 20
223.0885905834066136
 30
0.0
 11
4431.4404713097692365
 21
223.0885905834066136
 31
0.0
  0
LINE
  5
1D574
  8
0
 10
4431.4454713097684362
 20
223.0885905834066136
 30
0.0
 11
4431.4704713097680724
 21
223.0885905834066136
 31
0.0
  0
LINE
  5
1D575
  8
0
 10
4431.4754713097681815
 20
223.0885905834066136
 30
0.0
 11
4431.5004713097669082
 21
223.0885905834066136
 31
0.0
  0
LINE
  5
1D576
  8
0
 10
4431.5054713097679269
 20
223.0885905834066136
 30
0.0
 11
4431.5304713097693821
 21
223.0885905834066136
 31
0.0
  0
LINE
  5
1D577
  8
0
 10
4431.5354713097667627
 20
223.0885905834066136
 30
0.0
 11
4431.5604713097682179
 21
223.0885905834066136
 31
0.0
  0
LINE
  5
1D578
  8
0
 10
4431.565471309768327
 20
223.0885905834066136
 30
0.0
 11
4431.5904713097679632
 21
223.0885905834066136
 31
0.0
  0
LINE
  5
1D579
  8
0
 10
4431.5954713097680724
 20
223.0885905834066136
 30
0.0
 11
4431.6204713097667991
 21
223.0885905834066136
 31
0.0
  0
LINE
  5
1D57A
  8
0
 10
4431.6254713097669082
 20
223.0885905834066136
 30
0.0
 11
4431.6504713097683634
 21
223.0885905834066136
 31
0.0
  0
LINE
  5
1D57B
  8
0
 10
4431.6554713097693821
 20
223.0885905834066136
 30
0.0
 11
4431.6804713097681088
 21
223.0885905834066136
 31
0.0
  0
LINE
  5
1D57C
  8
0
 10
4431.6854713097682179
 20
223.0885905834066136
 30
0.0
 11
4431.7094638958087671
 21
223.0885905834066136
 31
0.0
  0
LINE
  5
1D57D
  8
0
 10
4437.6084827499180392
 20
223.0585905834066125
 30
0.0
 11
4437.590983120868259
 21
223.0585905834066125
 31
0.0
  0
LINE
  5
1D57E
  8
0
 10
4437.5859831208672404
 20
223.0585905834066125
 30
0.0
 11
4437.5609831208676042
 21
223.0585905834066125
 31
0.0
  0
LINE
  5
1D57F
  8
0
 10
4437.5559831208684045
 20
223.0585905834066125
 30
0.0
 11
4437.5309831208678588
 21
223.0585905834066125
 31
0.0
  0
LINE
  5
1D580
  8
0
 10
4437.5259831208677497
 20
223.0585905834066125
 30
0.0
 11
4437.5009831208681135
 21
223.0585905834066125
 31
0.0
  0
LINE
  5
1D581
  8
0
 10
4437.4959831208670948
 20
223.0585905834066125
 30
0.0
 11
4437.4709831208683681
 21
223.0585905834066125
 31
0.0
  0
LINE
  5
1D582
  8
0
 10
4437.465983120868259
 20
223.0585905834066125
 30
0.0
 11
4437.4409831208668038
 21
223.0585905834066125
 31
0.0
  0
LINE
  5
1D583
  8
0
 10
4437.4359831208676042
 20
223.0585905834066125
 30
0.0
 11
4437.410983120867968
 21
223.0585905834066125
 31
0.0
  0
LINE
  5
1D584
  8
0
 10
4437.4059831208669493
 20
223.0585905834066125
 30
0.0
 11
4437.3809831208682226
 21
223.0585905834066125
 31
0.0
  0
LINE
  5
1D585
  8
0
 10
4437.3759831208681135
 20
223.0585905834066125
 30
0.0
 11
4437.3509831208675678
 21
223.0585905834066125
 31
0.0
  0
LINE
  5
1D586
  8
0
 10
4437.3459831208683681
 20
223.0585905834066125
 30
0.0
 11
4437.3209831208669129
 21
223.0585905834066125
 31
0.0
  0
LINE
  5
1D587
  8
0
 10
4437.3159831208668038
 20
223.0585905834066125
 30
0.0
 11
4437.2909831208680771
 21
223.0585905834066125
 31
0.0
  0
LINE
  5
1D588
  8
0
 10
4437.285983120867968
 20
223.0585905834066125
 30
0.0
 11
4437.2609831208683318
 21
223.0585905834066125
 31
0.0
  0
LINE
  5
1D589
  8
0
 10
4437.2559831208682226
 20
223.0585905834066125
 30
0.0
 11
4437.2309831208667674
 21
223.0585905834066125
 31
0.0
  0
LINE
  5
1D58A
  8
0
 10
4437.2259831208675678
 20
223.0585905834066125
 30
0.0
 11
4437.2009831208679316
 21
223.0585905834066125
 31
0.0
  0
LINE
  5
1D58B
  8
0
 10
4437.1959831208678224
 20
223.0585905834066125
 30
0.0
 11
4437.1734834918170236
 21
223.0585905834066125
 31
0.0
  0
LINE
  5
1D58C
  8
0
 10
4437.1721022088840982
 20
223.0635905834064943
 30
0.0
 11
4437.1959831208678224
 21
223.0635905834064943
 31
0.0
  0
LINE
  5
1D58D
  8
0
 10
4437.2009831208679316
 20
223.0635905834064943
 30
0.0
 11
4437.2259831208675678
 21
223.0635905834064943
 31
0.0
  0
LINE
  5
1D58E
  8
0
 10
4437.2309831208667674
 20
223.0635905834064943
 30
0.0
 11
4437.2559831208682226
 21
223.0635905834064943
 31
0.0
  0
LINE
  5
1D58F
  8
0
 10
4437.2609831208683318
 20
223.0635905834064943
 30
0.0
 11
4437.285983120867968
 21
223.0635905834064943
 31
0.0
  0
LINE
  5
1D590
  8
0
 10
4437.2909831208680771
 20
223.0635905834064943
 30
0.0
 11
4437.3159831208668038
 21
223.0635905834064943
 31
0.0
  0
LINE
  5
1D591
  8
0
 10
4437.3209831208669129
 20
223.0635905834064943
 30
0.0
 11
4437.3459831208683681
 21
223.0635905834064943
 31
0.0
  0
LINE
  5
1D592
  8
0
 10
4437.3509831208675678
 20
223.0635905834064943
 30
0.0
 11
4437.3759831208681135
 21
223.0635905834064943
 31
0.0
  0
LINE
  5
1D593
  8
0
 10
4437.3809831208682226
 20
223.0635905834064943
 30
0.0
 11
4437.4059831208669493
 21
223.0635905834064943
 31
0.0
  0
LINE
  5
1D594
  8
0
 10
4437.410983120867968
 20
223.0635905834064943
 30
0.0
 11
4437.4359831208676042
 21
223.0635905834064943
 31
0.0
  0
LINE
  5
1D595
  8
0
 10
4437.4409831208668038
 20
223.0635905834064943
 30
0.0
 11
4437.465983120868259
 21
223.0635905834064943
 31
0.0
  0
LINE
  5
1D596
  8
0
 10
4437.4709831208683681
 20
223.0635905834064943
 30
0.0
 11
4437.4959831208670948
 21
223.0635905834064943
 31
0.0
  0
LINE
  5
1D597
  8
0
 10
4437.5009831208681135
 20
223.0635905834064943
 30
0.0
 11
4437.5259831208677497
 21
223.0635905834064943
 31
0.0
  0
LINE
  5
1D598
  8
0
 10
4437.5309831208678588
 20
223.0635905834064943
 30
0.0
 11
4437.5559831208684045
 21
223.0635905834064943
 31
0.0
  0
LINE
  5
1D599
  8
0
 10
4437.5609831208676042
 20
223.0635905834064943
 30
0.0
 11
4437.5859831208672404
 21
223.0635905834064943
 31
0.0
  0
LINE
  5
1D59A
  8
0
 10
4437.590983120868259
 20
223.0635905834064943
 30
0.0
 11
4437.6098640328518741
 21
223.0635905834064943
 31
0.0
  0
LINE
  5
1D59B
  8
0
 10
4431.7104713097669446
 20
223.1085905834065954
 30
0.0
 11
4431.6854713097682179
 21
223.1085905834065954
 31
0.0
  0
LINE
  5
1D59C
  8
0
 10
4431.6804713097681088
 20
223.1085905834065954
 30
0.0
 11
4431.6554713097693821
 21
223.1085905834065954
 31
0.0
  0
LINE
  5
1D59D
  8
0
 10
4431.6504713097683634
 20
223.1085905834065954
 30
0.0
 11
4431.6254713097669082
 21
223.1085905834065954
 31
0.0
  0
LINE
  5
1D59E
  8
0
 10
4431.6204713097667991
 20
223.1085905834065954
 30
0.0
 11
4431.5954713097680724
 21
223.1085905834065954
 31
0.0
  0
LINE
  5
1D59F
  8
0
 10
4431.5904713097679632
 20
223.1085905834065954
 30
0.0
 11
4431.565471309768327
 21
223.1085905834065954
 31
0.0
  0
LINE
  5
1D5A0
  8
0
 10
4431.5604713097682179
 20
223.1085905834065954
 30
0.0
 11
4431.5354713097667627
 21
223.1085905834065954
 31
0.0
  0
LINE
  5
1D5A1
  8
0
 10
4431.5304713097693821
 20
223.1085905834065954
 30
0.0
 11
4431.5054713097679269
 21
223.1085905834065954
 31
0.0
  0
LINE
  5
1D5A2
  8
0
 10
4431.5004713097669082
 20
223.1085905834065954
 30
0.0
 11
4431.4754713097681815
 21
223.1085905834065954
 31
0.0
  0
LINE
  5
1D5A3
  8
0
 10
4431.4704713097680724
 20
223.1085905834065954
 30
0.0
 11
4431.4454713097684362
 21
223.1085905834065954
 31
0.0
  0
LINE
  5
1D5A4
  8
0
 10
4431.4404713097692365
 20
223.1085905834065954
 30
0.0
 11
4431.4154713097677813
 21
223.1085905834065954
 31
0.0
  0
LINE
  5
1D5A5
  8
0
 10
4431.4104713097667627
 20
223.1085905834065954
 30
0.0
 11
4431.385471309768036
 21
223.1085905834065954
 31
0.0
  0
LINE
  5
1D5A6
  8
0
 10
4431.3804713097670174
 20
223.1085905834065954
 30
0.0
 11
4431.3554713097682907
 21
223.1085905834065954
 31
0.0
  0
LINE
  5
1D5A7
  8
0
 10
4431.350471309769091
 20
223.1085905834065954
 30
0.0
 11
4431.3254713097676358
 21
223.1085905834065954
 31
0.0
  0
LINE
  5
1D5A8
  8
0
 10
4431.3204713097684362
 20
223.1085905834065954
 30
0.0
 11
4431.2954713097678905
 21
223.1085905834065954
 31
0.0
  0
LINE
  5
1D5A9
  8
0
 10
4431.2904713097668719
 20
223.1085905834065954
 30
0.0
 11
4431.2654713097672357
 21
223.1085905834065954
 31
0.0
  0
LINE
  5
1D5AA
  8
0
 10
4431.260471309768036
 20
223.1085905834065954
 30
0.0
 11
4431.2594541896696683
 21
223.1085905834065954
 31
0.0
  0
LINE
  5
1D5AB
  8
0
 10
4431.2654713097672357
 20
223.1135905834065909
 30
0.0
 11
4431.2904713097668719
 21
223.1135905834065909
 31
0.0
  0
LINE
  5
1D5AC
  8
0
 10
4431.2954713097678905
 20
223.1135905834065909
 30
0.0
 11
4431.3204713097684362
 21
223.1135905834065909
 31
0.0
  0
LINE
  5
1D5AD
  8
0
 10
4431.3254713097676358
 20
223.1135905834065909
 30
0.0
 11
4431.350471309769091
 21
223.1135905834065909
 31
0.0
  0
LINE
  5
1D5AE
  8
0
 10
4431.3554713097682907
 20
223.1135905834065909
 30
0.0
 11
4431.3804713097670174
 21
223.1135905834065909
 31
0.0
  0
LINE
  5
1D5AF
  8
0
 10
4431.385471309768036
 20
223.1135905834065909
 30
0.0
 11
4431.4104713097667627
 21
223.1135905834065909
 31
0.0
  0
LINE
  5
1D5B0
  8
0
 10
4431.4154713097677813
 20
223.1135905834065909
 30
0.0
 11
4431.4404713097692365
 21
223.1135905834065909
 31
0.0
  0
LINE
  5
1D5B1
  8
0
 10
4431.4454713097684362
 20
223.1135905834065909
 30
0.0
 11
4431.4704713097680724
 21
223.1135905834065909
 31
0.0
  0
LINE
  5
1D5B2
  8
0
 10
4431.4754713097681815
 20
223.1135905834065909
 30
0.0
 11
4431.5004713097669082
 21
223.1135905834065909
 31
0.0
  0
LINE
  5
1D5B3
  8
0
 10
4431.5054713097679269
 20
223.1135905834065909
 30
0.0
 11
4431.5304713097693821
 21
223.1135905834065909
 31
0.0
  0
LINE
  5
1D5B4
  8
0
 10
4431.5354713097667627
 20
223.1135905834065909
 30
0.0
 11
4431.5604713097682179
 21
223.1135905834065909
 31
0.0
  0
LINE
  5
1D5B5
  8
0
 10
4431.565471309768327
 20
223.1135905834065909
 30
0.0
 11
4431.5904713097679632
 21
223.1135905834065909
 31
0.0
  0
LINE
  5
1D5B6
  8
0
 10
4431.5954713097680724
 20
223.1135905834065909
 30
0.0
 11
4431.6204713097667991
 21
223.1135905834065909
 31
0.0
  0
LINE
  5
1D5B7
  8
0
 10
4431.6254713097669082
 20
223.1135905834065909
 30
0.0
 11
4431.6504713097683634
 21
223.1135905834065909
 31
0.0
  0
LINE
  5
1D5B8
  8
0
 10
4431.6554713097693821
 20
223.1135905834065909
 30
0.0
 11
4431.6804713097681088
 21
223.1135905834065909
 31
0.0
  0
LINE
  5
1D5B9
  8
0
 10
4431.6854713097682179
 20
223.1135905834065909
 30
0.0
 11
4431.7104713097669446
 21
223.1135905834065909
 31
0.0
  0
LINE
  5
1D5BA
  8
0
 10
4437.6141868699560291
 20
223.0835905834065045
 30
0.0
 11
4437.590983120868259
 21
223.0835905834065045
 31
0.0
  0
LINE
  5
1D5BB
  8
0
 10
4437.5859831208672404
 20
223.0835905834065045
 30
0.0
 11
4437.5609831208676042
 21
223.0835905834065045
 31
0.0
  0
LINE
  5
1D5BC
  8
0
 10
4437.5559831208684045
 20
223.0835905834065045
 30
0.0
 11
4437.5309831208678588
 21
223.0835905834065045
 31
0.0
  0
LINE
  5
1D5BD
  8
0
 10
4437.5259831208677497
 20
223.0835905834065045
 30
0.0
 11
4437.5009831208681135
 21
223.0835905834065045
 31
0.0
  0
LINE
  5
1D5BE
  8
0
 10
4437.4959831208670948
 20
223.0835905834065045
 30
0.0
 11
4437.4709831208683681
 21
223.0835905834065045
 31
0.0
  0
LINE
  5
1D5BF
  8
0
 10
4437.465983120868259
 20
223.0835905834065045
 30
0.0
 11
4437.4409831208668038
 21
223.0835905834065045
 31
0.0
  0
LINE
  5
1D5C0
  8
0
 10
4437.4359831208676042
 20
223.0835905834065045
 30
0.0
 11
4437.410983120867968
 21
223.0835905834065045
 31
0.0
  0
LINE
  5
1D5C1
  8
0
 10
4437.4059831208669493
 20
223.0835905834065045
 30
0.0
 11
4437.3809831208682226
 21
223.0835905834065045
 31
0.0
  0
LINE
  5
1D5C2
  8
0
 10
4437.3759831208681135
 20
223.0835905834065045
 30
0.0
 11
4437.3509831208675678
 21
223.0835905834065045
 31
0.0
  0
LINE
  5
1D5C3
  8
0
 10
4437.3459831208683681
 20
223.0835905834065045
 30
0.0
 11
4437.3209831208669129
 21
223.0835905834065045
 31
0.0
  0
LINE
  5
1D5C4
  8
0
 10
4437.3159831208668038
 20
223.0835905834065045
 30
0.0
 11
4437.2909831208680771
 21
223.0835905834065045
 31
0.0
  0
LINE
  5
1D5C5
  8
0
 10
4437.285983120867968
 20
223.0835905834065045
 30
0.0
 11
4437.2609831208683318
 21
223.0835905834065045
 31
0.0
  0
LINE
  5
1D5C6
  8
0
 10
4437.2559831208682226
 20
223.0835905834065045
 30
0.0
 11
4437.2309831208667674
 21
223.0835905834065045
 31
0.0
  0
LINE
  5
1D5C7
  8
0
 10
4437.2259831208675678
 20
223.0835905834065045
 30
0.0
 11
4437.2009831208679316
 21
223.0835905834065045
 31
0.0
  0
LINE
  5
1D5C8
  8
0
 10
4437.1959831208678224
 20
223.0835905834065045
 30
0.0
 11
4437.1709831208681862
 21
223.0835905834065045
 31
0.0
  0
LINE
  5
1D5C9
  8
0
 10
4437.1709831208681862
 20
223.0885905834066136
 30
0.0
 11
4437.1959831208678224
 21
223.0885905834066136
 31
0.0
  0
LINE
  5
1D5CA
  8
0
 10
4437.2009831208679316
 20
223.0885905834066136
 30
0.0
 11
4437.2259831208675678
 21
223.0885905834066136
 31
0.0
  0
LINE
  5
1D5CB
  8
0
 10
4437.2309831208667674
 20
223.0885905834066136
 30
0.0
 11
4437.2559831208682226
 21
223.0885905834066136
 31
0.0
  0
LINE
  5
1D5CC
  8
0
 10
4437.2609831208683318
 20
223.0885905834066136
 30
0.0
 11
4437.285983120867968
 21
223.0885905834066136
 31
0.0
  0
LINE
  5
1D5CD
  8
0
 10
4437.2909831208680771
 20
223.0885905834066136
 30
0.0
 11
4437.3159831208668038
 21
223.0885905834066136
 31
0.0
  0
LINE
  5
1D5CE
  8
0
 10
4437.3209831208669129
 20
223.0885905834066136
 30
0.0
 11
4437.3459831208683681
 21
223.0885905834066136
 31
0.0
  0
LINE
  5
1D5CF
  8
0
 10
4437.3509831208675678
 20
223.0885905834066136
 30
0.0
 11
4437.3759831208681135
 21
223.0885905834066136
 31
0.0
  0
LINE
  5
1D5D0
  8
0
 10
4437.3809831208682226
 20
223.0885905834066136
 30
0.0
 11
4437.4059831208669493
 21
223.0885905834066136
 31
0.0
  0
LINE
  5
1D5D1
  8
0
 10
4437.410983120867968
 20
223.0885905834066136
 30
0.0
 11
4437.4359831208676042
 21
223.0885905834066136
 31
0.0
  0
LINE
  5
1D5D2
  8
0
 10
4437.4409831208668038
 20
223.0885905834066136
 30
0.0
 11
4437.465983120868259
 21
223.0885905834066136
 31
0.0
  0
LINE
  5
1D5D3
  8
0
 10
4437.4709831208683681
 20
223.0885905834066136
 30
0.0
 11
4437.4959831208670948
 21
223.0885905834066136
 31
0.0
  0
LINE
  5
1D5D4
  8
0
 10
4437.5009831208681135
 20
223.0885905834066136
 30
0.0
 11
4437.5259831208677497
 21
223.0885905834066136
 31
0.0
  0
LINE
  5
1D5D5
  8
0
 10
4437.5309831208678588
 20
223.0885905834066136
 30
0.0
 11
4437.5559831208684045
 21
223.0885905834066136
 31
0.0
  0
LINE
  5
1D5D6
  8
0
 10
4437.5609831208676042
 20
223.0885905834066136
 30
0.0
 11
4437.5859831208672404
 21
223.0885905834066136
 31
0.0
  0
LINE
  5
1D5D7
  8
0
 10
4437.590983120868259
 20
223.0885905834066136
 30
0.0
 11
4437.6149757069078987
 21
223.0885905834066136
 31
0.0
  0
LINE
  5
1D5D8
  8
0
 10
4431.7104713097669446
 20
223.1335905834066011
 30
0.0
 11
4431.6854713097682179
 21
223.1335905834066011
 31
0.0
  0
LINE
  5
1D5D9
  8
0
 10
4431.6804713097681088
 20
223.1335905834066011
 30
0.0
 11
4431.6554713097693821
 21
223.1335905834066011
 31
0.0
  0
LINE
  5
1D5DA
  8
0
 10
4431.6504713097683634
 20
223.1335905834066011
 30
0.0
 11
4431.6254713097669082
 21
223.1335905834066011
 31
0.0
  0
LINE
  5
1D5DB
  8
0
 10
4431.6204713097667991
 20
223.1335905834066011
 30
0.0
 11
4431.5954713097680724
 21
223.1335905834066011
 31
0.0
  0
LINE
  5
1D5DC
  8
0
 10
4431.5904713097679632
 20
223.1335905834066011
 30
0.0
 11
4431.565471309768327
 21
223.1335905834066011
 31
0.0
  0
LINE
  5
1D5DD
  8
0
 10
4431.5604713097682179
 20
223.1335905834066011
 30
0.0
 11
4431.5354713097667627
 21
223.1335905834066011
 31
0.0
  0
LINE
  5
1D5DE
  8
0
 10
4431.5304713097693821
 20
223.1335905834066011
 30
0.0
 11
4431.5054713097679269
 21
223.1335905834066011
 31
0.0
  0
LINE
  5
1D5DF
  8
0
 10
4431.5004713097669082
 20
223.1335905834066011
 30
0.0
 11
4431.4754713097681815
 21
223.1335905834066011
 31
0.0
  0
LINE
  5
1D5E0
  8
0
 10
4431.4704713097680724
 20
223.1335905834066011
 30
0.0
 11
4431.4454713097684362
 21
223.1335905834066011
 31
0.0
  0
LINE
  5
1D5E1
  8
0
 10
4431.4404713097692365
 20
223.1335905834066011
 30
0.0
 11
4431.4154713097677813
 21
223.1335905834066011
 31
0.0
  0
LINE
  5
1D5E2
  8
0
 10
4431.4104713097667627
 20
223.1335905834066011
 30
0.0
 11
4431.385471309768036
 21
223.1335905834066011
 31
0.0
  0
LINE
  5
1D5E3
  8
0
 10
4431.3804713097670174
 20
223.1335905834066011
 30
0.0
 11
4431.3554713097682907
 21
223.1335905834066011
 31
0.0
  0
LINE
  5
1D5E4
  8
0
 10
4431.350471309769091
 20
223.1335905834066011
 30
0.0
 11
4431.3254713097676358
 21
223.1335905834066011
 31
0.0
  0
LINE
  5
1D5E5
  8
0
 10
4431.3204713097684362
 20
223.1335905834066011
 30
0.0
 11
4431.2954713097678905
 21
223.1335905834066011
 31
0.0
  0
LINE
  5
1D5E6
  8
0
 10
4431.2904713097668719
 20
223.1335905834066011
 30
0.0
 11
4431.2654713097672357
 21
223.1335905834066011
 31
0.0
  0
LINE
  5
1D5E7
  8
0
 10
4431.260471309768036
 20
223.1335905834066011
 30
0.0
 11
4431.2594236078402901
 21
223.1335905834066011
 31
0.0
  0
LINE
  5
1D5E8
  8
0
 10
4431.2597495152049305
 20
223.1385905834065113
 30
0.0
 11
4431.260471309768036
 21
223.1385905834065113
 31
0.0
  0
LINE
  5
1D5E9
  8
0
 10
4431.2654713097672357
 20
223.1385905834065113
 30
0.0
 11
4431.2904713097668719
 21
223.1385905834065113
 31
0.0
  0
LINE
  5
1D5EA
  8
0
 10
4431.2954713097678905
 20
223.1385905834065113
 30
0.0
 11
4431.3204713097684362
 21
223.1385905834065113
 31
0.0
  0
LINE
  5
1D5EB
  8
0
 10
4431.3254713097676358
 20
223.1385905834065113
 30
0.0
 11
4431.350471309769091
 21
223.1385905834065113
 31
0.0
  0
LINE
  5
1D5EC
  8
0
 10
4431.3554713097682907
 20
223.1385905834065113
 30
0.0
 11
4431.3804713097670174
 21
223.1385905834065113
 31
0.0
  0
LINE
  5
1D5ED
  8
0
 10
4431.385471309768036
 20
223.1385905834065113
 30
0.0
 11
4431.4104713097667627
 21
223.1385905834065113
 31
0.0
  0
LINE
  5
1D5EE
  8
0
 10
4431.4154713097677813
 20
223.1385905834065113
 30
0.0
 11
4431.4404713097692365
 21
223.1385905834065113
 31
0.0
  0
LINE
  5
1D5EF
  8
0
 10
4431.4454713097684362
 20
223.1385905834065113
 30
0.0
 11
4431.4704713097680724
 21
223.1385905834065113
 31
0.0
  0
LINE
  5
1D5F0
  8
0
 10
4431.4754713097681815
 20
223.1385905834065113
 30
0.0
 11
4431.5004713097669082
 21
223.1385905834065113
 31
0.0
  0
LINE
  5
1D5F1
  8
0
 10
4431.5054713097679269
 20
223.1385905834065113
 30
0.0
 11
4431.5304713097693821
 21
223.1385905834065113
 31
0.0
  0
LINE
  5
1D5F2
  8
0
 10
4431.5354713097667627
 20
223.1385905834065113
 30
0.0
 11
4431.5604713097682179
 21
223.1385905834065113
 31
0.0
  0
LINE
  5
1D5F3
  8
0
 10
4431.565471309768327
 20
223.1385905834065113
 30
0.0
 11
4431.5904713097679632
 21
223.1385905834065113
 31
0.0
  0
LINE
  5
1D5F4
  8
0
 10
4431.5954713097680724
 20
223.1385905834065113
 30
0.0
 11
4431.6204713097667991
 21
223.1385905834065113
 31
0.0
  0
LINE
  5
1D5F5
  8
0
 10
4431.6254713097669082
 20
223.1385905834065113
 30
0.0
 11
4431.6504713097683634
 21
223.1385905834065113
 31
0.0
  0
LINE
  5
1D5F6
  8
0
 10
4431.6554713097693821
 20
223.1385905834065113
 30
0.0
 11
4431.6804713097681088
 21
223.1385905834065113
 31
0.0
  0
LINE
  5
1D5F7
  8
0
 10
4431.6854713097682179
 20
223.1385905834065113
 30
0.0
 11
4431.7104713097669446
 21
223.1385905834065113
 31
0.0
  0
LINE
  5
1D5F8
  8
0
 10
4437.6159831208678952
 20
223.1085905834065102
 30
0.0
 11
4437.590983120868259
 21
223.1085905834065102
 31
0.0
  0
LINE
  5
1D5F9
  8
0
 10
4437.5859831208672404
 20
223.1085905834065102
 30
0.0
 11
4437.5609831208676042
 21
223.1085905834065102
 31
0.0
  0
LINE
  5
1D5FA
  8
0
 10
4437.5559831208684045
 20
223.1085905834065102
 30
0.0
 11
4437.5309831208678588
 21
223.1085905834065102
 31
0.0
  0
LINE
  5
1D5FB
  8
0
 10
4437.5259831208677497
 20
223.1085905834065102
 30
0.0
 11
4437.5009831208681135
 21
223.1085905834065102
 31
0.0
  0
LINE
  5
1D5FC
  8
0
 10
4437.4959831208670948
 20
223.1085905834065102
 30
0.0
 11
4437.4709831208683681
 21
223.1085905834065102
 31
0.0
  0
LINE
  5
1D5FD
  8
0
 10
4437.465983120868259
 20
223.1085905834065102
 30
0.0
 11
4437.4409831208668038
 21
223.1085905834065102
 31
0.0
  0
LINE
  5
1D5FE
  8
0
 10
4437.4359831208676042
 20
223.1085905834065102
 30
0.0
 11
4437.410983120867968
 21
223.1085905834065102
 31
0.0
  0
LINE
  5
1D5FF
  8
0
 10
4437.4059831208669493
 20
223.1085905834065102
 30
0.0
 11
4437.3809831208682226
 21
223.1085905834065102
 31
0.0
  0
LINE
  5
1D600
  8
0
 10
4437.3759831208681135
 20
223.1085905834065102
 30
0.0
 11
4437.3509831208675678
 21
223.1085905834065102
 31
0.0
  0
LINE
  5
1D601
  8
0
 10
4437.3459831208683681
 20
223.1085905834065102
 30
0.0
 11
4437.3209831208669129
 21
223.1085905834065102
 31
0.0
  0
LINE
  5
1D602
  8
0
 10
4437.3159831208668038
 20
223.1085905834065102
 30
0.0
 11
4437.2909831208680771
 21
223.1085905834065102
 31
0.0
  0
LINE
  5
1D603
  8
0
 10
4437.285983120867968
 20
223.1085905834065102
 30
0.0
 11
4437.2609831208683318
 21
223.1085905834065102
 31
0.0
  0
LINE
  5
1D604
  8
0
 10
4437.2559831208682226
 20
223.1085905834065102
 30
0.0
 11
4437.2309831208667674
 21
223.1085905834065102
 31
0.0
  0
LINE
  5
1D605
  8
0
 10
4437.2259831208675678
 20
223.1085905834065102
 30
0.0
 11
4437.2009831208679316
 21
223.1085905834065102
 31
0.0
  0
LINE
  5
1D606
  8
0
 10
4437.1659831208680771
 20
223.1085905834065102
 30
0.0
 11
4437.1649660007706188
 21
223.1085905834065102
 31
0.0
  0
LINE
  5
1D607
  8
0
 10
4437.1959831208678224
 20
223.1085905834065102
 30
0.0
 11
4437.1709831208681862
 21
223.1085905834065102
 31
0.0
  0
LINE
  5
1D608
  8
0
 10
4437.1709831208681862
 20
223.1135905834065909
 30
0.0
 11
4437.1959831208678224
 21
223.1135905834065909
 31
0.0
  0
LINE
  5
1D609
  8
0
 10
4437.2009831208679316
 20
223.1135905834065909
 30
0.0
 11
4437.2259831208675678
 21
223.1135905834065909
 31
0.0
  0
LINE
  5
1D60A
  8
0
 10
4437.2309831208667674
 20
223.1135905834065909
 30
0.0
 11
4437.2559831208682226
 21
223.1135905834065909
 31
0.0
  0
LINE
  5
1D60B
  8
0
 10
4437.2609831208683318
 20
223.1135905834065909
 30
0.0
 11
4437.285983120867968
 21
223.1135905834065909
 31
0.0
  0
LINE
  5
1D60C
  8
0
 10
4437.2909831208680771
 20
223.1135905834065909
 30
0.0
 11
4437.3159831208668038
 21
223.1135905834065909
 31
0.0
  0
LINE
  5
1D60D
  8
0
 10
4437.3209831208669129
 20
223.1135905834065909
 30
0.0
 11
4437.3459831208683681
 21
223.1135905834065909
 31
0.0
  0
LINE
  5
1D60E
  8
0
 10
4437.3509831208675678
 20
223.1135905834065909
 30
0.0
 11
4437.3759831208681135
 21
223.1135905834065909
 31
0.0
  0
LINE
  5
1D60F
  8
0
 10
4437.3809831208682226
 20
223.1135905834065909
 30
0.0
 11
4437.4059831208669493
 21
223.1135905834065909
 31
0.0
  0
LINE
  5
1D610
  8
0
 10
4437.410983120867968
 20
223.1135905834065909
 30
0.0
 11
4437.4359831208676042
 21
223.1135905834065909
 31
0.0
  0
LINE
  5
1D611
  8
0
 10
4437.4409831208668038
 20
223.1135905834065909
 30
0.0
 11
4437.465983120868259
 21
223.1135905834065909
 31
0.0
  0
LINE
  5
1D612
  8
0
 10
4437.4709831208683681
 20
223.1135905834065909
 30
0.0
 11
4437.4959831208670948
 21
223.1135905834065909
 31
0.0
  0
LINE
  5
1D613
  8
0
 10
4437.5009831208681135
 20
223.1135905834065909
 30
0.0
 11
4437.5259831208677497
 21
223.1135905834065909
 31
0.0
  0
LINE
  5
1D614
  8
0
 10
4437.5309831208678588
 20
223.1135905834065909
 30
0.0
 11
4437.5559831208684045
 21
223.1135905834065909
 31
0.0
  0
LINE
  5
1D615
  8
0
 10
4437.5609831208676042
 20
223.1135905834065909
 30
0.0
 11
4437.5859831208672404
 21
223.1135905834065909
 31
0.0
  0
LINE
  5
1D616
  8
0
 10
4437.590983120868259
 20
223.1135905834065909
 30
0.0
 11
4437.6159831208678952
 21
223.1135905834065909
 31
0.0
  0
LINE
  5
1D617
  8
0
 10
4431.708767947711749
 20
223.1585905834064931
 30
0.0
 11
4431.6854713097682179
 21
223.1585905834064931
 31
0.0
  0
LINE
  5
1D618
  8
0
 10
4431.6804713097681088
 20
223.1585905834064931
 30
0.0
 11
4431.6554713097693821
 21
223.1585905834064931
 31
0.0
  0
LINE
  5
1D619
  8
0
 10
4431.6504713097683634
 20
223.1585905834064931
 30
0.0
 11
4431.6254713097669082
 21
223.1585905834064931
 31
0.0
  0
LINE
  5
1D61A
  8
0
 10
4431.6204713097667991
 20
223.1585905834064931
 30
0.0
 11
4431.5954713097680724
 21
223.1585905834064931
 31
0.0
  0
LINE
  5
1D61B
  8
0
 10
4431.5904713097679632
 20
223.1585905834064931
 30
0.0
 11
4431.565471309768327
 21
223.1585905834064931
 31
0.0
  0
LINE
  5
1D61C
  8
0
 10
4431.5604713097682179
 20
223.1585905834064931
 30
0.0
 11
4431.5354713097667627
 21
223.1585905834064931
 31
0.0
  0
LINE
  5
1D61D
  8
0
 10
4431.5304713097693821
 20
223.1585905834064931
 30
0.0
 11
4431.5054713097679269
 21
223.1585905834064931
 31
0.0
  0
LINE
  5
1D61E
  8
0
 10
4431.5004713097669082
 20
223.1585905834064931
 30
0.0
 11
4431.4754713097681815
 21
223.1585905834064931
 31
0.0
  0
LINE
  5
1D61F
  8
0
 10
4431.4704713097680724
 20
223.1585905834064931
 30
0.0
 11
4431.4454713097684362
 21
223.1585905834064931
 31
0.0
  0
LINE
  5
1D620
  8
0
 10
4431.4404713097692365
 20
223.1585905834064931
 30
0.0
 11
4431.4154713097677813
 21
223.1585905834064931
 31
0.0
  0
LINE
  5
1D621
  8
0
 10
4431.4104713097667627
 20
223.1585905834064931
 30
0.0
 11
4431.385471309768036
 21
223.1585905834064931
 31
0.0
  0
LINE
  5
1D622
  8
0
 10
4431.3804713097670174
 20
223.1585905834064931
 30
0.0
 11
4431.3554713097682907
 21
223.1585905834064931
 31
0.0
  0
LINE
  5
1D623
  8
0
 10
4431.350471309769091
 20
223.1585905834064931
 30
0.0
 11
4431.3254713097676358
 21
223.1585905834064931
 31
0.0
  0
LINE
  5
1D624
  8
0
 10
4431.3204713097684362
 20
223.1585905834064931
 30
0.0
 11
4431.2954713097678905
 21
223.1585905834064931
 31
0.0
  0
LINE
  5
1D625
  8
0
 10
4431.2904713097668719
 20
223.1585905834064931
 30
0.0
 11
4431.2654713097672357
 21
223.1585905834064931
 31
0.0
  0
LINE
  5
1D626
  8
0
 10
4431.2654713097672357
 20
223.1635905834064886
 30
0.0
 11
4431.2904713097668719
 21
223.1635905834064886
 31
0.0
  0
LINE
  5
1D627
  8
0
 10
4431.2954713097678905
 20
223.1635905834064886
 30
0.0
 11
4431.3204713097684362
 21
223.1635905834064886
 31
0.0
  0
LINE
  5
1D628
  8
0
 10
4431.3254713097676358
 20
223.1635905834064886
 30
0.0
 11
4431.350471309769091
 21
223.1635905834064886
 31
0.0
  0
LINE
  5
1D629
  8
0
 10
4431.3554713097682907
 20
223.1635905834064886
 30
0.0
 11
4431.3804713097670174
 21
223.1635905834064886
 31
0.0
  0
LINE
  5
1D62A
  8
0
 10
4431.385471309768036
 20
223.1635905834064886
 30
0.0
 11
4431.4104713097667627
 21
223.1635905834064886
 31
0.0
  0
LINE
  5
1D62B
  8
0
 10
4431.4154713097677813
 20
223.1635905834064886
 30
0.0
 11
4431.4404713097692365
 21
223.1635905834064886
 31
0.0
  0
LINE
  5
1D62C
  8
0
 10
4431.4454713097684362
 20
223.1635905834064886
 30
0.0
 11
4431.4704713097680724
 21
223.1635905834064886
 31
0.0
  0
LINE
  5
1D62D
  8
0
 10
4431.4754713097681815
 20
223.1635905834064886
 30
0.0
 11
4431.5004713097669082
 21
223.1635905834064886
 31
0.0
  0
LINE
  5
1D62E
  8
0
 10
4431.5054713097679269
 20
223.1635905834064886
 30
0.0
 11
4431.5304713097693821
 21
223.1635905834064886
 31
0.0
  0
LINE
  5
1D62F
  8
0
 10
4431.5354713097667627
 20
223.1635905834064886
 30
0.0
 11
4431.5604713097682179
 21
223.1635905834064886
 31
0.0
  0
LINE
  5
1D630
  8
0
 10
4431.565471309768327
 20
223.1635905834064886
 30
0.0
 11
4431.5904713097679632
 21
223.1635905834064886
 31
0.0
  0
LINE
  5
1D631
  8
0
 10
4431.5954713097680724
 20
223.1635905834064886
 30
0.0
 11
4431.6204713097667991
 21
223.1635905834064886
 31
0.0
  0
LINE
  5
1D632
  8
0
 10
4431.6254713097669082
 20
223.1635905834064886
 30
0.0
 11
4431.6504713097683634
 21
223.1635905834064886
 31
0.0
  0
LINE
  5
1D633
  8
0
 10
4431.6554713097693821
 20
223.1635905834064886
 30
0.0
 11
4431.6804713097681088
 21
223.1635905834064886
 31
0.0
  0
LINE
  5
1D634
  8
0
 10
4431.6854713097682179
 20
223.1635905834064886
 30
0.0
 11
4431.7078766907980025
 21
223.1635905834064886
 31
0.0
  0
LINE
  5
1D635
  8
0
 10
4437.6159831208678952
 20
223.1335905834066011
 30
0.0
 11
4437.590983120868259
 21
223.1335905834066011
 31
0.0
  0
LINE
  5
1D636
  8
0
 10
4437.5859831208672404
 20
223.1335905834066011
 30
0.0
 11
4437.5609831208676042
 21
223.1335905834066011
 31
0.0
  0
LINE
  5
1D637
  8
0
 10
4437.5559831208684045
 20
223.1335905834066011
 30
0.0
 11
4437.5309831208678588
 21
223.1335905834066011
 31
0.0
  0
LINE
  5
1D638
  8
0
 10
4437.5259831208677497
 20
223.1335905834066011
 30
0.0
 11
4437.5009831208681135
 21
223.1335905834066011
 31
0.0
  0
LINE
  5
1D639
  8
0
 10
4437.4959831208670948
 20
223.1335905834066011
 30
0.0
 11
4437.4709831208683681
 21
223.1335905834066011
 31
0.0
  0
LINE
  5
1D63A
  8
0
 10
4437.465983120868259
 20
223.1335905834066011
 30
0.0
 11
4437.4409831208668038
 21
223.1335905834066011
 31
0.0
  0
LINE
  5
1D63B
  8
0
 10
4437.4359831208676042
 20
223.1335905834066011
 30
0.0
 11
4437.410983120867968
 21
223.1335905834066011
 31
0.0
  0
LINE
  5
1D63C
  8
0
 10
4437.4059831208669493
 20
223.1335905834066011
 30
0.0
 11
4437.3809831208682226
 21
223.1335905834066011
 31
0.0
  0
LINE
  5
1D63D
  8
0
 10
4437.3759831208681135
 20
223.1335905834066011
 30
0.0
 11
4437.3509831208675678
 21
223.1335905834066011
 31
0.0
  0
LINE
  5
1D63E
  8
0
 10
4437.3459831208683681
 20
223.1335905834066011
 30
0.0
 11
4437.3209831208669129
 21
223.1335905834066011
 31
0.0
  0
LINE
  5
1D63F
  8
0
 10
4437.3159831208668038
 20
223.1335905834066011
 30
0.0
 11
4437.2909831208680771
 21
223.1335905834066011
 31
0.0
  0
LINE
  5
1D640
  8
0
 10
4437.285983120867968
 20
223.1335905834066011
 30
0.0
 11
4437.2609831208683318
 21
223.1335905834066011
 31
0.0
  0
LINE
  5
1D641
  8
0
 10
4437.2559831208682226
 20
223.1335905834066011
 30
0.0
 11
4437.2309831208667674
 21
223.1335905834066011
 31
0.0
  0
LINE
  5
1D642
  8
0
 10
4437.2259831208675678
 20
223.1335905834066011
 30
0.0
 11
4437.2009831208679316
 21
223.1335905834066011
 31
0.0
  0
LINE
  5
1D643
  8
0
 10
4437.1659831208680771
 20
223.1335905834066011
 30
0.0
 11
4437.1649354189403311
 21
223.1335905834066011
 31
0.0
  0
LINE
  5
1D644
  8
0
 10
4437.1959831208678224
 20
223.1335905834066011
 30
0.0
 11
4437.1709831208681862
 21
223.1335905834066011
 31
0.0
  0
LINE
  5
1D645
  8
0
 10
4431.2592269588812997
 20
223.1135907594064918
 30
0.0
 11
4431.260471309768036
 21
223.1135905834065909
 31
0.0
  0
LINE
  5
1D646
  8
0
 10
4437.1647387699822502
 20
223.1135907594064918
 30
0.0
 11
4437.1659831208680771
 21
223.1135905834065909
 31
0.0
  0
LINE
  5
1D647
  8
0
 10
4436.9836323210038245
 20
223.3182174765065895
 30
0.0
 11
4431.8928221096321067
 21
223.3182174765065895
 31
0.0
  0
LINE
  5
1D648
  8
0
 10
4437.1652613263049716
 20
223.1385905834065113
 30
0.0
 11
4437.1659831208680771
 21
223.1385905834065113
 31
0.0
  0
LINE
  5
1D649
  8
0
 10
4437.1709831208681862
 20
223.1385905834065113
 30
0.0
 11
4437.1959831208678224
 21
223.1385905834065113
 31
0.0
  0
LINE
  5
1D64A
  8
0
 10
4437.2009831208679316
 20
223.1385905834065113
 30
0.0
 11
4437.2259831208675678
 21
223.1385905834065113
 31
0.0
  0
LINE
  5
1D64B
  8
0
 10
4437.2309831208667674
 20
223.1385905834065113
 30
0.0
 11
4437.2559831208682226
 21
223.1385905834065113
 31
0.0
  0
LINE
  5
1D64C
  8
0
 10
4437.2609831208683318
 20
223.1385905834065113
 30
0.0
 11
4437.285983120867968
 21
223.1385905834065113
 31
0.0
  0
LINE
  5
1D64D
  8
0
 10
4437.2909831208680771
 20
223.1385905834065113
 30
0.0
 11
4437.3159831208668038
 21
223.1385905834065113
 31
0.0
  0
LINE
  5
1D64E
  8
0
 10
4437.3209831208669129
 20
223.1385905834065113
 30
0.0
 11
4437.3459831208683681
 21
223.1385905834065113
 31
0.0
  0
LINE
  5
1D64F
  8
0
 10
4437.3509831208675678
 20
223.1385905834065113
 30
0.0
 11
4437.3759831208681135
 21
223.1385905834065113
 31
0.0
  0
LINE
  5
1D650
  8
0
 10
4437.3809831208682226
 20
223.1385905834065113
 30
0.0
 11
4437.4059831208669493
 21
223.1385905834065113
 31
0.0
  0
LINE
  5
1D651
  8
0
 10
4437.410983120867968
 20
223.1385905834065113
 30
0.0
 11
4437.4359831208676042
 21
223.1385905834065113
 31
0.0
  0
LINE
  5
1D652
  8
0
 10
4437.4409831208668038
 20
223.1385905834065113
 30
0.0
 11
4437.465983120868259
 21
223.1385905834065113
 31
0.0
  0
LINE
  5
1D653
  8
0
 10
4437.4709831208683681
 20
223.1385905834065113
 30
0.0
 11
4437.4959831208670948
 21
223.1385905834065113
 31
0.0
  0
LINE
  5
1D654
  8
0
 10
4437.5009831208681135
 20
223.1385905834065113
 30
0.0
 11
4437.5259831208677497
 21
223.1385905834065113
 31
0.0
  0
LINE
  5
1D655
  8
0
 10
4437.5309831208678588
 20
223.1385905834065113
 30
0.0
 11
4437.5559831208684045
 21
223.1385905834065113
 31
0.0
  0
LINE
  5
1D656
  8
0
 10
4437.5609831208676042
 20
223.1385905834065113
 30
0.0
 11
4437.5859831208672404
 21
223.1385905834065113
 31
0.0
  0
LINE
  5
1D657
  8
0
 10
4437.590983120868259
 20
223.1385905834065113
 30
0.0
 11
4437.6159831208678952
 21
223.1385905834065113
 31
0.0
  0
LINE
  5
1D658
  8
0
 10
4431.7031297887815526
 20
223.1835905834066125
 30
0.0
 11
4431.6854713097682179
 21
223.1835905834066125
 31
0.0
  0
LINE
  5
1D659
  8
0
 10
4431.6804713097681088
 20
223.1835905834066125
 30
0.0
 11
4431.6554713097693821
 21
223.1835905834066125
 31
0.0
  0
LINE
  5
1D65A
  8
0
 10
4431.6504713097683634
 20
223.1835905834066125
 30
0.0
 11
4431.6254713097669082
 21
223.1835905834066125
 31
0.0
  0
LINE
  5
1D65B
  8
0
 10
4431.6204713097667991
 20
223.1835905834066125
 30
0.0
 11
4431.5954713097680724
 21
223.1835905834066125
 31
0.0
  0
LINE
  5
1D65C
  8
0
 10
4431.5904713097679632
 20
223.1835905834066125
 30
0.0
 11
4431.565471309768327
 21
223.1835905834066125
 31
0.0
  0
LINE
  5
1D65D
  8
0
 10
4431.5604713097682179
 20
223.1835905834066125
 30
0.0
 11
4431.5354713097667627
 21
223.1835905834066125
 31
0.0
  0
LINE
  5
1D65E
  8
0
 10
4431.5304713097693821
 20
223.1835905834066125
 30
0.0
 11
4431.5054713097679269
 21
223.1835905834066125
 31
0.0
  0
LINE
  5
1D65F
  8
0
 10
4431.5004713097669082
 20
223.1835905834066125
 30
0.0
 11
4431.4754713097681815
 21
223.1835905834066125
 31
0.0
  0
LINE
  5
1D660
  8
0
 10
4431.4704713097680724
 20
223.1835905834066125
 30
0.0
 11
4431.4454713097684362
 21
223.1835905834066125
 31
0.0
  0
LINE
  5
1D661
  8
0
 10
4431.4404713097692365
 20
223.1835905834066125
 30
0.0
 11
4431.4154713097677813
 21
223.1835905834066125
 31
0.0
  0
LINE
  5
1D662
  8
0
 10
4431.4104713097667627
 20
223.1835905834066125
 30
0.0
 11
4431.385471309768036
 21
223.1835905834066125
 31
0.0
  0
LINE
  5
1D663
  8
0
 10
4431.3804713097670174
 20
223.1835905834066125
 30
0.0
 11
4431.3554713097682907
 21
223.1835905834066125
 31
0.0
  0
LINE
  5
1D664
  8
0
 10
4431.350471309769091
 20
223.1835905834066125
 30
0.0
 11
4431.3254713097676358
 21
223.1835905834066125
 31
0.0
  0
LINE
  5
1D665
  8
0
 10
4431.3204713097684362
 20
223.1835905834066125
 30
0.0
 11
4431.2954713097678905
 21
223.1835905834066125
 31
0.0
  0
LINE
  5
1D666
  8
0
 10
4431.2904713097668719
 20
223.1835905834066125
 30
0.0
 11
4431.267812830751609
 21
223.1835905834066125
 31
0.0
  0
LINE
  5
1D667
  8
0
 10
4431.2693047571256102
 20
223.1885905834066079
 30
0.0
 11
4431.2904713097668719
 21
223.1885905834066079
 31
0.0
  0
LINE
  5
1D668
  8
0
 10
4431.2954713097678905
 20
223.1885905834066079
 30
0.0
 11
4431.3204713097684362
 21
223.1885905834066079
 31
0.0
  0
LINE
  5
1D669
  8
0
 10
4431.3254713097676358
 20
223.1885905834066079
 30
0.0
 11
4431.350471309769091
 21
223.1885905834066079
 31
0.0
  0
LINE
  5
1D66A
  8
0
 10
4431.3554713097682907
 20
223.1885905834066079
 30
0.0
 11
4431.3804713097670174
 21
223.1885905834066079
 31
0.0
  0
LINE
  5
1D66B
  8
0
 10
4431.385471309768036
 20
223.1885905834066079
 30
0.0
 11
4431.4104713097667627
 21
223.1885905834066079
 31
0.0
  0
LINE
  5
1D66C
  8
0
 10
4431.4154713097677813
 20
223.1885905834066079
 30
0.0
 11
4431.4404713097692365
 21
223.1885905834066079
 31
0.0
  0
LINE
  5
1D66D
  8
0
 10
4431.4454713097684362
 20
223.1885905834066079
 30
0.0
 11
4431.4704713097680724
 21
223.1885905834066079
 31
0.0
  0
LINE
  5
1D66E
  8
0
 10
4431.4754713097681815
 20
223.1885905834066079
 30
0.0
 11
4431.5004713097669082
 21
223.1885905834066079
 31
0.0
  0
LINE
  5
1D66F
  8
0
 10
4431.5054713097679269
 20
223.1885905834066079
 30
0.0
 11
4431.5304713097693821
 21
223.1885905834066079
 31
0.0
  0
LINE
  5
1D670
  8
0
 10
4431.5354713097667627
 20
223.1885905834066079
 30
0.0
 11
4431.5604713097682179
 21
223.1885905834066079
 31
0.0
  0
LINE
  5
1D671
  8
0
 10
4431.565471309768327
 20
223.1885905834066079
 30
0.0
 11
4431.5904713097679632
 21
223.1885905834066079
 31
0.0
  0
LINE
  5
1D672
  8
0
 10
4431.5954713097680724
 20
223.1885905834066079
 30
0.0
 11
4431.6204713097667991
 21
223.1885905834066079
 31
0.0
  0
LINE
  5
1D673
  8
0
 10
4431.6254713097669082
 20
223.1885905834066079
 30
0.0
 11
4431.6504713097683634
 21
223.1885905834066079
 31
0.0
  0
LINE
  5
1D674
  8
0
 10
4431.6554713097693821
 20
223.1885905834066079
 30
0.0
 11
4431.6804713097681088
 21
223.1885905834066079
 31
0.0
  0
LINE
  5
1D675
  8
0
 10
4431.6854713097682179
 20
223.1885905834066079
 30
0.0
 11
4431.7016378624093704
 21
223.1885905834066079
 31
0.0
  0
LINE
  5
1D676
  8
0
 10
4437.6142797588108806
 20
223.1585905834064931
 30
0.0
 11
4437.590983120868259
 21
223.1585905834064931
 31
0.0
  0
LINE
  5
1D677
  8
0
 10
4437.5859831208672404
 20
223.1585905834064931
 30
0.0
 11
4437.5609831208676042
 21
223.1585905834064931
 31
0.0
  0
LINE
  5
1D678
  8
0
 10
4437.5559831208684045
 20
223.1585905834064931
 30
0.0
 11
4437.5309831208678588
 21
223.1585905834064931
 31
0.0
  0
LINE
  5
1D679
  8
0
 10
4437.5259831208677497
 20
223.1585905834064931
 30
0.0
 11
4437.5009831208681135
 21
223.1585905834064931
 31
0.0
  0
LINE
  5
1D67A
  8
0
 10
4437.4959831208670948
 20
223.1585905834064931
 30
0.0
 11
4437.4709831208683681
 21
223.1585905834064931
 31
0.0
  0
LINE
  5
1D67B
  8
0
 10
4437.465983120868259
 20
223.1585905834064931
 30
0.0
 11
4437.4409831208668038
 21
223.1585905834064931
 31
0.0
  0
LINE
  5
1D67C
  8
0
 10
4437.4359831208676042
 20
223.1585905834064931
 30
0.0
 11
4437.410983120867968
 21
223.1585905834064931
 31
0.0
  0
LINE
  5
1D67D
  8
0
 10
4437.4059831208669493
 20
223.1585905834064931
 30
0.0
 11
4437.3809831208682226
 21
223.1585905834064931
 31
0.0
  0
LINE
  5
1D67E
  8
0
 10
4437.3759831208681135
 20
223.1585905834064931
 30
0.0
 11
4437.3509831208675678
 21
223.1585905834064931
 31
0.0
  0
LINE
  5
1D67F
  8
0
 10
4437.3459831208683681
 20
223.1585905834064931
 30
0.0
 11
4437.3209831208669129
 21
223.1585905834064931
 31
0.0
  0
LINE
  5
1D680
  8
0
 10
4437.3159831208668038
 20
223.1585905834064931
 30
0.0
 11
4437.2909831208680771
 21
223.1585905834064931
 31
0.0
  0
LINE
  5
1D681
  8
0
 10
4437.285983120867968
 20
223.1585905834064931
 30
0.0
 11
4437.2609831208683318
 21
223.1585905834064931
 31
0.0
  0
LINE
  5
1D682
  8
0
 10
4437.2559831208682226
 20
223.1585905834064931
 30
0.0
 11
4437.2309831208667674
 21
223.1585905834064931
 31
0.0
  0
LINE
  5
1D683
  8
0
 10
4437.2259831208675678
 20
223.1585905834064931
 30
0.0
 11
4437.2009831208679316
 21
223.1585905834064931
 31
0.0
  0
LINE
  5
1D684
  8
0
 10
4437.1959831208678224
 20
223.1585905834064931
 30
0.0
 11
4437.1709831208681862
 21
223.1585905834064931
 31
0.0
  0
LINE
  5
1D685
  8
0
 10
4437.1709831208681862
 20
223.1635905834064886
 30
0.0
 11
4437.1959831208678224
 21
223.1635905834064886
 31
0.0
  0
LINE
  5
1D686
  8
0
 10
4437.2009831208679316
 20
223.1635905834064886
 30
0.0
 11
4437.2259831208675678
 21
223.1635905834064886
 31
0.0
  0
LINE
  5
1D687
  8
0
 10
4437.2309831208667674
 20
223.1635905834064886
 30
0.0
 11
4437.2559831208682226
 21
223.1635905834064886
 31
0.0
  0
LINE
  5
1D688
  8
0
 10
4437.2609831208683318
 20
223.1635905834064886
 30
0.0
 11
4437.285983120867968
 21
223.1635905834064886
 31
0.0
  0
LINE
  5
1D689
  8
0
 10
4437.2909831208680771
 20
223.1635905834064886
 30
0.0
 11
4437.3159831208668038
 21
223.1635905834064886
 31
0.0
  0
LINE
  5
1D68A
  8
0
 10
4437.3209831208669129
 20
223.1635905834064886
 30
0.0
 11
4437.3459831208683681
 21
223.1635905834064886
 31
0.0
  0
LINE
  5
1D68B
  8
0
 10
4437.3509831208675678
 20
223.1635905834064886
 30
0.0
 11
4437.3759831208681135
 21
223.1635905834064886
 31
0.0
  0
LINE
  5
1D68C
  8
0
 10
4437.3809831208682226
 20
223.1635905834064886
 30
0.0
 11
4437.4059831208669493
 21
223.1635905834064886
 31
0.0
  0
LINE
  5
1D68D
  8
0
 10
4437.410983120867968
 20
223.1635905834064886
 30
0.0
 11
4437.4359831208676042
 21
223.1635905834064886
 31
0.0
  0
LINE
  5
1D68E
  8
0
 10
4437.4409831208668038
 20
223.1635905834064886
 30
0.0
 11
4437.465983120868259
 21
223.1635905834064886
 31
0.0
  0
LINE
  5
1D68F
  8
0
 10
4437.4709831208683681
 20
223.1635905834064886
 30
0.0
 11
4437.4959831208670948
 21
223.1635905834064886
 31
0.0
  0
LINE
  5
1D690
  8
0
 10
4437.5009831208681135
 20
223.1635905834064886
 30
0.0
 11
4437.5259831208677497
 21
223.1635905834064886
 31
0.0
  0
LINE
  5
1D691
  8
0
 10
4437.5309831208678588
 20
223.1635905834064886
 30
0.0
 11
4437.5559831208684045
 21
223.1635905834064886
 31
0.0
  0
LINE
  5
1D692
  8
0
 10
4437.5609831208676042
 20
223.1635905834064886
 30
0.0
 11
4437.5859831208672404
 21
223.1635905834064886
 31
0.0
  0
LINE
  5
1D693
  8
0
 10
4437.590983120868259
 20
223.1635905834064886
 30
0.0
 11
4437.6133885018980436
 21
223.1635905834064886
 31
0.0
  0
LINE
  5
1D694
  8
0
 10
4431.6943708991811945
 20
223.2085905834065898
 30
0.0
 11
4431.6854713097682179
 21
223.2085905834065898
 31
0.0
  0
LINE
  5
1D695
  8
0
 10
4431.6804713097681088
 20
223.2085905834065898
 30
0.0
 11
4431.6554713097693821
 21
223.2085905834065898
 31
0.0
  0
LINE
  5
1D696
  8
0
 10
4431.6504713097683634
 20
223.2085905834065898
 30
0.0
 11
4431.6254713097669082
 21
223.2085905834065898
 31
0.0
  0
LINE
  5
1D697
  8
0
 10
4431.6204713097667991
 20
223.2085905834065898
 30
0.0
 11
4431.5954713097680724
 21
223.2085905834065898
 31
0.0
  0
LINE
  5
1D698
  8
0
 10
4431.5904713097679632
 20
223.2085905834065898
 30
0.0
 11
4431.565471309768327
 21
223.2085905834065898
 31
0.0
  0
LINE
  5
1D699
  8
0
 10
4431.5604713097682179
 20
223.2085905834065898
 30
0.0
 11
4431.5354713097667627
 21
223.2085905834065898
 31
0.0
  0
LINE
  5
1D69A
  8
0
 10
4431.5304713097693821
 20
223.2085905834065898
 30
0.0
 11
4431.5054713097679269
 21
223.2085905834065898
 31
0.0
  0
LINE
  5
1D69B
  8
0
 10
4431.5004713097669082
 20
223.2085905834065898
 30
0.0
 11
4431.4754713097681815
 21
223.2085905834065898
 31
0.0
  0
LINE
  5
1D69C
  8
0
 10
4431.4704713097680724
 20
223.2085905834065898
 30
0.0
 11
4431.4454713097684362
 21
223.2085905834065898
 31
0.0
  0
LINE
  5
1D69D
  8
0
 10
4431.4404713097692365
 20
223.2085905834065898
 30
0.0
 11
4431.4154713097677813
 21
223.2085905834065898
 31
0.0
  0
LINE
  5
1D69E
  8
0
 10
4431.4104713097667627
 20
223.2085905834065898
 30
0.0
 11
4431.385471309768036
 21
223.2085905834065898
 31
0.0
  0
LINE
  5
1D69F
  8
0
 10
4431.3804713097670174
 20
223.2085905834065898
 30
0.0
 11
4431.3554713097682907
 21
223.2085905834065898
 31
0.0
  0
LINE
  5
1D6A0
  8
0
 10
4431.350471309769091
 20
223.2085905834065898
 30
0.0
 11
4431.3254713097676358
 21
223.2085905834065898
 31
0.0
  0
LINE
  5
1D6A1
  8
0
 10
4431.3204713097684362
 20
223.2085905834065898
 30
0.0
 11
4431.2954713097678905
 21
223.2085905834065898
 31
0.0
  0
LINE
  5
1D6A2
  8
0
 10
4431.2904713097668719
 20
223.2085905834065898
 30
0.0
 11
4431.2765717203546956
 21
223.2085905834065898
 31
0.0
  0
LINE
  5
1D6A3
  8
0
 10
4431.2787304007761122
 20
223.2135905834064999
 30
0.0
 11
4431.2904713097668719
 21
223.2135905834064999
 31
0.0
  0
LINE
  5
1D6A4
  8
0
 10
4431.2954713097678905
 20
223.2135905834064999
 30
0.0
 11
4431.3204713097684362
 21
223.2135905834064999
 31
0.0
  0
LINE
  5
1D6A5
  8
0
 10
4431.3254713097676358
 20
223.2135905834064999
 30
0.0
 11
4431.350471309769091
 21
223.2135905834064999
 31
0.0
  0
LINE
  5
1D6A6
  8
0
 10
4431.3554713097682907
 20
223.2135905834064999
 30
0.0
 11
4431.3804713097670174
 21
223.2135905834064999
 31
0.0
  0
LINE
  5
1D6A7
  8
0
 10
4431.385471309768036
 20
223.2135905834064999
 30
0.0
 11
4431.4104713097667627
 21
223.2135905834064999
 31
0.0
  0
LINE
  5
1D6A8
  8
0
 10
4431.4154713097677813
 20
223.2135905834064999
 30
0.0
 11
4431.4404713097692365
 21
223.2135905834064999
 31
0.0
  0
LINE
  5
1D6A9
  8
0
 10
4431.4454713097684362
 20
223.2135905834064999
 30
0.0
 11
4431.4704713097680724
 21
223.2135905834064999
 31
0.0
  0
LINE
  5
1D6AA
  8
0
 10
4431.4754713097681815
 20
223.2135905834064999
 30
0.0
 11
4431.5004713097669082
 21
223.2135905834064999
 31
0.0
  0
LINE
  5
1D6AB
  8
0
 10
4431.5054713097679269
 20
223.2135905834064999
 30
0.0
 11
4431.5304713097693821
 21
223.2135905834064999
 31
0.0
  0
LINE
  5
1D6AC
  8
0
 10
4431.5354713097667627
 20
223.2135905834064999
 30
0.0
 11
4431.5604713097682179
 21
223.2135905834064999
 31
0.0
  0
LINE
  5
1D6AD
  8
0
 10
4431.565471309768327
 20
223.2135905834064999
 30
0.0
 11
4431.5904713097679632
 21
223.2135905834064999
 31
0.0
  0
LINE
  5
1D6AE
  8
0
 10
4431.5954713097680724
 20
223.2135905834064999
 30
0.0
 11
4431.6204713097667991
 21
223.2135905834064999
 31
0.0
  0
LINE
  5
1D6AF
  8
0
 10
4431.6254713097669082
 20
223.2135905834064999
 30
0.0
 11
4431.6504713097683634
 21
223.2135905834064999
 31
0.0
  0
LINE
  5
1D6B0
  8
0
 10
4431.6554713097693821
 20
223.2135905834064999
 30
0.0
 11
4431.6804713097681088
 21
223.2135905834064999
 31
0.0
  0
LINE
  5
1D6B1
  8
0
 10
4431.6854713097682179
 20
223.2135905834064999
 30
0.0
 11
4431.6922122187597779
 21
223.2135905834064999
 31
0.0
  0
LINE
  5
1D6B2
  8
0
 10
4437.6086415998815937
 20
223.1835905834066125
 30
0.0
 11
4437.590983120868259
 21
223.1835905834066125
 31
0.0
  0
LINE
  5
1D6B3
  8
0
 10
4437.5859831208672404
 20
223.1835905834066125
 30
0.0
 11
4437.5609831208676042
 21
223.1835905834066125
 31
0.0
  0
LINE
  5
1D6B4
  8
0
 10
4437.5559831208684045
 20
223.1835905834066125
 30
0.0
 11
4437.5309831208678588
 21
223.1835905834066125
 31
0.0
  0
LINE
  5
1D6B5
  8
0
 10
4437.5259831208677497
 20
223.1835905834066125
 30
0.0
 11
4437.5009831208681135
 21
223.1835905834066125
 31
0.0
  0
LINE
  5
1D6B6
  8
0
 10
4437.4959831208670948
 20
223.1835905834066125
 30
0.0
 11
4437.4709831208683681
 21
223.1835905834066125
 31
0.0
  0
LINE
  5
1D6B7
  8
0
 10
4437.465983120868259
 20
223.1835905834066125
 30
0.0
 11
4437.4409831208668038
 21
223.1835905834066125
 31
0.0
  0
LINE
  5
1D6B8
  8
0
 10
4437.4359831208676042
 20
223.1835905834066125
 30
0.0
 11
4437.410983120867968
 21
223.1835905834066125
 31
0.0
  0
LINE
  5
1D6B9
  8
0
 10
4437.4059831208669493
 20
223.1835905834066125
 30
0.0
 11
4437.3809831208682226
 21
223.1835905834066125
 31
0.0
  0
LINE
  5
1D6BA
  8
0
 10
4437.3759831208681135
 20
223.1835905834066125
 30
0.0
 11
4437.3509831208675678
 21
223.1835905834066125
 31
0.0
  0
LINE
  5
1D6BB
  8
0
 10
4437.3459831208683681
 20
223.1835905834066125
 30
0.0
 11
4437.3209831208669129
 21
223.1835905834066125
 31
0.0
  0
LINE
  5
1D6BC
  8
0
 10
4437.3159831208668038
 20
223.1835905834066125
 30
0.0
 11
4437.2909831208680771
 21
223.1835905834066125
 31
0.0
  0
LINE
  5
1D6BD
  8
0
 10
4437.285983120867968
 20
223.1835905834066125
 30
0.0
 11
4437.2609831208683318
 21
223.1835905834066125
 31
0.0
  0
LINE
  5
1D6BE
  8
0
 10
4437.2559831208682226
 20
223.1835905834066125
 30
0.0
 11
4437.2309831208667674
 21
223.1835905834066125
 31
0.0
  0
LINE
  5
1D6BF
  8
0
 10
4437.2259831208675678
 20
223.1835905834066125
 30
0.0
 11
4437.2009831208679316
 21
223.1835905834066125
 31
0.0
  0
LINE
  5
1D6C0
  8
0
 10
4437.1959831208678224
 20
223.1835905834066125
 30
0.0
 11
4437.1733246418525596
 21
223.1835905834066125
 31
0.0
  0
LINE
  5
1D6C1
  8
0
 10
4437.1748165682256513
 20
223.1885905834066079
 30
0.0
 11
4437.1959831208678224
 21
223.1885905834066079
 31
0.0
  0
LINE
  5
1D6C2
  8
0
 10
4437.2009831208679316
 20
223.1885905834066079
 30
0.0
 11
4437.2259831208675678
 21
223.1885905834066079
 31
0.0
  0
LINE
  5
1D6C3
  8
0
 10
4437.2309831208667674
 20
223.1885905834066079
 30
0.0
 11
4437.2559831208682226
 21
223.1885905834066079
 31
0.0
  0
LINE
  5
1D6C4
  8
0
 10
4437.2609831208683318
 20
223.1885905834066079
 30
0.0
 11
4437.285983120867968
 21
223.1885905834066079
 31
0.0
  0
LINE
  5
1D6C5
  8
0
 10
4437.2909831208680771
 20
223.1885905834066079
 30
0.0
 11
4437.3159831208668038
 21
223.1885905834066079
 31
0.0
  0
LINE
  5
1D6C6
  8
0
 10
4437.3209831208669129
 20
223.1885905834066079
 30
0.0
 11
4437.3459831208683681
 21
223.1885905834066079
 31
0.0
  0
LINE
  5
1D6C7
  8
0
 10
4437.3509831208675678
 20
223.1885905834066079
 30
0.0
 11
4437.3759831208681135
 21
223.1885905834066079
 31
0.0
  0
LINE
  5
1D6C8
  8
0
 10
4437.3809831208682226
 20
223.1885905834066079
 30
0.0
 11
4437.4059831208669493
 21
223.1885905834066079
 31
0.0
  0
LINE
  5
1D6C9
  8
0
 10
4437.410983120867968
 20
223.1885905834066079
 30
0.0
 11
4437.4359831208676042
 21
223.1885905834066079
 31
0.0
  0
LINE
  5
1D6CA
  8
0
 10
4437.4409831208668038
 20
223.1885905834066079
 30
0.0
 11
4437.465983120868259
 21
223.1885905834066079
 31
0.0
  0
LINE
  5
1D6CB
  8
0
 10
4437.4709831208683681
 20
223.1885905834066079
 30
0.0
 11
4437.4959831208670948
 21
223.1885905834066079
 31
0.0
  0
LINE
  5
1D6CC
  8
0
 10
4437.5009831208681135
 20
223.1885905834066079
 30
0.0
 11
4437.5259831208677497
 21
223.1885905834066079
 31
0.0
  0
LINE
  5
1D6CD
  8
0
 10
4437.5309831208678588
 20
223.1885905834066079
 30
0.0
 11
4437.5559831208684045
 21
223.1885905834066079
 31
0.0
  0
LINE
  5
1D6CE
  8
0
 10
4437.5609831208676042
 20
223.1885905834066079
 30
0.0
 11
4437.5859831208672404
 21
223.1885905834066079
 31
0.0
  0
LINE
  5
1D6CF
  8
0
 10
4437.590983120868259
 20
223.1885905834066079
 30
0.0
 11
4437.6071496735094115
 21
223.1885905834066079
 31
0.0
  0
LINE
  5
1D6D0
  8
0
 10
4431.6804713097681088
 20
223.2335905834065954
 30
0.0
 11
4431.6554713097693821
 21
223.2335905834065954
 31
0.0
  0
LINE
  5
1D6D1
  8
0
 10
4431.6504713097683634
 20
223.2335905834065954
 30
0.0
 11
4431.6254713097669082
 21
223.2335905834065954
 31
0.0
  0
LINE
  5
1D6D2
  8
0
 10
4431.6204713097667991
 20
223.2335905834065954
 30
0.0
 11
4431.5954713097680724
 21
223.2335905834065954
 31
0.0
  0
LINE
  5
1D6D3
  8
0
 10
4431.5904713097679632
 20
223.2335905834065954
 30
0.0
 11
4431.565471309768327
 21
223.2335905834065954
 31
0.0
  0
LINE
  5
1D6D4
  8
0
 10
4431.5604713097682179
 20
223.2335905834065954
 30
0.0
 11
4431.5354713097667627
 21
223.2335905834065954
 31
0.0
  0
LINE
  5
1D6D5
  8
0
 10
4431.5304713097693821
 20
223.2335905834065954
 30
0.0
 11
4431.5054713097679269
 21
223.2335905834065954
 31
0.0
  0
LINE
  5
1D6D6
  8
0
 10
4431.5004713097669082
 20
223.2335905834065954
 30
0.0
 11
4431.4754713097681815
 21
223.2335905834065954
 31
0.0
  0
LINE
  5
1D6D7
  8
0
 10
4431.4704713097680724
 20
223.2335905834065954
 30
0.0
 11
4431.4454713097684362
 21
223.2335905834065954
 31
0.0
  0
LINE
  5
1D6D8
  8
0
 10
4431.4404713097692365
 20
223.2335905834065954
 30
0.0
 11
4431.4154713097677813
 21
223.2335905834065954
 31
0.0
  0
LINE
  5
1D6D9
  8
0
 10
4431.4104713097667627
 20
223.2335905834065954
 30
0.0
 11
4431.385471309768036
 21
223.2335905834065954
 31
0.0
  0
LINE
  5
1D6DA
  8
0
 10
4431.3804713097670174
 20
223.2335905834065954
 30
0.0
 11
4431.3554713097682907
 21
223.2335905834065954
 31
0.0
  0
LINE
  5
1D6DB
  8
0
 10
4431.350471309769091
 20
223.2335905834065954
 30
0.0
 11
4431.3254713097676358
 21
223.2335905834065954
 31
0.0
  0
LINE
  5
1D6DC
  8
0
 10
4431.2904713097668719
 20
223.2335905834065954
 30
0.0
 11
4431.2888679948746358
 21
223.2335905834065102
 31
0.0
  0
LINE
  5
1D6DD
  8
0
 10
4431.3204713097684362
 20
223.2335905834065954
 30
0.0
 11
4431.2954713097678905
 21
223.2335905834065954
 31
0.0
  0
LINE
  5
1D6DE
  8
0
 10
4431.2954713097678905
 20
223.2385905834065909
 30
0.0
 11
4431.3204713097684362
 21
223.2385905834065909
 31
0.0
  0
LINE
  5
1D6DF
  8
0
 10
4431.3254713097676358
 20
223.2385905834065909
 30
0.0
 11
4431.350471309769091
 21
223.2385905834065909
 31
0.0
  0
LINE
  5
1D6E0
  8
0
 10
4431.3554713097682907
 20
223.2385905834065909
 30
0.0
 11
4431.3804713097670174
 21
223.2385905834065909
 31
0.0
  0
LINE
  5
1D6E1
  8
0
 10
4431.385471309768036
 20
223.2385905834065909
 30
0.0
 11
4431.4104713097667627
 21
223.2385905834065909
 31
0.0
  0
LINE
  5
1D6E2
  8
0
 10
4431.4154713097677813
 20
223.2385905834065909
 30
0.0
 11
4431.4404713097692365
 21
223.2385905834065909
 31
0.0
  0
LINE
  5
1D6E3
  8
0
 10
4431.4454713097684362
 20
223.2385905834065909
 30
0.0
 11
4431.4704713097680724
 21
223.2385905834065909
 31
0.0
  0
LINE
  5
1D6E4
  8
0
 10
4431.4754713097681815
 20
223.2385905834065909
 30
0.0
 11
4431.5004713097669082
 21
223.2385905834065909
 31
0.0
  0
LINE
  5
1D6E5
  8
0
 10
4431.5054713097679269
 20
223.2385905834065909
 30
0.0
 11
4431.5304713097693821
 21
223.2385905834065909
 31
0.0
  0
LINE
  5
1D6E6
  8
0
 10
4431.5354713097667627
 20
223.2385905834065909
 30
0.0
 11
4431.5604713097682179
 21
223.2385905834065909
 31
0.0
  0
LINE
  5
1D6E7
  8
0
 10
4431.565471309768327
 20
223.2385905834065909
 30
0.0
 11
4431.5904713097679632
 21
223.2385905834065909
 31
0.0
  0
LINE
  5
1D6E8
  8
0
 10
4431.5954713097680724
 20
223.2385905834065909
 30
0.0
 11
4431.6204713097667991
 21
223.2385905834065909
 31
0.0
  0
LINE
  5
1D6E9
  8
0
 10
4431.6254713097669082
 20
223.2385905834065909
 30
0.0
 11
4431.6504713097683634
 21
223.2385905834065909
 31
0.0
  0
LINE
  5
1D6EA
  8
0
 10
4431.6554713097693821
 20
223.2385905834065909
 30
0.0
 11
4431.6791350090534252
 21
223.2385905834065909
 31
0.0
  0
LINE
  5
1D6EB
  8
0
 10
4437.5998827102812356
 20
223.2085905834065045
 30
0.0
 11
4437.590983120868259
 21
223.2085905834065045
 31
0.0
  0
LINE
  5
1D6EC
  8
0
 10
4437.5859831208672404
 20
223.2085905834065045
 30
0.0
 11
4437.5609831208676042
 21
223.2085905834065045
 31
0.0
  0
LINE
  5
1D6ED
  8
0
 10
4437.5559831208684045
 20
223.2085905834065045
 30
0.0
 11
4437.5309831208678588
 21
223.2085905834065045
 31
0.0
  0
LINE
  5
1D6EE
  8
0
 10
4437.5259831208677497
 20
223.2085905834065045
 30
0.0
 11
4437.5009831208681135
 21
223.2085905834065045
 31
0.0
  0
LINE
  5
1D6EF
  8
0
 10
4437.4959831208670948
 20
223.2085905834065045
 30
0.0
 11
4437.4709831208683681
 21
223.2085905834065045
 31
0.0
  0
LINE
  5
1D6F0
  8
0
 10
4437.465983120868259
 20
223.2085905834065045
 30
0.0
 11
4437.4409831208668038
 21
223.2085905834065045
 31
0.0
  0
LINE
  5
1D6F1
  8
0
 10
4437.4359831208676042
 20
223.2085905834065045
 30
0.0
 11
4437.410983120867968
 21
223.2085905834065045
 31
0.0
  0
LINE
  5
1D6F2
  8
0
 10
4437.4059831208669493
 20
223.2085905834065045
 30
0.0
 11
4437.3809831208682226
 21
223.2085905834065045
 31
0.0
  0
LINE
  5
1D6F3
  8
0
 10
4437.3759831208681135
 20
223.2085905834065045
 30
0.0
 11
4437.3509831208675678
 21
223.2085905834065045
 31
0.0
  0
LINE
  5
1D6F4
  8
0
 10
4437.3459831208683681
 20
223.2085905834065045
 30
0.0
 11
4437.3209831208669129
 21
223.2085905834065045
 31
0.0
  0
LINE
  5
1D6F5
  8
0
 10
4437.3159831208668038
 20
223.2085905834065045
 30
0.0
 11
4437.2909831208680771
 21
223.2085905834065045
 31
0.0
  0
LINE
  5
1D6F6
  8
0
 10
4437.285983120867968
 20
223.2085905834065045
 30
0.0
 11
4437.2609831208683318
 21
223.2085905834065045
 31
0.0
  0
LINE
  5
1D6F7
  8
0
 10
4437.2559831208682226
 20
223.2085905834065045
 30
0.0
 11
4437.2309831208667674
 21
223.2085905834065045
 31
0.0
  0
LINE
  5
1D6F8
  8
0
 10
4437.1959831208678224
 20
223.2085905834065045
 30
0.0
 11
4437.1820835314547367
 21
223.2085905834065045
 31
0.0
  0
LINE
  5
1D6F9
  8
0
 10
4437.2259831208675678
 20
223.2085905834065045
 30
0.0
 11
4437.2009831208679316
 21
223.2085905834065045
 31
0.0
  0
LINE
  5
1D6FA
  8
0
 10
4437.1842422118761533
 20
223.2135905834064999
 30
0.0
 11
4437.1959831208678224
 21
223.2135905834064999
 31
0.0
  0
LINE
  5
1D6FB
  8
0
 10
4437.2009831208679316
 20
223.2135905834064999
 30
0.0
 11
4437.2259831208675678
 21
223.2135905834064999
 31
0.0
  0
LINE
  5
1D6FC
  8
0
 10
4437.2309831208667674
 20
223.2135905834064999
 30
0.0
 11
4437.2559831208682226
 21
223.2135905834064999
 31
0.0
  0
LINE
  5
1D6FD
  8
0
 10
4437.2609831208683318
 20
223.2135905834064999
 30
0.0
 11
4437.285983120867968
 21
223.2135905834064999
 31
0.0
  0
LINE
  5
1D6FE
  8
0
 10
4437.2909831208680771
 20
223.2135905834064999
 30
0.0
 11
4437.3159831208668038
 21
223.2135905834064999
 31
0.0
  0
LINE
  5
1D6FF
  8
0
 10
4437.3209831208669129
 20
223.2135905834064999
 30
0.0
 11
4437.3459831208683681
 21
223.2135905834064999
 31
0.0
  0
LINE
  5
1D700
  8
0
 10
4437.3509831208675678
 20
223.2135905834064999
 30
0.0
 11
4437.3759831208681135
 21
223.2135905834064999
 31
0.0
  0
LINE
  5
1D701
  8
0
 10
4437.3809831208682226
 20
223.2135905834064999
 30
0.0
 11
4437.4059831208669493
 21
223.2135905834064999
 31
0.0
  0
LINE
  5
1D702
  8
0
 10
4437.410983120867968
 20
223.2135905834064999
 30
0.0
 11
4437.4359831208676042
 21
223.2135905834064999
 31
0.0
  0
LINE
  5
1D703
  8
0
 10
4437.4409831208668038
 20
223.2135905834064999
 30
0.0
 11
4437.465983120868259
 21
223.2135905834064999
 31
0.0
  0
LINE
  5
1D704
  8
0
 10
4437.4709831208683681
 20
223.2135905834064999
 30
0.0
 11
4437.4959831208670948
 21
223.2135905834064999
 31
0.0
  0
LINE
  5
1D705
  8
0
 10
4437.5009831208681135
 20
223.2135905834064999
 30
0.0
 11
4437.5259831208677497
 21
223.2135905834064999
 31
0.0
  0
LINE
  5
1D706
  8
0
 10
4437.5309831208678588
 20
223.2135905834064999
 30
0.0
 11
4437.5559831208684045
 21
223.2135905834064999
 31
0.0
  0
LINE
  5
1D707
  8
0
 10
4437.5609831208676042
 20
223.2135905834064999
 30
0.0
 11
4437.5859831208672404
 21
223.2135905834064999
 31
0.0
  0
LINE
  5
1D708
  8
0
 10
4437.590983120868259
 20
223.2135905834064999
 30
0.0
 11
4437.5977240298607285
 21
223.2135905834064999
 31
0.0
  0
LINE
  5
1D709
  8
0
 10
4431.6655176604590451
 20
223.2585905834064874
 30
0.0
 11
4431.6554713097693821
 21
223.2585905834064874
 31
0.0
  0
LINE
  5
1D70A
  8
0
 10
4431.6504713097683634
 20
223.2585905834064874
 30
0.0
 11
4431.6254713097669082
 21
223.2585905834064874
 31
0.0
  0
LINE
  5
1D70B
  8
0
 10
4431.6204713097667991
 20
223.2585905834064874
 30
0.0
 11
4431.5954713097680724
 21
223.2585905834064874
 31
0.0
  0
LINE
  5
1D70C
  8
0
 10
4431.5904713097679632
 20
223.2585905834064874
 30
0.0
 11
4431.565471309768327
 21
223.2585905834064874
 31
0.0
  0
LINE
  5
1D70D
  8
0
 10
4431.5604713097682179
 20
223.2585905834064874
 30
0.0
 11
4431.5354713097667627
 21
223.2585905834064874
 31
0.0
  0
LINE
  5
1D70E
  8
0
 10
4431.5304713097693821
 20
223.2585905834064874
 30
0.0
 11
4431.5054713097679269
 21
223.2585905834064874
 31
0.0
  0
LINE
  5
1D70F
  8
0
 10
4431.5004713097669082
 20
223.2585905834064874
 30
0.0
 11
4431.4754713097681815
 21
223.2585905834064874
 31
0.0
  0
LINE
  5
1D710
  8
0
 10
4431.4704713097680724
 20
223.2585905834064874
 30
0.0
 11
4431.4454713097684362
 21
223.2585905834064874
 31
0.0
  0
LINE
  5
1D711
  8
0
 10
4431.4404713097692365
 20
223.2585905834064874
 30
0.0
 11
4431.4154713097677813
 21
223.2585905834064874
 31
0.0
  0
LINE
  5
1D712
  8
0
 10
4431.4104713097667627
 20
223.2585905834064874
 30
0.0
 11
4431.385471309768036
 21
223.2585905834064874
 31
0.0
  0
LINE
  5
1D713
  8
0
 10
4431.3804713097670174
 20
223.2585905834064874
 30
0.0
 11
4431.3554713097682907
 21
223.2585905834064874
 31
0.0
  0
LINE
  5
1D714
  8
0
 10
4431.350471309769091
 20
223.2585905834064874
 30
0.0
 11
4431.3254713097676358
 21
223.2585905834064874
 31
0.0
  0
LINE
  5
1D715
  8
0
 10
4431.3204713097684362
 20
223.2585905834064874
 30
0.0
 11
4431.305424959076845
 21
223.2585905834064874
 31
0.0
  0
LINE
  5
1D716
  8
0
 10
4431.3093479058970843
 20
223.2635905834065113
 30
0.0
 11
4431.3204713097684362
 21
223.2635905834065113
 31
0.0
  0
LINE
  5
1D717
  8
0
 10
4431.3254713097676358
 20
223.2635905834065113
 30
0.0
 11
4431.350471309769091
 21
223.2635905834065113
 31
0.0
  0
LINE
  5
1D718
  8
0
 10
4431.3554713097682907
 20
223.2635905834065113
 30
0.0
 11
4431.3804713097670174
 21
223.2635905834065113
 31
0.0
  0
LINE
  5
1D719
  8
0
 10
4431.385471309768036
 20
223.2635905834065113
 30
0.0
 11
4431.4104713097667627
 21
223.2635905834065113
 31
0.0
  0
LINE
  5
1D71A
  8
0
 10
4431.4154713097677813
 20
223.2635905834065113
 30
0.0
 11
4431.4404713097692365
 21
223.2635905834065113
 31
0.0
  0
LINE
  5
1D71B
  8
0
 10
4431.4454713097684362
 20
223.2635905834065113
 30
0.0
 11
4431.4704713097680724
 21
223.2635905834065113
 31
0.0
  0
LINE
  5
1D71C
  8
0
 10
4431.4754713097681815
 20
223.2635905834065113
 30
0.0
 11
4431.5004713097669082
 21
223.2635905834065113
 31
0.0
  0
LINE
  5
1D71D
  8
0
 10
4431.5054713097679269
 20
223.2635905834065113
 30
0.0
 11
4431.5304713097693821
 21
223.2635905834065113
 31
0.0
  0
LINE
  5
1D71E
  8
0
 10
4431.5354713097667627
 20
223.2635905834065113
 30
0.0
 11
4431.5604713097682179
 21
223.2635905834065113
 31
0.0
  0
LINE
  5
1D71F
  8
0
 10
4431.565471309768327
 20
223.2635905834065113
 30
0.0
 11
4431.5904713097679632
 21
223.2635905834065113
 31
0.0
  0
LINE
  5
1D720
  8
0
 10
4431.5954713097680724
 20
223.2635905834065113
 30
0.0
 11
4431.6204713097667991
 21
223.2635905834065113
 31
0.0
  0
LINE
  5
1D721
  8
0
 10
4431.6254713097669082
 20
223.2635905834065113
 30
0.0
 11
4431.6504713097683634
 21
223.2635905834065113
 31
0.0
  0
LINE
  5
1D722
  8
0
 10
4431.6554713097693821
 20
223.2635905834065113
 30
0.0
 11
4431.6615947136388058
 21
223.2635905834065966
 31
0.0
  0
LINE
  5
1D723
  8
0
 10
4437.5859831208672404
 20
223.2335905834065102
 30
0.0
 11
4437.5609831208676042
 21
223.2335905834065102
 31
0.0
  0
LINE
  5
1D724
  8
0
 10
4437.5559831208684045
 20
223.2335905834065102
 30
0.0
 11
4437.5309831208678588
 21
223.2335905834065102
 31
0.0
  0
LINE
  5
1D725
  8
0
 10
4437.5259831208677497
 20
223.2335905834065102
 30
0.0
 11
4437.5009831208681135
 21
223.2335905834065102
 31
0.0
  0
LINE
  5
1D726
  8
0
 10
4437.4959831208670948
 20
223.2335905834065102
 30
0.0
 11
4437.4709831208683681
 21
223.2335905834065102
 31
0.0
  0
LINE
  5
1D727
  8
0
 10
4437.465983120868259
 20
223.2335905834065102
 30
0.0
 11
4437.4409831208668038
 21
223.2335905834065102
 31
0.0
  0
LINE
  5
1D728
  8
0
 10
4437.4359831208676042
 20
223.2335905834065102
 30
0.0
 11
4437.410983120867968
 21
223.2335905834065102
 31
0.0
  0
LINE
  5
1D729
  8
0
 10
4437.4059831208669493
 20
223.2335905834065102
 30
0.0
 11
4437.3809831208682226
 21
223.2335905834065102
 31
0.0
  0
LINE
  5
1D72A
  8
0
 10
4437.3759831208681135
 20
223.2335905834065102
 30
0.0
 11
4437.3509831208675678
 21
223.2335905834065102
 31
0.0
  0
LINE
  5
1D72B
  8
0
 10
4437.3459831208683681
 20
223.2335905834065102
 30
0.0
 11
4437.3209831208669129
 21
223.2335905834065102
 31
0.0
  0
LINE
  5
1D72C
  8
0
 10
4437.3159831208668038
 20
223.2335905834065102
 30
0.0
 11
4437.2909831208680771
 21
223.2335905834065102
 31
0.0
  0
LINE
  5
1D72D
  8
0
 10
4437.285983120867968
 20
223.2335905834065102
 30
0.0
 11
4437.2609831208683318
 21
223.2335905834065102
 31
0.0
  0
LINE
  5
1D72E
  8
0
 10
4437.2559831208682226
 20
223.2335905834065102
 30
0.0
 11
4437.2309831208667674
 21
223.2335905834065102
 31
0.0
  0
LINE
  5
1D72F
  8
0
 10
4437.1959831208678224
 20
223.2335905834065102
 30
0.0
 11
4437.1943798059737674
 21
223.2335905834065102
 31
0.0
  0
LINE
  5
1D730
  8
0
 10
4437.2259831208675678
 20
223.2335905834065102
 30
0.0
 11
4437.2009831208679316
 21
223.2335905834065102
 31
0.0
  0
LINE
  5
1D731
  8
0
 10
4437.2009831208679316
 20
223.2385905834065909
 30
0.0
 11
4437.2259831208675678
 21
223.2385905834065909
 31
0.0
  0
LINE
  5
1D732
  8
0
 10
4437.2309831208667674
 20
223.2385905834065909
 30
0.0
 11
4437.2559831208682226
 21
223.2385905834065909
 31
0.0
  0
LINE
  5
1D733
  8
0
 10
4437.2609831208683318
 20
223.2385905834065909
 30
0.0
 11
4437.285983120867968
 21
223.2385905834065909
 31
0.0
  0
LINE
  5
1D734
  8
0
 10
4437.2909831208680771
 20
223.2385905834065909
 30
0.0
 11
4437.3159831208668038
 21
223.2385905834065909
 31
0.0
  0
LINE
  5
1D735
  8
0
 10
4437.3209831208669129
 20
223.2385905834065909
 30
0.0
 11
4437.3459831208683681
 21
223.2385905834065909
 31
0.0
  0
LINE
  5
1D736
  8
0
 10
4437.3509831208675678
 20
223.2385905834065909
 30
0.0
 11
4437.3759831208681135
 21
223.2385905834065909
 31
0.0
  0
LINE
  5
1D737
  8
0
 10
4437.3809831208682226
 20
223.2385905834065909
 30
0.0
 11
4437.4059831208669493
 21
223.2385905834065909
 31
0.0
  0
LINE
  5
1D738
  8
0
 10
4437.410983120867968
 20
223.2385905834065909
 30
0.0
 11
4437.4359831208676042
 21
223.2385905834065909
 31
0.0
  0
LINE
  5
1D739
  8
0
 10
4437.4409831208668038
 20
223.2385905834065909
 30
0.0
 11
4437.465983120868259
 21
223.2385905834065909
 31
0.0
  0
LINE
  5
1D73A
  8
0
 10
4437.4709831208683681
 20
223.2385905834065909
 30
0.0
 11
4437.4959831208670948
 21
223.2385905834065909
 31
0.0
  0
LINE
  5
1D73B
  8
0
 10
4437.5009831208681135
 20
223.2385905834065909
 30
0.0
 11
4437.5259831208677497
 21
223.2385905834065909
 31
0.0
  0
LINE
  5
1D73C
  8
0
 10
4437.5309831208678588
 20
223.2385905834065909
 30
0.0
 11
4437.5559831208684045
 21
223.2385905834065909
 31
0.0
  0
LINE
  5
1D73D
  8
0
 10
4437.5609831208676042
 20
223.2385905834065909
 30
0.0
 11
4437.5846468201543757
 21
223.2385905834065056
 31
0.0
  0
LINE
  5
1D73E
  8
0
 10
4431.6433653038493503
 20
223.2835905834066068
 30
0.0
 11
4431.6254713097669082
 21
223.2835905834066068
 31
0.0
  0
LINE
  5
1D73F
  8
0
 10
4431.6204713097667991
 20
223.2835905834066068
 30
0.0
 11
4431.5954713097680724
 21
223.2835905834066068
 31
0.0
  0
LINE
  5
1D740
  8
0
 10
4431.5904713097679632
 20
223.2835905834066068
 30
0.0
 11
4431.565471309768327
 21
223.2835905834066068
 31
0.0
  0
LINE
  5
1D741
  8
0
 10
4431.5604713097682179
 20
223.2835905834066068
 30
0.0
 11
4431.5354713097667627
 21
223.2835905834066068
 31
0.0
  0
LINE
  5
1D742
  8
0
 10
4431.5304713097693821
 20
223.2835905834066068
 30
0.0
 11
4431.5054713097679269
 21
223.2835905834066068
 31
0.0
  0
LINE
  5
1D743
  8
0
 10
4431.5004713097669082
 20
223.2835905834066068
 30
0.0
 11
4431.4754713097681815
 21
223.2835905834066068
 31
0.0
  0
LINE
  5
1D744
  8
0
 10
4431.4704713097680724
 20
223.2835905834066068
 30
0.0
 11
4431.4454713097684362
 21
223.2835905834066068
 31
0.0
  0
LINE
  5
1D745
  8
0
 10
4431.4404713097692365
 20
223.2835905834066068
 30
0.0
 11
4431.4154713097677813
 21
223.2835905834066068
 31
0.0
  0
LINE
  5
1D746
  8
0
 10
4431.4104713097667627
 20
223.2835905834066068
 30
0.0
 11
4431.385471309768036
 21
223.2835905834066068
 31
0.0
  0
LINE
  5
1D747
  8
0
 10
4431.3804713097670174
 20
223.2835905834066068
 30
0.0
 11
4431.3554713097682907
 21
223.2835905834066068
 31
0.0
  0
LINE
  5
1D748
  8
0
 10
4431.350471309769091
 20
223.2835905834066068
 30
0.0
 11
4431.3275773156874493
 21
223.2835905834066068
 31
0.0
  0
LINE
  5
1D749
  8
0
 10
4431.3328827179229847
 20
223.2885905834064886
 30
0.0
 11
4431.350471309769091
 21
223.2885905834064886
 31
0.0
  0
LINE
  5
1D74A
  8
0
 10
4431.3554713097682907
 20
223.2885905834064886
 30
0.0
 11
4431.3804713097670174
 21
223.2885905834064886
 31
0.0
  0
LINE
  5
1D74B
  8
0
 10
4431.385471309768036
 20
223.2885905834064886
 30
0.0
 11
4431.4104713097667627
 21
223.2885905834064886
 31
0.0
  0
LINE
  5
1D74C
  8
0
 10
4431.4154713097677813
 20
223.2885905834064886
 30
0.0
 11
4431.4404713097692365
 21
223.2885905834064886
 31
0.0
  0
LINE
  5
1D74D
  8
0
 10
4431.4454713097684362
 20
223.2885905834064886
 30
0.0
 11
4431.4704713097680724
 21
223.2885905834064886
 31
0.0
  0
LINE
  5
1D74E
  8
0
 10
4431.4754713097681815
 20
223.2885905834064886
 30
0.0
 11
4431.5004713097669082
 21
223.2885905834064886
 31
0.0
  0
LINE
  5
1D74F
  8
0
 10
4431.5054713097679269
 20
223.2885905834064886
 30
0.0
 11
4431.5304713097693821
 21
223.2885905834064886
 31
0.0
  0
LINE
  5
1D750
  8
0
 10
4431.5354713097667627
 20
223.2885905834064886
 30
0.0
 11
4431.5604713097682179
 21
223.2885905834064886
 31
0.0
  0
LINE
  5
1D751
  8
0
 10
4431.565471309768327
 20
223.2885905834064886
 30
0.0
 11
4431.5904713097679632
 21
223.2885905834064886
 31
0.0
  0
LINE
  5
1D752
  8
0
 10
4431.5954713097680724
 20
223.2885905834064886
 30
0.0
 11
4431.6204713097667991
 21
223.2885905834064886
 31
0.0
  0
LINE
  5
1D753
  8
0
 10
4431.6254713097669082
 20
223.2885905834064886
 30
0.0
 11
4431.6380599016119959
 21
223.2885905834064886
 31
0.0
  0
LINE
  5
1D754
  8
0
 10
4437.5710294715581767
 20
223.2585905834064874
 30
0.0
 11
4437.5609831208676042
 21
223.2585905834064874
 31
0.0
  0
LINE
  5
1D755
  8
0
 10
4437.5559831208684045
 20
223.2585905834064874
 30
0.0
 11
4437.5309831208678588
 21
223.2585905834064874
 31
0.0
  0
LINE
  5
1D756
  8
0
 10
4437.5259831208677497
 20
223.2585905834064874
 30
0.0
 11
4437.5009831208681135
 21
223.2585905834064874
 31
0.0
  0
LINE
  5
1D757
  8
0
 10
4437.4959831208670948
 20
223.2585905834064874
 30
0.0
 11
4437.4709831208683681
 21
223.2585905834064874
 31
0.0
  0
LINE
  5
1D758
  8
0
 10
4437.465983120868259
 20
223.2585905834064874
 30
0.0
 11
4437.4409831208668038
 21
223.2585905834064874
 31
0.0
  0
LINE
  5
1D759
  8
0
 10
4437.4359831208676042
 20
223.2585905834064874
 30
0.0
 11
4437.410983120867968
 21
223.2585905834064874
 31
0.0
  0
LINE
  5
1D75A
  8
0
 10
4437.4059831208669493
 20
223.2585905834064874
 30
0.0
 11
4437.3809831208682226
 21
223.2585905834064874
 31
0.0
  0
LINE
  5
1D75B
  8
0
 10
4437.3759831208681135
 20
223.2585905834064874
 30
0.0
 11
4437.3509831208675678
 21
223.2585905834064874
 31
0.0
  0
LINE
  5
1D75C
  8
0
 10
4437.3459831208683681
 20
223.2585905834064874
 30
0.0
 11
4437.3209831208669129
 21
223.2585905834064874
 31
0.0
  0
LINE
  5
1D75D
  8
0
 10
4437.3159831208668038
 20
223.2585905834064874
 30
0.0
 11
4437.2909831208680771
 21
223.2585905834064874
 31
0.0
  0
LINE
  5
1D75E
  8
0
 10
4437.285983120867968
 20
223.2585905834064874
 30
0.0
 11
4437.2609831208683318
 21
223.2585905834064874
 31
0.0
  0
LINE
  5
1D75F
  8
0
 10
4437.2559831208682226
 20
223.2585905834064874
 30
0.0
 11
4437.2309831208667674
 21
223.2585905834064874
 31
0.0
  0
LINE
  5
1D760
  8
0
 10
4437.2259831208675678
 20
223.2585905834064874
 30
0.0
 11
4437.2109367701777956
 21
223.2585905834064874
 31
0.0
  0
LINE
  5
1D761
  8
0
 10
4437.2148597169980349
 20
223.2635905834065113
 30
0.0
 11
4437.2259831208675678
 21
223.2635905834065113
 31
0.0
  0
LINE
  5
1D762
  8
0
 10
4437.2309831208667674
 20
223.2635905834065113
 30
0.0
 11
4437.2559831208682226
 21
223.2635905834065113
 31
0.0
  0
LINE
  5
1D763
  8
0
 10
4437.2609831208683318
 20
223.2635905834065113
 30
0.0
 11
4437.285983120867968
 21
223.2635905834065113
 31
0.0
  0
LINE
  5
1D764
  8
0
 10
4437.2909831208680771
 20
223.2635905834065113
 30
0.0
 11
4437.3159831208668038
 21
223.2635905834065113
 31
0.0
  0
LINE
  5
1D765
  8
0
 10
4437.3209831208669129
 20
223.2635905834065113
 30
0.0
 11
4437.3459831208683681
 21
223.2635905834065113
 31
0.0
  0
LINE
  5
1D766
  8
0
 10
4437.3509831208675678
 20
223.2635905834065113
 30
0.0
 11
4437.3759831208681135
 21
223.2635905834065113
 31
0.0
  0
LINE
  5
1D767
  8
0
 10
4437.3809831208682226
 20
223.2635905834065113
 30
0.0
 11
4437.4059831208669493
 21
223.2635905834065113
 31
0.0
  0
LINE
  5
1D768
  8
0
 10
4437.410983120867968
 20
223.2635905834065113
 30
0.0
 11
4437.4359831208676042
 21
223.2635905834065113
 31
0.0
  0
LINE
  5
1D769
  8
0
 10
4437.4409831208668038
 20
223.2635905834065113
 30
0.0
 11
4437.465983120868259
 21
223.2635905834065113
 31
0.0
  0
LINE
  5
1D76A
  8
0
 10
4437.4709831208683681
 20
223.2635905834065113
 30
0.0
 11
4437.4959831208670948
 21
223.2635905834065113
 31
0.0
  0
LINE
  5
1D76B
  8
0
 10
4437.5009831208681135
 20
223.2635905834065113
 30
0.0
 11
4437.5259831208677497
 21
223.2635905834065113
 31
0.0
  0
LINE
  5
1D76C
  8
0
 10
4437.5309831208678588
 20
223.2635905834065113
 30
0.0
 11
4437.5559831208684045
 21
223.2635905834065113
 31
0.0
  0
LINE
  5
1D76D
  8
0
 10
4437.5609831208676042
 20
223.2635905834065113
 30
0.0
 11
4437.5671065247379374
 21
223.2635905834065113
 31
0.0
  0
LINE
  5
1D76E
  8
0
 10
4431.6127282873239892
 20
223.3085905834064988
 30
0.0
 11
4431.5954713097680724
 21
223.3085905834064988
 31
0.0
  0
LINE
  5
1D76F
  8
0
 10
4431.5904713097679632
 20
223.3085905834064988
 30
0.0
 11
4431.565471309768327
 21
223.3085905834064988
 31
0.0
  0
LINE
  5
1D770
  8
0
 10
4431.5604713097682179
 20
223.3085905834064988
 30
0.0
 11
4431.5354713097667627
 21
223.3085905834064988
 31
0.0
  0
LINE
  5
1D771
  8
0
 10
4431.5304713097693821
 20
223.3085905834064988
 30
0.0
 11
4431.5054713097679269
 21
223.3085905834064988
 31
0.0
  0
LINE
  5
1D772
  8
0
 10
4431.5004713097669082
 20
223.3085905834064988
 30
0.0
 11
4431.4754713097681815
 21
223.3085905834064988
 31
0.0
  0
LINE
  5
1D773
  8
0
 10
4431.4704713097680724
 20
223.3085905834064988
 30
0.0
 11
4431.4454713097684362
 21
223.3085905834064988
 31
0.0
  0
LINE
  5
1D774
  8
0
 10
4431.4404713097692365
 20
223.3085905834064988
 30
0.0
 11
4431.4154713097677813
 21
223.3085905834064988
 31
0.0
  0
LINE
  5
1D775
  8
0
 10
4431.4104713097667627
 20
223.3085905834064988
 30
0.0
 11
4431.385471309768036
 21
223.3085905834064988
 31
0.0
  0
LINE
  5
1D776
  8
0
 10
4431.3804713097670174
 20
223.3085905834064988
 30
0.0
 11
4431.3582143322100819
 21
223.3085905834064988
 31
0.0
  0
LINE
  5
1D777
  8
0
 10
4431.3659008145323241
 20
223.3135905834064943
 30
0.0
 11
4431.3804713097670174
 21
223.3135905834064943
 31
0.0
  0
LINE
  5
1D778
  8
0
 10
4431.385471309768036
 20
223.3135905834064943
 30
0.0
 11
4431.4104713097667627
 21
223.3135905834064943
 31
0.0
  0
LINE
  5
1D779
  8
0
 10
4431.4154713097677813
 20
223.3135905834064943
 30
0.0
 11
4431.4404713097692365
 21
223.3135905834064943
 31
0.0
  0
LINE
  5
1D77A
  8
0
 10
4431.4454713097684362
 20
223.3135905834064943
 30
0.0
 11
4431.4704713097680724
 21
223.3135905834064943
 31
0.0
  0
LINE
  5
1D77B
  8
0
 10
4431.4754713097681815
 20
223.3135905834064943
 30
0.0
 11
4431.5004713097669082
 21
223.3135905834064943
 31
0.0
  0
LINE
  5
1D77C
  8
0
 10
4431.5054713097679269
 20
223.3135905834064943
 30
0.0
 11
4431.5304713097693821
 21
223.3135905834064943
 31
0.0
  0
LINE
  5
1D77D
  8
0
 10
4431.5354713097667627
 20
223.3135905834064943
 30
0.0
 11
4431.5604713097682179
 21
223.3135905834064943
 31
0.0
  0
LINE
  5
1D77E
  8
0
 10
4431.565471309768327
 20
223.3135905834064943
 30
0.0
 11
4431.5904713097679632
 21
223.3135905834064943
 31
0.0
  0
LINE
  5
1D77F
  8
0
 10
4431.5954713097680724
 20
223.3135905834064943
 30
0.0
 11
4431.605041805005385
 21
223.3135905834064943
 31
0.0
  0
LINE
  5
1D780
  8
0
 10
4437.5488771149493914
 20
223.2835905834066068
 30
0.0
 11
4437.5309831208678588
 21
223.2835905834066068
 31
0.0
  0
LINE
  5
1D781
  8
0
 10
4437.5259831208677497
 20
223.2835905834066068
 30
0.0
 11
4437.5009831208681135
 21
223.2835905834066068
 31
0.0
  0
LINE
  5
1D782
  8
0
 10
4437.4959831208670948
 20
223.2835905834066068
 30
0.0
 11
4437.4709831208683681
 21
223.2835905834066068
 31
0.0
  0
LINE
  5
1D783
  8
0
 10
4437.465983120868259
 20
223.2835905834066068
 30
0.0
 11
4437.4409831208668038
 21
223.2835905834066068
 31
0.0
  0
LINE
  5
1D784
  8
0
 10
4437.4359831208676042
 20
223.2835905834066068
 30
0.0
 11
4437.410983120867968
 21
223.2835905834066068
 31
0.0
  0
LINE
  5
1D785
  8
0
 10
4437.4059831208669493
 20
223.2835905834066068
 30
0.0
 11
4437.3809831208682226
 21
223.2835905834066068
 31
0.0
  0
LINE
  5
1D786
  8
0
 10
4437.3759831208681135
 20
223.2835905834066068
 30
0.0
 11
4437.3509831208675678
 21
223.2835905834066068
 31
0.0
  0
LINE
  5
1D787
  8
0
 10
4437.3459831208683681
 20
223.2835905834066068
 30
0.0
 11
4437.3209831208669129
 21
223.2835905834066068
 31
0.0
  0
LINE
  5
1D788
  8
0
 10
4437.3159831208668038
 20
223.2835905834066068
 30
0.0
 11
4437.2909831208680771
 21
223.2835905834066068
 31
0.0
  0
LINE
  5
1D789
  8
0
 10
4437.285983120867968
 20
223.2835905834066068
 30
0.0
 11
4437.2609831208683318
 21
223.2835905834066068
 31
0.0
  0
LINE
  5
1D78A
  8
0
 10
4437.2559831208682226
 20
223.2835905834066068
 30
0.0
 11
4437.2330891267856714
 21
223.2835905834066068
 31
0.0
  0
LINE
  5
1D78B
  8
0
 10
4437.2383945290239353
 20
223.2885905834064886
 30
0.0
 11
4437.2559831208682226
 21
223.2885905834064886
 31
0.0
  0
LINE
  5
1D78C
  8
0
 10
4437.2609831208683318
 20
223.2885905834064886
 30
0.0
 11
4437.285983120867968
 21
223.2885905834064886
 31
0.0
  0
LINE
  5
1D78D
  8
0
 10
4437.2909831208680771
 20
223.2885905834064886
 30
0.0
 11
4437.3159831208668038
 21
223.2885905834064886
 31
0.0
  0
LINE
  5
1D78E
  8
0
 10
4437.3209831208669129
 20
223.2885905834064886
 30
0.0
 11
4437.3459831208683681
 21
223.2885905834064886
 31
0.0
  0
LINE
  5
1D78F
  8
0
 10
4437.3509831208675678
 20
223.2885905834064886
 30
0.0
 11
4437.3759831208681135
 21
223.2885905834064886
 31
0.0
  0
LINE
  5
1D790
  8
0
 10
4437.3809831208682226
 20
223.2885905834064886
 30
0.0
 11
4437.4059831208669493
 21
223.2885905834064886
 31
0.0
  0
LINE
  5
1D791
  8
0
 10
4437.410983120867968
 20
223.2885905834064886
 30
0.0
 11
4437.4359831208676042
 21
223.2885905834064886
 31
0.0
  0
LINE
  5
1D792
  8
0
 10
4437.4409831208668038
 20
223.2885905834064886
 30
0.0
 11
4437.465983120868259
 21
223.2885905834064886
 31
0.0
  0
LINE
  5
1D793
  8
0
 10
4437.4709831208683681
 20
223.2885905834064886
 30
0.0
 11
4437.4959831208670948
 21
223.2885905834064886
 31
0.0
  0
LINE
  5
1D794
  8
0
 10
4437.5009831208681135
 20
223.2885905834064886
 30
0.0
 11
4437.5259831208677497
 21
223.2885905834064886
 31
0.0
  0
LINE
  5
1D795
  8
0
 10
4437.5309831208678588
 20
223.2885905834064886
 30
0.0
 11
4437.5435717127111275
 21
223.2885905834064886
 31
0.0
  0
LINE
  5
1D796
  8
0
 10
4431.5604713097682179
 20
223.3335905834065898
 30
0.0
 11
4431.5354713097667627
 21
223.3335905834065898
 31
0.0
  0
LINE
  5
1D797
  8
0
 10
4431.5304713097693821
 20
223.3335905834065898
 30
0.0
 11
4431.5054713097679269
 21
223.3335905834065898
 31
0.0
  0
LINE
  5
1D798
  8
0
 10
4431.5004713097669082
 20
223.3335905834065898
 30
0.0
 11
4431.4754713097681815
 21
223.3335905834065898
 31
0.0
  0
LINE
  5
1D799
  8
0
 10
4431.4704713097680724
 20
223.3335905834065898
 30
0.0
 11
4431.4454713097684362
 21
223.3335905834065898
 31
0.0
  0
LINE
  5
1D79A
  8
0
 10
4431.4104713097667627
 20
223.3335905834065898
 30
0.0
 11
4431.4066794110276533
 21
223.3335905834065898
 31
0.0
  0
LINE
  5
1D79B
  8
0
 10
4431.4404713097692365
 20
223.3335905834065898
 30
0.0
 11
4431.4154713097677813
 21
223.3335905834065898
 31
0.0
  0
LINE
  5
1D79C
  8
0
 10
4431.4217458964621983
 20
223.3385905834066136
 30
0.0
 11
4431.4404713097692365
 21
223.3385905834066136
 31
0.0
  0
LINE
  5
1D79D
  8
0
 10
4431.4454713097684362
 20
223.3385905834066136
 30
0.0
 11
4431.4704713097680724
 21
223.3385905834066136
 31
0.0
  0
LINE
  5
1D79E
  8
0
 10
4431.4754713097681815
 20
223.3385905834066136
 30
0.0
 11
4431.5004713097669082
 21
223.3385905834066136
 31
0.0
  0
LINE
  5
1D79F
  8
0
 10
4431.5054713097679269
 20
223.3385905834066136
 30
0.0
 11
4431.5304713097693821
 21
223.3385905834066136
 31
0.0
  0
LINE
  5
1D7A0
  8
0
 10
4431.5354713097667627
 20
223.3385905834066136
 30
0.0
 11
4431.5491967230727823
 21
223.3385905834066136
 31
0.0
  0
LINE
  5
1D7A1
  8
0
 10
4437.5182400984249398
 20
223.3085905834064988
 30
0.0
 11
4437.5009831208681135
 21
223.3085905834064988
 31
0.0
  0
LINE
  5
1D7A2
  8
0
 10
4437.4959831208670948
 20
223.3085905834064988
 30
0.0
 11
4437.4709831208683681
 21
223.3085905834064988
 31
0.0
  0
LINE
  5
1D7A3
  8
0
 10
4437.465983120868259
 20
223.3085905834064988
 30
0.0
 11
4437.4409831208668038
 21
223.3085905834064988
 31
0.0
  0
LINE
  5
1D7A4
  8
0
 10
4437.4359831208676042
 20
223.3085905834064988
 30
0.0
 11
4437.410983120867968
 21
223.3085905834064988
 31
0.0
  0
LINE
  5
1D7A5
  8
0
 10
4437.4059831208669493
 20
223.3085905834064988
 30
0.0
 11
4437.3809831208682226
 21
223.3085905834064988
 31
0.0
  0
LINE
  5
1D7A6
  8
0
 10
4437.3759831208681135
 20
223.3085905834064988
 30
0.0
 11
4437.3509831208675678
 21
223.3085905834064988
 31
0.0
  0
LINE
  5
1D7A7
  8
0
 10
4437.3459831208683681
 20
223.3085905834064988
 30
0.0
 11
4437.3209831208669129
 21
223.3085905834064988
 31
0.0
  0
LINE
  5
1D7A8
  8
0
 10
4437.3159831208668038
 20
223.3085905834064988
 30
0.0
 11
4437.2909831208680771
 21
223.3085905834064988
 31
0.0
  0
LINE
  5
1D7A9
  8
0
 10
4437.285983120867968
 20
223.3085905834064988
 30
0.0
 11
4437.2637261433110325
 21
223.3085905834064988
 31
0.0
  0
LINE
  5
1D7AA
  8
0
 10
4437.2714126256332747
 20
223.3135905834064943
 30
0.0
 11
4437.285983120867968
 21
223.3135905834064943
 31
0.0
  0
LINE
  5
1D7AB
  8
0
 10
4437.2909831208680771
 20
223.3135905834064943
 30
0.0
 11
4437.3159831208668038
 21
223.3135905834064943
 31
0.0
  0
LINE
  5
1D7AC
  8
0
 10
4437.3209831208669129
 20
223.3135905834064943
 30
0.0
 11
4437.3459831208683681
 21
223.3135905834064943
 31
0.0
  0
LINE
  5
1D7AD
  8
0
 10
4437.3509831208675678
 20
223.3135905834064943
 30
0.0
 11
4437.3759831208681135
 21
223.3135905834064943
 31
0.0
  0
LINE
  5
1D7AE
  8
0
 10
4437.3809831208682226
 20
223.3135905834064943
 30
0.0
 11
4437.4059831208669493
 21
223.3135905834064943
 31
0.0
  0
LINE
  5
1D7AF
  8
0
 10
4437.410983120867968
 20
223.3135905834064943
 30
0.0
 11
4437.4359831208676042
 21
223.3135905834064943
 31
0.0
  0
LINE
  5
1D7B0
  8
0
 10
4437.4409831208668038
 20
223.3135905834064943
 30
0.0
 11
4437.465983120868259
 21
223.3135905834064943
 31
0.0
  0
LINE
  5
1D7B1
  8
0
 10
4437.4709831208683681
 20
223.3135905834064943
 30
0.0
 11
4437.4959831208670948
 21
223.3135905834064943
 31
0.0
  0
LINE
  5
1D7B2
  8
0
 10
4437.5009831208681135
 20
223.3135905834064943
 30
0.0
 11
4437.5105536161036071
 21
223.3135905834064943
 31
0.0
  0
LINE
  5
1D7B3
  8
0
 10
4437.465983120868259
 20
223.3335905834065045
 30
0.0
 11
4437.4409831208668038
 21
223.3335905834065045
 31
0.0
  0
LINE
  5
1D7B4
  8
0
 10
4437.4359831208676042
 20
223.3335905834065045
 30
0.0
 11
4437.410983120867968
 21
223.3335905834065045
 31
0.0
  0
LINE
  5
1D7B5
  8
0
 10
4437.4059831208669493
 20
223.3335905834065045
 30
0.0
 11
4437.3809831208682226
 21
223.3335905834065045
 31
0.0
  0
LINE
  5
1D7B6
  8
0
 10
4437.3759831208681135
 20
223.3335905834065045
 30
0.0
 11
4437.3509831208675678
 21
223.3335905834065045
 31
0.0
  0
LINE
  5
1D7B7
  8
0
 10
4437.3159831208668038
 20
223.3335905834065045
 30
0.0
 11
4437.3121912221286038
 21
223.3335905834065045
 31
0.0
  0
LINE
  5
1D7B8
  8
0
 10
4437.3459831208683681
 20
223.3335905834065045
 30
0.0
 11
4437.3209831208669129
 21
223.3335905834065045
 31
0.0
  0
LINE
  5
1D7B9
  8
0
 10
4437.3272577075622394
 20
223.3385905834066136
 30
0.0
 11
4437.3459831208683681
 21
223.3385905834066136
 31
0.0
  0
LINE
  5
1D7BA
  8
0
 10
4437.3509831208675678
 20
223.3385905834066136
 30
0.0
 11
4437.3759831208681135
 21
223.3385905834066136
 31
0.0
  0
LINE
  5
1D7BB
  8
0
 10
4437.3809831208682226
 20
223.3385905834066136
 30
0.0
 11
4437.4059831208669493
 21
223.3385905834066136
 31
0.0
  0
LINE
  5
1D7BC
  8
0
 10
4437.410983120867968
 20
223.3385905834066136
 30
0.0
 11
4437.4359831208676042
 21
223.3385905834066136
 31
0.0
  0
LINE
  5
1D7BD
  8
0
 10
4437.4409831208668038
 20
223.3385905834066136
 30
0.0
 11
4437.4547085341737329
 21
223.3385905834066136
 31
0.0
  0
LINE
  5
1D7BE
  8
0
 10
4437.1659831208680771
 20
223.0964276057889037
 30
0.0
 11
4437.1659831208680771
 21
223.1085905834065102
 31
0.0
  0
LINE
  5
1D7BF
  8
0
 10
4437.1659831208680771
 20
223.1135905834065909
 30
0.0
 11
4437.1659831208680771
 21
223.1335905834066011
 31
0.0
  0
LINE
  5
1D7C0
  8
0
 10
4437.1659831208680771
 20
223.1385905834065113
 30
0.0
 11
4437.1659831208680771
 21
223.1463065598242963
 31
0.0
  0
LINE
  5
1D7C1
  8
0
 10
4437.1709831208681862
 20
223.1747241583815082
 30
0.0
 11
4437.1709831208681862
 21
223.1635905834064886
 31
0.0
  0
LINE
  5
1D7C2
  8
0
 10
4437.1709831208681862
 20
223.1585905834064931
 30
0.0
 11
4437.1709831208681862
 21
223.1385905834065113
 31
0.0
  0
LINE
  5
1D7C3
  8
0
 10
4437.1709831208681862
 20
223.1335905834066011
 30
0.0
 11
4437.1709831208681862
 21
223.1135905834065909
 31
0.0
  0
LINE
  5
1D7C4
  8
0
 10
4437.1709831208681862
 20
223.1085905834065102
 30
0.0
 11
4437.1709831208681862
 21
223.0885905834066136
 31
0.0
  0
LINE
  5
1D7C5
  8
0
 10
4437.1709831208681862
 20
223.0835905834065045
 30
0.0
 11
4437.1709831208681862
 21
223.0680100072314929
 31
0.0
  0
LINE
  5
1D7C6
  8
0
 10
4437.1959831208678224
 20
223.0063802248014042
 30
0.0
 11
4437.1959831208678224
 21
223.0085905834064874
 31
0.0
  0
LINE
  5
1D7C7
  8
0
 10
4437.1959831208678224
 20
223.0135905834065113
 30
0.0
 11
4437.1959831208678224
 21
223.0335905834066068
 31
0.0
  0
LINE
  5
1D7C8
  8
0
 10
4437.1959831208678224
 20
223.0385905834066023
 30
0.0
 11
4437.1959831208678224
 21
223.0585905834066125
 31
0.0
  0
LINE
  5
1D7C9
  8
0
 10
4437.1959831208678224
 20
223.0635905834064943
 30
0.0
 11
4437.1959831208678224
 21
223.0835905834065045
 31
0.0
  0
LINE
  5
1D7CA
  8
0
 10
4437.1959831208678224
 20
223.0885905834066136
 30
0.0
 11
4437.1959831208678224
 21
223.1085905834065102
 31
0.0
  0
LINE
  5
1D7CB
  8
0
 10
4437.1959831208678224
 20
223.1135905834065909
 30
0.0
 11
4437.1959831208678224
 21
223.1335905834066011
 31
0.0
  0
LINE
  5
1D7CC
  8
0
 10
4437.1959831208678224
 20
223.1385905834065113
 30
0.0
 11
4437.1959831208678224
 21
223.1585905834064931
 31
0.0
  0
LINE
  5
1D7CD
  8
0
 10
4437.1959831208678224
 20
223.1635905834064886
 30
0.0
 11
4437.1959831208678224
 21
223.1835905834066125
 31
0.0
  0
LINE
  5
1D7CE
  8
0
 10
4437.1959831208678224
 20
223.1885905834066079
 30
0.0
 11
4437.1959831208678224
 21
223.2085905834065045
 31
0.0
  0
LINE
  5
1D7CF
  8
0
 10
4437.1959831208678224
 20
223.2135905834064999
 30
0.0
 11
4437.1959831208678224
 21
223.2335905834065102
 31
0.0
  0
LINE
  5
1D7D0
  8
0
 10
4437.2009831208679316
 20
223.2444401404345911
 30
0.0
 11
4437.2009831208679316
 21
223.2385905834065909
 31
0.0
  0
LINE
  5
1D7D1
  8
0
 10
4437.2009831208679316
 20
223.2335905834065102
 30
0.0
 11
4437.2009831208679316
 21
223.2135905834064999
 31
0.0
  0
LINE
  5
1D7D2
  8
0
 10
4437.2009831208679316
 20
223.2085905834065045
 30
0.0
 11
4437.2009831208679316
 21
223.1885905834066079
 31
0.0
  0
LINE
  5
1D7D3
  8
0
 10
4437.2009831208679316
 20
223.1835905834066125
 30
0.0
 11
4437.2009831208679316
 21
223.1635905834064886
 31
0.0
  0
LINE
  5
1D7D4
  8
0
 10
4437.2009831208679316
 20
223.1585905834064931
 30
0.0
 11
4437.2009831208679316
 21
223.1385905834065113
 31
0.0
  0
LINE
  5
1D7D5
  8
0
 10
4437.2009831208679316
 20
223.1335905834066011
 30
0.0
 11
4437.2009831208679316
 21
223.1135905834065909
 31
0.0
  0
LINE
  5
1D7D6
  8
0
 10
4437.2009831208679316
 20
223.1085905834065102
 30
0.0
 11
4437.2009831208679316
 21
223.0885905834066136
 31
0.0
  0
LINE
  5
1D7D7
  8
0
 10
4437.2009831208679316
 20
223.0835905834065045
 30
0.0
 11
4437.2009831208679316
 21
223.0635905834064943
 31
0.0
  0
LINE
  5
1D7D8
  8
0
 10
4437.2009831208679316
 20
223.0585905834066125
 30
0.0
 11
4437.2009831208679316
 21
223.0385905834066023
 31
0.0
  0
LINE
  5
1D7D9
  8
0
 10
4437.2009831208679316
 20
223.0335905834066068
 30
0.0
 11
4437.2009831208679316
 21
223.0135905834065113
 31
0.0
  0
LINE
  5
1D7DA
  8
0
 10
4437.2009831208679316
 20
223.0085905834064874
 30
0.0
 11
4437.2009831208679316
 21
222.9982940251784953
 31
0.0
  0
LINE
  5
1D7DB
  8
0
 10
4437.2259831208675678
 20
222.9663768330682956
 30
0.0
 11
4437.2259831208675678
 21
222.9835905834065102
 31
0.0
  0
LINE
  5
1D7DC
  8
0
 10
4437.2259831208675678
 20
222.9885905834065909
 30
0.0
 11
4437.2259831208675678
 21
223.0085905834064874
 31
0.0
  0
LINE
  5
1D7DD
  8
0
 10
4437.2259831208675678
 20
223.0135905834065113
 30
0.0
 11
4437.2259831208675678
 21
223.0335905834066068
 31
0.0
  0
LINE
  5
1D7DE
  8
0
 10
4437.2259831208675678
 20
223.0385905834066023
 30
0.0
 11
4437.2259831208675678
 21
223.0585905834066125
 31
0.0
  0
LINE
  5
1D7DF
  8
0
 10
4437.2259831208675678
 20
223.0635905834064943
 30
0.0
 11
4437.2259831208675678
 21
223.0835905834065045
 31
0.0
  0
LINE
  5
1D7E0
  8
0
 10
4437.2259831208675678
 20
223.0885905834066136
 30
0.0
 11
4437.2259831208675678
 21
223.1085905834065102
 31
0.0
  0
LINE
  5
1D7E1
  8
0
 10
4437.2259831208675678
 20
223.1135905834065909
 30
0.0
 11
4437.2259831208675678
 21
223.1335905834066011
 31
0.0
  0
LINE
  5
1D7E2
  8
0
 10
4437.2259831208675678
 20
223.1385905834065113
 30
0.0
 11
4437.2259831208675678
 21
223.1585905834064931
 31
0.0
  0
LINE
  5
1D7E3
  8
0
 10
4437.2259831208675678
 20
223.1635905834064886
 30
0.0
 11
4437.2259831208675678
 21
223.1835905834066125
 31
0.0
  0
LINE
  5
1D7E4
  8
0
 10
4437.2259831208675678
 20
223.1885905834066079
 30
0.0
 11
4437.2259831208675678
 21
223.2085905834065045
 31
0.0
  0
LINE
  5
1D7E5
  8
0
 10
4437.2259831208675678
 20
223.2135905834064999
 30
0.0
 11
4437.2259831208675678
 21
223.2335905834065102
 31
0.0
  0
LINE
  5
1D7E6
  8
0
 10
4437.2259831208675678
 20
223.2385905834065909
 30
0.0
 11
4437.2259831208675678
 21
223.2585905834064874
 31
0.0
  0
LINE
  5
1D7E7
  8
0
 10
4437.2259831208675678
 20
223.2635905834065113
 30
0.0
 11
4437.2259831208675678
 21
223.2763573325447908
 31
0.0
  0
LINE
  5
1D7E8
  8
0
 10
4437.2309831208667674
 20
223.2815138202504102
 30
0.0
 11
4437.2309831208667674
 21
223.2635905834065113
 31
0.0
  0
LINE
  5
1D7E9
  8
0
 10
4437.2309831208667674
 20
223.2585905834064874
 30
0.0
 11
4437.2309831208667674
 21
223.2385905834065909
 31
0.0
  0
LINE
  5
1D7EA
  8
0
 10
4437.2309831208667674
 20
223.2335905834065102
 30
0.0
 11
4437.2309831208667674
 21
223.2135905834064999
 31
0.0
  0
LINE
  5
1D7EB
  8
0
 10
4437.2309831208667674
 20
223.2085905834065045
 30
0.0
 11
4437.2309831208667674
 21
223.1885905834066079
 31
0.0
  0
LINE
  5
1D7EC
  8
0
 10
4437.2309831208667674
 20
223.1835905834066125
 30
0.0
 11
4437.2309831208667674
 21
223.1635905834064886
 31
0.0
  0
LINE
  5
1D7ED
  8
0
 10
4437.2309831208667674
 20
223.1585905834064931
 30
0.0
 11
4437.2309831208667674
 21
223.1385905834065113
 31
0.0
  0
LINE
  5
1D7EE
  8
0
 10
4437.2309831208667674
 20
223.1335905834066011
 30
0.0
 11
4437.2309831208667674
 21
223.1135905834065909
 31
0.0
  0
LINE
  5
1D7EF
  8
0
 10
4437.2309831208667674
 20
223.1085905834065102
 30
0.0
 11
4437.2309831208667674
 21
223.0885905834066136
 31
0.0
  0
LINE
  5
1D7F0
  8
0
 10
4437.2309831208667674
 20
223.0835905834065045
 30
0.0
 11
4437.2309831208667674
 21
223.0635905834064943
 31
0.0
  0
LINE
  5
1D7F1
  8
0
 10
4437.2309831208667674
 20
223.0585905834066125
 30
0.0
 11
4437.2309831208667674
 21
223.0385905834066023
 31
0.0
  0
LINE
  5
1D7F2
  8
0
 10
4437.2309831208667674
 20
223.0335905834066068
 30
0.0
 11
4437.2309831208667674
 21
223.0135905834065113
 31
0.0
  0
LINE
  5
1D7F3
  8
0
 10
4437.2309831208667674
 20
223.0085905834064874
 30
0.0
 11
4437.2309831208667674
 21
222.9885905834065909
 31
0.0
  0
LINE
  5
1D7F4
  8
0
 10
4437.2309831208667674
 20
222.9835905834065102
 30
0.0
 11
4437.2309831208667674
 21
222.9635905834066136
 31
0.0
  0
LINE
  5
1D7F5
  8
0
 10
4437.2559831208682226
 20
222.9396475805127125
 30
0.0
 11
4437.2559831208682226
 21
222.9585905834065045
 31
0.0
  0
LINE
  5
1D7F6
  8
0
 10
4437.2559831208682226
 20
222.9635905834066136
 30
0.0
 11
4437.2559831208682226
 21
222.9835905834065102
 31
0.0
  0
LINE
  5
1D7F7
  8
0
 10
4437.2559831208682226
 20
222.9885905834065909
 30
0.0
 11
4437.2559831208682226
 21
223.0085905834064874
 31
0.0
  0
LINE
  5
1D7F8
  8
0
 10
4437.2559831208682226
 20
223.0135905834065113
 30
0.0
 11
4437.2559831208682226
 21
223.0335905834066068
 31
0.0
  0
LINE
  5
1D7F9
  8
0
 10
4437.2559831208682226
 20
223.0385905834066023
 30
0.0
 11
4437.2559831208682226
 21
223.0585905834066125
 31
0.0
  0
LINE
  5
1D7FA
  8
0
 10
4437.2559831208682226
 20
223.0635905834064943
 30
0.0
 11
4437.2559831208682226
 21
223.0835905834065045
 31
0.0
  0
LINE
  5
1D7FB
  8
0
 10
4437.2559831208682226
 20
223.0885905834066136
 30
0.0
 11
4437.2559831208682226
 21
223.1085905834065102
 31
0.0
  0
LINE
  5
1D7FC
  8
0
 10
4437.2559831208682226
 20
223.1135905834065909
 30
0.0
 11
4437.2559831208682226
 21
223.1335905834066011
 31
0.0
  0
LINE
  5
1D7FD
  8
0
 10
4437.2559831208682226
 20
223.1385905834065113
 30
0.0
 11
4437.2559831208682226
 21
223.1585905834064931
 31
0.0
  0
LINE
  5
1D7FE
  8
0
 10
4437.2559831208682226
 20
223.1635905834064886
 30
0.0
 11
4437.2559831208682226
 21
223.1835905834066125
 31
0.0
  0
LINE
  5
1D7FF
  8
0
 10
4437.2559831208682226
 20
223.1885905834066079
 30
0.0
 11
4437.2559831208682226
 21
223.2085905834065045
 31
0.0
  0
LINE
  5
1D800
  8
0
 10
4437.2559831208682226
 20
223.2135905834064999
 30
0.0
 11
4437.2559831208682226
 21
223.2335905834065102
 31
0.0
  0
LINE
  5
1D801
  8
0
 10
4437.2559831208682226
 20
223.2385905834065909
 30
0.0
 11
4437.2559831208682226
 21
223.2585905834064874
 31
0.0
  0
LINE
  5
1D802
  8
0
 10
4437.2559831208682226
 20
223.2635905834065113
 30
0.0
 11
4437.2559831208682226
 21
223.2835905834066068
 31
0.0
  0
LINE
  5
1D803
  8
0
 10
4437.2559831208682226
 20
223.2885905834064886
 30
0.0
 11
4437.2559830432683157
 21
223.3030865274510859
 31
0.0
  0
LINE
  5
1D804
  8
0
 10
4437.2609831208683318
 20
223.3066964585511869
 30
0.0
 11
4437.2609831208683318
 21
223.2885905834064886
 31
0.0
  0
LINE
  5
1D805
  8
0
 10
4437.2609831208683318
 20
223.2835905834066068
 30
0.0
 11
4437.2609831208683318
 21
223.2635905834065113
 31
0.0
  0
LINE
  5
1D806
  8
0
 10
4437.2609831208683318
 20
223.2585905834064874
 30
0.0
 11
4437.2609831208683318
 21
223.2385905834065909
 31
0.0
  0
LINE
  5
1D807
  8
0
 10
4437.2609831208683318
 20
223.2335905834065102
 30
0.0
 11
4437.2609831208683318
 21
223.2135905834064999
 31
0.0
  0
LINE
  5
1D808
  8
0
 10
4437.2609831208683318
 20
223.2085905834065045
 30
0.0
 11
4437.2609831208683318
 21
223.1885905834066079
 31
0.0
  0
LINE
  5
1D809
  8
0
 10
4437.2609831208683318
 20
223.1835905834066125
 30
0.0
 11
4437.2609831208683318
 21
223.1635905834064886
 31
0.0
  0
LINE
  5
1D80A
  8
0
 10
4437.2609831208683318
 20
223.1585905834064931
 30
0.0
 11
4437.2609831208683318
 21
223.1385905834065113
 31
0.0
  0
LINE
  5
1D80B
  8
0
 10
4437.2609831208683318
 20
223.1335905834066011
 30
0.0
 11
4437.2609831208683318
 21
223.1135905834065909
 31
0.0
  0
LINE
  5
1D80C
  8
0
 10
4437.2609831208683318
 20
223.1085905834065102
 30
0.0
 11
4437.2609831208683318
 21
223.0885905834066136
 31
0.0
  0
LINE
  5
1D80D
  8
0
 10
4437.2609831208683318
 20
223.0835905834065045
 30
0.0
 11
4437.2609831208683318
 21
223.0635905834064943
 31
0.0
  0
LINE
  5
1D80E
  8
0
 10
4437.2609831208683318
 20
223.0585905834066125
 30
0.0
 11
4437.2609831208683318
 21
223.0385905834066023
 31
0.0
  0
LINE
  5
1D80F
  8
0
 10
4437.2609831208683318
 20
223.0335905834066068
 30
0.0
 11
4437.2609831208683318
 21
223.0135905834065113
 31
0.0
  0
LINE
  5
1D810
  8
0
 10
4437.2609831208683318
 20
223.0085905834064874
 30
0.0
 11
4437.2609831208683318
 21
222.9885905834065909
 31
0.0
  0
LINE
  5
1D811
  8
0
 10
4437.2609831208683318
 20
222.9835905834065102
 30
0.0
 11
4437.2609831208683318
 21
222.9635905834066136
 31
0.0
  0
LINE
  5
1D812
  8
0
 10
4437.2609831208683318
 20
222.9585905834065045
 30
0.0
 11
4437.2609831208683318
 21
222.9385905834066079
 31
0.0
  0
LINE
  5
1D813
  8
0
 10
4437.285983120867968
 20
222.920812906799398
 30
0.0
 11
4437.285983120867968
 21
222.9335905834066125
 31
0.0
  0
LINE
  5
1D814
  8
0
 10
4437.285983120867968
 20
222.9385905834066079
 30
0.0
 11
4437.285983120867968
 21
222.9585905834065045
 31
0.0
  0
LINE
  5
1D815
  8
0
 10
4437.285983120867968
 20
222.9635905834066136
 30
0.0
 11
4437.285983120867968
 21
222.9835905834065102
 31
0.0
  0
LINE
  5
1D816
  8
0
 10
4437.285983120867968
 20
222.9885905834065909
 30
0.0
 11
4437.285983120867968
 21
223.0085905834064874
 31
0.0
  0
LINE
  5
1D817
  8
0
 10
4437.285983120867968
 20
223.0135905834065113
 30
0.0
 11
4437.285983120867968
 21
223.0335905834066068
 31
0.0
  0
LINE
  5
1D818
  8
0
 10
4437.285983120867968
 20
223.0385905834066023
 30
0.0
 11
4437.285983120867968
 21
223.0585905834066125
 31
0.0
  0
LINE
  5
1D819
  8
0
 10
4437.285983120867968
 20
223.0635905834064943
 30
0.0
 11
4437.285983120867968
 21
223.0835905834065045
 31
0.0
  0
LINE
  5
1D81A
  8
0
 10
4437.285983120867968
 20
223.0885905834066136
 30
0.0
 11
4437.285983120867968
 21
223.1085905834065102
 31
0.0
  0
LINE
  5
1D81B
  8
0
 10
4437.285983120867968
 20
223.1135905834065909
 30
0.0
 11
4437.285983120867968
 21
223.1335905834066011
 31
0.0
  0
LINE
  5
1D81C
  8
0
 10
4437.285983120867968
 20
223.1385905834065113
 30
0.0
 11
4437.285983120867968
 21
223.1585905834064931
 31
0.0
  0
LINE
  5
1D81D
  8
0
 10
4437.285983120867968
 20
223.1635905834064886
 30
0.0
 11
4437.285983120867968
 21
223.1835905834066125
 31
0.0
  0
LINE
  5
1D81E
  8
0
 10
4437.285983120867968
 20
223.1885905834066079
 30
0.0
 11
4437.285983120867968
 21
223.2085905834065045
 31
0.0
  0
LINE
  5
1D81F
  8
0
 10
4437.285983120867968
 20
223.2135905834064999
 30
0.0
 11
4437.285983120867968
 21
223.2335905834065102
 31
0.0
  0
LINE
  5
1D820
  8
0
 10
4437.285983120867968
 20
223.2385905834065909
 30
0.0
 11
4437.285983120867968
 21
223.2585905834064874
 31
0.0
  0
LINE
  5
1D821
  8
0
 10
4437.285983120867968
 20
223.2635905834065113
 30
0.0
 11
4437.285983120867968
 21
223.2835905834066068
 31
0.0
  0
LINE
  5
1D822
  8
0
 10
4437.285983120867968
 20
223.2885905834064886
 30
0.0
 11
4437.285983120867968
 21
223.3085905834064988
 31
0.0
  0
LINE
  5
1D823
  8
0
 10
4437.285983120867968
 20
223.3135905834064943
 30
0.0
 11
4437.285983120867968
 21
223.3219212588136884
 31
0.0
  0
LINE
  5
1D824
  8
0
 10
4437.2909831208680771
 20
223.3244606019397906
 30
0.0
 11
4437.2909831208680771
 21
223.3135905834064943
 31
0.0
  0
LINE
  5
1D825
  8
0
 10
4437.2909831208680771
 20
223.3085905834064988
 30
0.0
 11
4437.2909831208680771
 21
223.2885905834064886
 31
0.0
  0
LINE
  5
1D826
  8
0
 10
4437.2909831208680771
 20
223.2835905834066068
 30
0.0
 11
4437.2909831208680771
 21
223.2635905834065113
 31
0.0
  0
LINE
  5
1D827
  8
0
 10
4437.2909831208680771
 20
223.2585905834064874
 30
0.0
 11
4437.2909831208680771
 21
223.2385905834065909
 31
0.0
  0
LINE
  5
1D828
  8
0
 10
4437.2909831208680771
 20
223.2335905834065102
 30
0.0
 11
4437.2909831208680771
 21
223.2135905834064999
 31
0.0
  0
LINE
  5
1D829
  8
0
 10
4437.2909831208680771
 20
223.2085905834065045
 30
0.0
 11
4437.2909831208680771
 21
223.1885905834066079
 31
0.0
  0
LINE
  5
1D82A
  8
0
 10
4437.2909831208680771
 20
223.1835905834066125
 30
0.0
 11
4437.2909831208680771
 21
223.1635905834064886
 31
0.0
  0
LINE
  5
1D82B
  8
0
 10
4437.2909831208680771
 20
223.1585905834064931
 30
0.0
 11
4437.2909831208680771
 21
223.1385905834065113
 31
0.0
  0
LINE
  5
1D82C
  8
0
 10
4437.2909831208680771
 20
223.1335905834066011
 30
0.0
 11
4437.2909831208680771
 21
223.1135905834065909
 31
0.0
  0
LINE
  5
1D82D
  8
0
 10
4437.2909831208680771
 20
223.1085905834065102
 30
0.0
 11
4437.2909831208680771
 21
223.0885905834066136
 31
0.0
  0
LINE
  5
1D82E
  8
0
 10
4437.2909831208680771
 20
223.0835905834065045
 30
0.0
 11
4437.2909831208680771
 21
223.0635905834064943
 31
0.0
  0
LINE
  5
1D82F
  8
0
 10
4437.2909831208680771
 20
223.0585905834066125
 30
0.0
 11
4437.2909831208680771
 21
223.0385905834066023
 31
0.0
  0
LINE
  5
1D830
  8
0
 10
4437.2909831208680771
 20
223.0335905834066068
 30
0.0
 11
4437.2909831208680771
 21
223.0135905834065113
 31
0.0
  0
LINE
  5
1D831
  8
0
 10
4437.2909831208680771
 20
223.0085905834064874
 30
0.0
 11
4437.2909831208680771
 21
222.9885905834065909
 31
0.0
  0
LINE
  5
1D832
  8
0
 10
4437.2909831208680771
 20
222.9835905834065102
 30
0.0
 11
4437.2909831208680771
 21
222.9635905834066136
 31
0.0
  0
LINE
  5
1D833
  8
0
 10
4437.2909831208680771
 20
222.9585905834065045
 30
0.0
 11
4437.2909831208680771
 21
222.9385905834066079
 31
0.0
  0
LINE
  5
1D834
  8
0
 10
4437.2909831208680771
 20
222.9335905834066125
 30
0.0
 11
4437.2909831208680771
 21
222.9182735636732957
 31
0.0
  0
LINE
  5
1D835
  8
0
 10
4437.3159831208668038
 20
222.9077740643955963
 30
0.0
 11
4437.3159831208668038
 21
222.9085905834064931
 31
0.0
  0
LINE
  5
1D836
  8
0
 10
4437.3159831208668038
 20
222.9135905834064886
 30
0.0
 11
4437.3159831208668038
 21
222.9335905834066125
 31
0.0
  0
LINE
  5
1D837
  8
0
 10
4437.3159831208668038
 20
222.9385905834066079
 30
0.0
 11
4437.3159831208668038
 21
222.9585905834065045
 31
0.0
  0
LINE
  5
1D838
  8
0
 10
4437.3159831208668038
 20
222.9635905834066136
 30
0.0
 11
4437.3159831208668038
 21
222.9835905834065102
 31
0.0
  0
LINE
  5
1D839
  8
0
 10
4437.3159831208668038
 20
222.9885905834065909
 30
0.0
 11
4437.3159831208668038
 21
223.0085905834064874
 31
0.0
  0
LINE
  5
1D83A
  8
0
 10
4437.3159831208668038
 20
223.0135905834065113
 30
0.0
 11
4437.3159831208668038
 21
223.0335905834066068
 31
0.0
  0
LINE
  5
1D83B
  8
0
 10
4437.3159831208668038
 20
223.0385905834066023
 30
0.0
 11
4437.3159831208668038
 21
223.0585905834066125
 31
0.0
  0
LINE
  5
1D83C
  8
0
 10
4437.3159831208668038
 20
223.0635905834064943
 30
0.0
 11
4437.3159831208668038
 21
223.0835905834065045
 31
0.0
  0
LINE
  5
1D83D
  8
0
 10
4437.3159831208668038
 20
223.0885905834066136
 30
0.0
 11
4437.3159831208668038
 21
223.1085905834065102
 31
0.0
  0
LINE
  5
1D83E
  8
0
 10
4437.3159831208668038
 20
223.1135905834065909
 30
0.0
 11
4437.3159831208668038
 21
223.1335905834066011
 31
0.0
  0
LINE
  5
1D83F
  8
0
 10
4437.3159831208668038
 20
223.1385905834065113
 30
0.0
 11
4437.3159831208668038
 21
223.1585905834064931
 31
0.0
  0
LINE
  5
1D840
  8
0
 10
4437.3159831208668038
 20
223.1635905834064886
 30
0.0
 11
4437.3159831208668038
 21
223.1835905834066125
 31
0.0
  0
LINE
  5
1D841
  8
0
 10
4437.3159831208668038
 20
223.1885905834066079
 30
0.0
 11
4437.3159831208668038
 21
223.2085905834065045
 31
0.0
  0
LINE
  5
1D842
  8
0
 10
4437.3159831208668038
 20
223.2135905834064999
 30
0.0
 11
4437.3159831208668038
 21
223.2335905834065102
 31
0.0
  0
LINE
  5
1D843
  8
0
 10
4437.3159831208668038
 20
223.2385905834065909
 30
0.0
 11
4437.3159831208668038
 21
223.2585905834064874
 31
0.0
  0
LINE
  5
1D844
  8
0
 10
4437.3159831208668038
 20
223.2635905834065113
 30
0.0
 11
4437.3159831208668038
 21
223.2835905834066068
 31
0.0
  0
LINE
  5
1D845
  8
0
 10
4437.3159831208668038
 20
223.2885905834064886
 30
0.0
 11
4437.3159831208668038
 21
223.3085905834064988
 31
0.0
  0
LINE
  5
1D846
  8
0
 10
4437.3159831208668038
 20
223.3135905834064943
 30
0.0
 11
4437.3159831208668038
 21
223.3335905834065045
 31
0.0
  0
LINE
  5
1D847
  8
0
 10
4437.3209831208669129
 20
223.3335905834065045
 30
0.0
 11
4437.3209831208669129
 21
223.3135905834064943
 31
0.0
  0
LINE
  5
1D848
  8
0
 10
4437.3209831208669129
 20
223.3085905834064988
 30
0.0
 11
4437.3209831208669129
 21
223.2885905834064886
 31
0.0
  0
LINE
  5
1D849
  8
0
 10
4437.3209831208669129
 20
223.2835905834066068
 30
0.0
 11
4437.3209831208669129
 21
223.2635905834065113
 31
0.0
  0
LINE
  5
1D84A
  8
0
 10
4437.3209831208669129
 20
223.2585905834064874
 30
0.0
 11
4437.3209831208669129
 21
223.2385905834065909
 31
0.0
  0
LINE
  5
1D84B
  8
0
 10
4437.3209831208669129
 20
223.2335905834065102
 30
0.0
 11
4437.3209831208669129
 21
223.2135905834064999
 31
0.0
  0
LINE
  5
1D84C
  8
0
 10
4437.3209831208669129
 20
223.2085905834065045
 30
0.0
 11
4437.3209831208669129
 21
223.1885905834066079
 31
0.0
  0
LINE
  5
1D84D
  8
0
 10
4437.3209831208669129
 20
223.1835905834066125
 30
0.0
 11
4437.3209831208669129
 21
223.1635905834064886
 31
0.0
  0
LINE
  5
1D84E
  8
0
 10
4437.3209831208669129
 20
223.1585905834064931
 30
0.0
 11
4437.3209831208669129
 21
223.1385905834065113
 31
0.0
  0
LINE
  5
1D84F
  8
0
 10
4437.3209831208669129
 20
223.1335905834066011
 30
0.0
 11
4437.3209831208669129
 21
223.1135905834065909
 31
0.0
  0
LINE
  5
1D850
  8
0
 10
4437.3209831208669129
 20
223.1085905834065102
 30
0.0
 11
4437.3209831208669129
 21
223.0885905834066136
 31
0.0
  0
LINE
  5
1D851
  8
0
 10
4437.3209831208669129
 20
223.0835905834065045
 30
0.0
 11
4437.3209831208669129
 21
223.0635905834064943
 31
0.0
  0
LINE
  5
1D852
  8
0
 10
4437.3209831208669129
 20
223.0585905834066125
 30
0.0
 11
4437.3209831208669129
 21
223.0385905834066023
 31
0.0
  0
LINE
  5
1D853
  8
0
 10
4437.3209831208669129
 20
223.0335905834066068
 30
0.0
 11
4437.3209831208669129
 21
223.0135905834065113
 31
0.0
  0
LINE
  5
1D854
  8
0
 10
4437.3209831208669129
 20
223.0085905834064874
 30
0.0
 11
4437.3209831208669129
 21
222.9885905834065909
 31
0.0
  0
LINE
  5
1D855
  8
0
 10
4437.3209831208669129
 20
222.9835905834065102
 30
0.0
 11
4437.3209831208669129
 21
222.9635905834066136
 31
0.0
  0
LINE
  5
1D856
  8
0
 10
4437.3209831208669129
 20
222.9585905834065045
 30
0.0
 11
4437.3209831208669129
 21
222.9385905834066079
 31
0.0
  0
LINE
  5
1D857
  8
0
 10
4437.3209831208669129
 20
222.9335905834066125
 30
0.0
 11
4437.3209831208669129
 21
222.9135905834064886
 31
0.0
  0
LINE
  5
1D858
  8
0
 10
4437.3209831208669129
 20
222.9085905834064931
 30
0.0
 11
4437.3209831208669129
 21
222.906083601057702
 31
0.0
  0
LINE
  5
1D859
  8
0
 10
4437.3459831208683681
 20
222.8995068170671914
 30
0.0
 11
4437.3459831208683681
 21
222.9085905834064931
 31
0.0
  0
LINE
  5
1D85A
  8
0
 10
4437.3459831208683681
 20
222.9135905834064886
 30
0.0
 11
4437.3459831208683681
 21
222.9335905834066125
 31
0.0
  0
LINE
  5
1D85B
  8
0
 10
4437.3459831208683681
 20
222.9385905834066079
 30
0.0
 11
4437.3459831208683681
 21
222.9585905834065045
 31
0.0
  0
LINE
  5
1D85C
  8
0
 10
4437.3459831208683681
 20
222.9635905834066136
 30
0.0
 11
4437.3459831208683681
 21
222.9835905834065102
 31
0.0
  0
LINE
  5
1D85D
  8
0
 10
4437.3459831208683681
 20
222.9885905834065909
 30
0.0
 11
4437.3459831208683681
 21
223.0085905834064874
 31
0.0
  0
LINE
  5
1D85E
  8
0
 10
4437.3459831208683681
 20
223.0135905834065113
 30
0.0
 11
4437.3459831208683681
 21
223.0335905834066068
 31
0.0
  0
LINE
  5
1D85F
  8
0
 10
4437.3459831208683681
 20
223.0385905834066023
 30
0.0
 11
4437.3459831208683681
 21
223.0585905834066125
 31
0.0
  0
LINE
  5
1D860
  8
0
 10
4437.3459831208683681
 20
223.0635905834064943
 30
0.0
 11
4437.3459831208683681
 21
223.0835905834065045
 31
0.0
  0
LINE
  5
1D861
  8
0
 10
4437.3459831208683681
 20
223.0885905834066136
 30
0.0
 11
4437.3459831208683681
 21
223.1085905834065102
 31
0.0
  0
LINE
  5
1D862
  8
0
 10
4437.3459831208683681
 20
223.1135905834065909
 30
0.0
 11
4437.3459831208683681
 21
223.1335905834066011
 31
0.0
  0
LINE
  5
1D863
  8
0
 10
4437.3459831208683681
 20
223.1385905834065113
 30
0.0
 11
4437.3459831208683681
 21
223.1585905834064931
 31
0.0
  0
LINE
  5
1D864
  8
0
 10
4437.3459831208683681
 20
223.1635905834064886
 30
0.0
 11
4437.3459831208683681
 21
223.1835905834066125
 31
0.0
  0
LINE
  5
1D865
  8
0
 10
4437.3459831208683681
 20
223.1885905834066079
 30
0.0
 11
4437.3459831208683681
 21
223.2085905834065045
 31
0.0
  0
LINE
  5
1D866
  8
0
 10
4437.3459831208683681
 20
223.2135905834064999
 30
0.0
 11
4437.3459831208683681
 21
223.2335905834065102
 31
0.0
  0
LINE
  5
1D867
  8
0
 10
4437.3459831208683681
 20
223.2385905834065909
 30
0.0
 11
4437.3459831208683681
 21
223.2585905834064874
 31
0.0
  0
LINE
  5
1D868
  8
0
 10
4437.3459831208683681
 20
223.2635905834065113
 30
0.0
 11
4437.3459831208683681
 21
223.2835905834066068
 31
0.0
  0
LINE
  5
1D869
  8
0
 10
4437.3459831208683681
 20
223.2885905834064886
 30
0.0
 11
4437.3459831208683681
 21
223.3085905834064988
 31
0.0
  0
LINE
  5
1D86A
  8
0
 10
4437.3459831208683681
 20
223.3135905834064943
 30
0.0
 11
4437.3459831208683681
 21
223.3335905834065045
 31
0.0
  0
LINE
  5
1D86B
  8
0
 10
4437.3459831208683681
 20
223.3385905834066136
 30
0.0
 11
4437.3459831208683681
 21
223.343227348545895
 31
0.0
  0
LINE
  5
1D86C
  8
0
 10
4437.3509831208675678
 20
223.3441830999908859
 30
0.0
 11
4437.3509831208675678
 21
223.3385905834066136
 31
0.0
  0
LINE
  5
1D86D
  8
0
 10
4437.3509831208675678
 20
223.3335905834065045
 30
0.0
 11
4437.3509831208675678
 21
223.3135905834064943
 31
0.0
  0
LINE
  5
1D86E
  8
0
 10
4437.3509831208675678
 20
223.3085905834064988
 30
0.0
 11
4437.3509831208675678
 21
223.2885905834064886
 31
0.0
  0
LINE
  5
1D86F
  8
0
 10
4437.3509831208675678
 20
223.2835905834066068
 30
0.0
 11
4437.3509831208675678
 21
223.2635905834065113
 31
0.0
  0
LINE
  5
1D870
  8
0
 10
4437.3509831208675678
 20
223.2585905834064874
 30
0.0
 11
4437.3509831208675678
 21
223.2385905834065909
 31
0.0
  0
LINE
  5
1D871
  8
0
 10
4437.3509831208675678
 20
223.2335905834065102
 30
0.0
 11
4437.3509831208675678
 21
223.2135905834064999
 31
0.0
  0
LINE
  5
1D872
  8
0
 10
4437.3509831208675678
 20
223.2085905834065045
 30
0.0
 11
4437.3509831208675678
 21
223.1885905834066079
 31
0.0
  0
LINE
  5
1D873
  8
0
 10
4437.3509831208675678
 20
223.1835905834066125
 30
0.0
 11
4437.3509831208675678
 21
223.1635905834064886
 31
0.0
  0
LINE
  5
1D874
  8
0
 10
4437.3509831208675678
 20
223.1585905834064931
 30
0.0
 11
4437.3509831208675678
 21
223.1385905834065113
 31
0.0
  0
LINE
  5
1D875
  8
0
 10
4437.3509831208675678
 20
223.1335905834066011
 30
0.0
 11
4437.3509831208675678
 21
223.1135905834065909
 31
0.0
  0
LINE
  5
1D876
  8
0
 10
4437.3509831208675678
 20
223.1085905834065102
 30
0.0
 11
4437.3509831208675678
 21
223.0885905834066136
 31
0.0
  0
LINE
  5
1D877
  8
0
 10
4437.3509831208675678
 20
223.0835905834065045
 30
0.0
 11
4437.3509831208675678
 21
223.0635905834064943
 31
0.0
  0
LINE
  5
1D878
  8
0
 10
4437.3509831208675678
 20
223.0585905834066125
 30
0.0
 11
4437.3509831208675678
 21
223.0385905834066023
 31
0.0
  0
LINE
  5
1D879
  8
0
 10
4437.3509831208675678
 20
223.0335905834066068
 30
0.0
 11
4437.3509831208675678
 21
223.0135905834065113
 31
0.0
  0
LINE
  5
1D87A
  8
0
 10
4437.3509831208675678
 20
223.0085905834064874
 30
0.0
 11
4437.3509831208675678
 21
222.9885905834065909
 31
0.0
  0
LINE
  5
1D87B
  8
0
 10
4437.3509831208675678
 20
222.9835905834065102
 30
0.0
 11
4437.3509831208675678
 21
222.9635905834066136
 31
0.0
  0
LINE
  5
1D87C
  8
0
 10
4437.3509831208675678
 20
222.9585905834065045
 30
0.0
 11
4437.3509831208675678
 21
222.9385905834066079
 31
0.0
  0
LINE
  5
1D87D
  8
0
 10
4437.3509831208675678
 20
222.9335905834066125
 30
0.0
 11
4437.3509831208675678
 21
222.9135905834064886
 31
0.0
  0
LINE
  5
1D87E
  8
0
 10
4437.3509831208675678
 20
222.9085905834064931
 30
0.0
 11
4437.3509831208675678
 21
222.8985510656220868
 31
0.0
  0
LINE
  5
1D87F
  8
0
 10
4437.3759831208681135
 20
222.8954866332011875
 30
0.0
 11
4437.3759831208681135
 21
222.9085905834064931
 31
0.0
  0
LINE
  5
1D880
  8
0
 10
4437.3759831208681135
 20
222.9135905834064886
 30
0.0
 11
4437.3759831208681135
 21
222.9335905834066125
 31
0.0
  0
LINE
  5
1D881
  8
0
 10
4437.3759831208681135
 20
222.9385905834066079
 30
0.0
 11
4437.3759831208681135
 21
222.9585905834065045
 31
0.0
  0
LINE
  5
1D882
  8
0
 10
4437.3759831208681135
 20
222.9635905834066136
 30
0.0
 11
4437.3759831208681135
 21
222.9835905834065102
 31
0.0
  0
LINE
  5
1D883
  8
0
 10
4437.3759831208681135
 20
222.9885905834065909
 30
0.0
 11
4437.3759831208681135
 21
223.0085905834064874
 31
0.0
  0
LINE
  5
1D884
  8
0
 10
4437.3759831208681135
 20
223.0135905834065113
 30
0.0
 11
4437.3759831208681135
 21
223.0335905834066068
 31
0.0
  0
LINE
  5
1D885
  8
0
 10
4437.3759831208681135
 20
223.0385905834066023
 30
0.0
 11
4437.3759831208681135
 21
223.0585905834066125
 31
0.0
  0
LINE
  5
1D886
  8
0
 10
4437.3759831208681135
 20
223.0635905834064943
 30
0.0
 11
4437.3759831208681135
 21
223.0835905834065045
 31
0.0
  0
LINE
  5
1D887
  8
0
 10
4437.3759831208681135
 20
223.0885905834066136
 30
0.0
 11
4437.3759831208681135
 21
223.1085905834065102
 31
0.0
  0
LINE
  5
1D888
  8
0
 10
4437.3759831208681135
 20
223.1135905834065909
 30
0.0
 11
4437.3759831208681135
 21
223.1335905834066011
 31
0.0
  0
LINE
  5
1D889
  8
0
 10
4437.3759831208681135
 20
223.1385905834065113
 30
0.0
 11
4437.3759831208681135
 21
223.1585905834064931
 31
0.0
  0
LINE
  5
1D88A
  8
0
 10
4437.3759831208681135
 20
223.1635905834064886
 30
0.0
 11
4437.3759831208681135
 21
223.1835905834066125
 31
0.0
  0
LINE
  5
1D88B
  8
0
 10
4437.3759831208681135
 20
223.1885905834066079
 30
0.0
 11
4437.3759831208681135
 21
223.2085905834065045
 31
0.0
  0
LINE
  5
1D88C
  8
0
 10
4437.3759831208681135
 20
223.2135905834064999
 30
0.0
 11
4437.3759831208681135
 21
223.2335905834065102
 31
0.0
  0
LINE
  5
1D88D
  8
0
 10
4437.3759831208681135
 20
223.2385905834065909
 30
0.0
 11
4437.3759831208681135
 21
223.2585905834064874
 31
0.0
  0
LINE
  5
1D88E
  8
0
 10
4437.3759831208681135
 20
223.2635905834065113
 30
0.0
 11
4437.3759831208681135
 21
223.2835905834066068
 31
0.0
  0
LINE
  5
1D88F
  8
0
 10
4437.3759831208681135
 20
223.2885905834064886
 30
0.0
 11
4437.3759831208681135
 21
223.3085905834064988
 31
0.0
  0
LINE
  5
1D890
  8
0
 10
4437.3759831208681135
 20
223.3135905834064943
 30
0.0
 11
4437.3759831208681135
 21
223.3335905834065045
 31
0.0
  0
LINE
  5
1D891
  8
0
 10
4437.3759831208681135
 20
223.3385905834066136
 30
0.0
 11
4437.3759831208681135
 21
223.3472475324118989
 31
0.0
  0
LINE
  5
1D892
  8
0
 10
4437.3809831208682226
 20
223.3475240581884975
 30
0.0
 11
4437.3809831208682226
 21
223.3385905834066136
 31
0.0
  0
LINE
  5
1D893
  8
0
 10
4437.3809831208682226
 20
223.3335905834065045
 30
0.0
 11
4437.3809831208682226
 21
223.3135905834064943
 31
0.0
  0
LINE
  5
1D894
  8
0
 10
4437.3809831208682226
 20
223.3085905834064988
 30
0.0
 11
4437.3809831208682226
 21
223.2885905834064886
 31
0.0
  0
LINE
  5
1D895
  8
0
 10
4437.3809831208682226
 20
223.2835905834066068
 30
0.0
 11
4437.3809831208682226
 21
223.2635905834065113
 31
0.0
  0
LINE
  5
1D896
  8
0
 10
4437.3809831208682226
 20
223.2585905834064874
 30
0.0
 11
4437.3809831208682226
 21
223.2385905834065909
 31
0.0
  0
LINE
  5
1D897
  8
0
 10
4437.3809831208682226
 20
223.2335905834065102
 30
0.0
 11
4437.3809831208682226
 21
223.2135905834064999
 31
0.0
  0
LINE
  5
1D898
  8
0
 10
4437.3809831208682226
 20
223.2085905834065045
 30
0.0
 11
4437.3809831208682226
 21
223.1885905834066079
 31
0.0
  0
LINE
  5
1D899
  8
0
 10
4437.3809831208682226
 20
223.1835905834066125
 30
0.0
 11
4437.3809831208682226
 21
223.1635905834064886
 31
0.0
  0
LINE
  5
1D89A
  8
0
 10
4437.3809831208682226
 20
223.1585905834064931
 30
0.0
 11
4437.3809831208682226
 21
223.1385905834065113
 31
0.0
  0
LINE
  5
1D89B
  8
0
 10
4437.3809831208682226
 20
223.1335905834066011
 30
0.0
 11
4437.3809831208682226
 21
223.1135905834065909
 31
0.0
  0
LINE
  5
1D89C
  8
0
 10
4437.3809831208682226
 20
223.1085905834065102
 30
0.0
 11
4437.3809831208682226
 21
223.0885905834066136
 31
0.0
  0
LINE
  5
1D89D
  8
0
 10
4437.3809831208682226
 20
223.0835905834065045
 30
0.0
 11
4437.3809831208682226
 21
223.0635905834064943
 31
0.0
  0
LINE
  5
1D89E
  8
0
 10
4437.3809831208682226
 20
223.0585905834066125
 30
0.0
 11
4437.3809831208682226
 21
223.0385905834066023
 31
0.0
  0
LINE
  5
1D89F
  8
0
 10
4437.3809831208682226
 20
223.0335905834066068
 30
0.0
 11
4437.3809831208682226
 21
223.0135905834065113
 31
0.0
  0
LINE
  5
1D8A0
  8
0
 10
4437.3809831208682226
 20
223.0085905834064874
 30
0.0
 11
4437.3809831208682226
 21
222.9885905834065909
 31
0.0
  0
LINE
  5
1D8A1
  8
0
 10
4437.3809831208682226
 20
222.9835905834065102
 30
0.0
 11
4437.3809831208682226
 21
222.9635905834066136
 31
0.0
  0
LINE
  5
1D8A2
  8
0
 10
4437.3809831208682226
 20
222.9585905834065045
 30
0.0
 11
4437.3809831208682226
 21
222.9385905834066079
 31
0.0
  0
LINE
  5
1D8A3
  8
0
 10
4437.3809831208682226
 20
222.9335905834066125
 30
0.0
 11
4437.3809831208682226
 21
222.9135905834064886
 31
0.0
  0
LINE
  5
1D8A4
  8
0
 10
4437.3809831208682226
 20
222.9085905834064931
 30
0.0
 11
4437.3809831208682226
 21
222.8952101074245888
 31
0.0
  0
LINE
  5
1D8A5
  8
0
 10
4437.4059831208669493
 20
222.8954866332011875
 30
0.0
 11
4437.4059831208669493
 21
222.9085905834064931
 31
0.0
  0
LINE
  5
1D8A6
  8
0
 10
4437.4059831208669493
 20
222.9135905834064886
 30
0.0
 11
4437.4059831208669493
 21
222.9335905834066125
 31
0.0
  0
LINE
  5
1D8A7
  8
0
 10
4437.4059831208669493
 20
222.9385905834066079
 30
0.0
 11
4437.4059831208669493
 21
222.9585905834065045
 31
0.0
  0
LINE
  5
1D8A8
  8
0
 10
4437.4059831208669493
 20
222.9635905834066136
 30
0.0
 11
4437.4059831208669493
 21
222.9835905834065102
 31
0.0
  0
LINE
  5
1D8A9
  8
0
 10
4437.4059831208669493
 20
222.9885905834065909
 30
0.0
 11
4437.4059831208669493
 21
223.0085905834064874
 31
0.0
  0
LINE
  5
1D8AA
  8
0
 10
4437.4059831208669493
 20
223.0135905834065113
 30
0.0
 11
4437.4059831208669493
 21
223.0335905834066068
 31
0.0
  0
LINE
  5
1D8AB
  8
0
 10
4437.4059831208669493
 20
223.0385905834066023
 30
0.0
 11
4437.4059831208669493
 21
223.0585905834066125
 31
0.0
  0
LINE
  5
1D8AC
  8
0
 10
4437.4059831208669493
 20
223.0635905834064943
 30
0.0
 11
4437.4059831208669493
 21
223.0835905834065045
 31
0.0
  0
LINE
  5
1D8AD
  8
0
 10
4437.4059831208669493
 20
223.0885905834066136
 30
0.0
 11
4437.4059831208669493
 21
223.1085905834065102
 31
0.0
  0
LINE
  5
1D8AE
  8
0
 10
4437.4059831208669493
 20
223.1135905834065909
 30
0.0
 11
4437.4059831208669493
 21
223.1335905834066011
 31
0.0
  0
LINE
  5
1D8AF
  8
0
 10
4437.4059831208669493
 20
223.1385905834065113
 30
0.0
 11
4437.4059831208669493
 21
223.1585905834064931
 31
0.0
  0
LINE
  5
1D8B0
  8
0
 10
4437.4059831208669493
 20
223.1635905834064886
 30
0.0
 11
4437.4059831208669493
 21
223.1835905834066125
 31
0.0
  0
LINE
  5
1D8B1
  8
0
 10
4437.4059831208669493
 20
223.1885905834066079
 30
0.0
 11
4437.4059831208669493
 21
223.2085905834065045
 31
0.0
  0
LINE
  5
1D8B2
  8
0
 10
4437.4059831208669493
 20
223.2135905834064999
 30
0.0
 11
4437.4059831208669493
 21
223.2335905834065102
 31
0.0
  0
LINE
  5
1D8B3
  8
0
 10
4437.4059831208669493
 20
223.2385905834065909
 30
0.0
 11
4437.4059831208669493
 21
223.2585905834064874
 31
0.0
  0
LINE
  5
1D8B4
  8
0
 10
4437.4059831208669493
 20
223.2635905834065113
 30
0.0
 11
4437.4059831208669493
 21
223.2835905834066068
 31
0.0
  0
LINE
  5
1D8B5
  8
0
 10
4437.4059831208669493
 20
223.2885905834064886
 30
0.0
 11
4437.4059831208669493
 21
223.3085905834064988
 31
0.0
  0
LINE
  5
1D8B6
  8
0
 10
4437.4059831208669493
 20
223.3135905834064943
 30
0.0
 11
4437.4059831208669493
 21
223.3335905834065045
 31
0.0
  0
LINE
  5
1D8B7
  8
0
 10
4437.4059831208669493
 20
223.3385905834066136
 30
0.0
 11
4437.4059831208669493
 21
223.3472475324118989
 31
0.0
  0
LINE
  5
1D8B8
  8
0
 10
4437.410983120867968
 20
223.3468598266231027
 30
0.0
 11
4437.410983120867968
 21
223.3385905834066136
 31
0.0
  0
LINE
  5
1D8B9
  8
0
 10
4437.410983120867968
 20
223.3335905834065045
 30
0.0
 11
4437.410983120867968
 21
223.3135905834064943
 31
0.0
  0
LINE
  5
1D8BA
  8
0
 10
4437.410983120867968
 20
223.3085905834064988
 30
0.0
 11
4437.410983120867968
 21
223.2885905834064886
 31
0.0
  0
LINE
  5
1D8BB
  8
0
 10
4437.410983120867968
 20
223.2835905834066068
 30
0.0
 11
4437.410983120867968
 21
223.2635905834065113
 31
0.0
  0
LINE
  5
1D8BC
  8
0
 10
4437.410983120867968
 20
223.2585905834064874
 30
0.0
 11
4437.410983120867968
 21
223.2385905834065909
 31
0.0
  0
LINE
  5
1D8BD
  8
0
 10
4437.410983120867968
 20
223.2335905834065102
 30
0.0
 11
4437.410983120867968
 21
223.2135905834064999
 31
0.0
  0
LINE
  5
1D8BE
  8
0
 10
4437.410983120867968
 20
223.2085905834065045
 30
0.0
 11
4437.410983120867968
 21
223.1885905834066079
 31
0.0
  0
LINE
  5
1D8BF
  8
0
 10
4437.410983120867968
 20
223.1835905834066125
 30
0.0
 11
4437.410983120867968
 21
223.1635905834064886
 31
0.0
  0
LINE
  5
1D8C0
  8
0
 10
4437.410983120867968
 20
223.1585905834064931
 30
0.0
 11
4437.410983120867968
 21
223.1385905834065113
 31
0.0
  0
LINE
  5
1D8C1
  8
0
 10
4437.410983120867968
 20
223.1335905834066011
 30
0.0
 11
4437.410983120867968
 21
223.1135905834065909
 31
0.0
  0
LINE
  5
1D8C2
  8
0
 10
4437.410983120867968
 20
223.1085905834065102
 30
0.0
 11
4437.410983120867968
 21
223.0885905834066136
 31
0.0
  0
LINE
  5
1D8C3
  8
0
 10
4437.410983120867968
 20
223.0835905834065045
 30
0.0
 11
4437.410983120867968
 21
223.0635905834064943
 31
0.0
  0
LINE
  5
1D8C4
  8
0
 10
4437.410983120867968
 20
223.0585905834066125
 30
0.0
 11
4437.410983120867968
 21
223.0385905834066023
 31
0.0
  0
LINE
  5
1D8C5
  8
0
 10
4437.410983120867968
 20
223.0335905834066068
 30
0.0
 11
4437.410983120867968
 21
223.0135905834065113
 31
0.0
  0
LINE
  5
1D8C6
  8
0
 10
4437.410983120867968
 20
223.0085905834064874
 30
0.0
 11
4437.410983120867968
 21
222.9885905834065909
 31
0.0
  0
LINE
  5
1D8C7
  8
0
 10
4437.410983120867968
 20
222.9835905834065102
 30
0.0
 11
4437.410983120867968
 21
222.9635905834066136
 31
0.0
  0
LINE
  5
1D8C8
  8
0
 10
4437.410983120867968
 20
222.9585905834065045
 30
0.0
 11
4437.410983120867968
 21
222.9385905834066079
 31
0.0
  0
LINE
  5
1D8C9
  8
0
 10
4437.410983120867968
 20
222.9335905834066125
 30
0.0
 11
4437.410983120867968
 21
222.9135905834064886
 31
0.0
  0
LINE
  5
1D8CA
  8
0
 10
4437.410983120867968
 20
222.9085905834064931
 30
0.0
 11
4437.410983120867968
 21
222.8958743389900121
 31
0.0
  0
LINE
  5
1D8CB
  8
0
 10
4437.4359831208676042
 20
222.8995068170671914
 30
0.0
 11
4437.4359831208676042
 21
222.9085905834064931
 31
0.0
  0
LINE
  5
1D8CC
  8
0
 10
4437.4359831208676042
 20
222.9135905834064886
 30
0.0
 11
4437.4359831208676042
 21
222.9335905834066125
 31
0.0
  0
LINE
  5
1D8CD
  8
0
 10
4437.4359831208676042
 20
222.9385905834066079
 30
0.0
 11
4437.4359831208676042
 21
222.9585905834065045
 31
0.0
  0
LINE
  5
1D8CE
  8
0
 10
4437.4359831208676042
 20
222.9635905834066136
 30
0.0
 11
4437.4359831208676042
 21
222.9835905834065102
 31
0.0
  0
LINE
  5
1D8CF
  8
0
 10
4437.4359831208676042
 20
222.9885905834065909
 30
0.0
 11
4437.4359831208676042
 21
223.0085905834064874
 31
0.0
  0
LINE
  5
1D8D0
  8
0
 10
4437.4359831208676042
 20
223.0135905834065113
 30
0.0
 11
4437.4359831208676042
 21
223.0335905834066068
 31
0.0
  0
LINE
  5
1D8D1
  8
0
 10
4437.4359831208676042
 20
223.0385905834066023
 30
0.0
 11
4437.4359831208676042
 21
223.0585905834066125
 31
0.0
  0
LINE
  5
1D8D2
  8
0
 10
4437.4359831208676042
 20
223.0635905834064943
 30
0.0
 11
4437.4359831208676042
 21
223.0835905834065045
 31
0.0
  0
LINE
  5
1D8D3
  8
0
 10
4437.4359831208676042
 20
223.0885905834066136
 30
0.0
 11
4437.4359831208676042
 21
223.1085905834065102
 31
0.0
  0
LINE
  5
1D8D4
  8
0
 10
4437.4359831208676042
 20
223.1135905834065909
 30
0.0
 11
4437.4359831208676042
 21
223.1335905834066011
 31
0.0
  0
LINE
  5
1D8D5
  8
0
 10
4437.4359831208676042
 20
223.1385905834065113
 30
0.0
 11
4437.4359831208676042
 21
223.1585905834064931
 31
0.0
  0
LINE
  5
1D8D6
  8
0
 10
4437.4359831208676042
 20
223.1635905834064886
 30
0.0
 11
4437.4359831208676042
 21
223.1835905834066125
 31
0.0
  0
LINE
  5
1D8D7
  8
0
 10
4437.4359831208676042
 20
223.1885905834066079
 30
0.0
 11
4437.4359831208676042
 21
223.2085905834065045
 31
0.0
  0
LINE
  5
1D8D8
  8
0
 10
4437.4359831208676042
 20
223.2135905834064999
 30
0.0
 11
4437.4359831208676042
 21
223.2335905834065102
 31
0.0
  0
LINE
  5
1D8D9
  8
0
 10
4437.4359831208676042
 20
223.2385905834065909
 30
0.0
 11
4437.4359831208676042
 21
223.2585905834064874
 31
0.0
  0
LINE
  5
1D8DA
  8
0
 10
4437.4359831208676042
 20
223.2635905834065113
 30
0.0
 11
4437.4359831208676042
 21
223.2835905834066068
 31
0.0
  0
LINE
  5
1D8DB
  8
0
 10
4437.4359831208676042
 20
223.2885905834064886
 30
0.0
 11
4437.4359831208676042
 21
223.3085905834064988
 31
0.0
  0
LINE
  5
1D8DC
  8
0
 10
4437.4359831208676042
 20
223.3135905834064943
 30
0.0
 11
4437.4359831208676042
 21
223.3335905834065045
 31
0.0
  0
LINE
  5
1D8DD
  8
0
 10
4437.4359831208676042
 20
223.3385905834066136
 30
0.0
 11
4437.4359831208676042
 21
223.343227348545895
 31
0.0
  0
LINE
  5
1D8DE
  8
0
 10
4437.4409831208668038
 20
223.3335905834065045
 30
0.0
 11
4437.4409831208668038
 21
223.3135905834064943
 31
0.0
  0
LINE
  5
1D8DF
  8
0
 10
4437.4409831208668038
 20
223.3421542597754978
 30
0.0
 11
4437.4409831208668038
 21
223.3385905834066136
 31
0.0
  0
LINE
  5
1D8E0
  8
0
 10
4437.4409831208668038
 20
223.3085905834064988
 30
0.0
 11
4437.4409831208668038
 21
223.2885905834064886
 31
0.0
  0
LINE
  5
1D8E1
  8
0
 10
4437.4409831208668038
 20
223.2835905834066068
 30
0.0
 11
4437.4409831208668038
 21
223.2635905834065113
 31
0.0
  0
LINE
  5
1D8E2
  8
0
 10
4437.4409831208668038
 20
223.2585905834064874
 30
0.0
 11
4437.4409831208668038
 21
223.2385905834065909
 31
0.0
  0
LINE
  5
1D8E3
  8
0
 10
4437.4409831208668038
 20
223.2335905834065102
 30
0.0
 11
4437.4409831208668038
 21
223.2135905834064999
 31
0.0
  0
LINE
  5
1D8E4
  8
0
 10
4437.4409831208668038
 20
223.2085905834065045
 30
0.0
 11
4437.4409831208668038
 21
223.1885905834066079
 31
0.0
  0
LINE
  5
1D8E5
  8
0
 10
4437.4409831208668038
 20
223.1835905834066125
 30
0.0
 11
4437.4409831208668038
 21
223.1635905834064886
 31
0.0
  0
LINE
  5
1D8E6
  8
0
 10
4437.4409831208668038
 20
223.1585905834064931
 30
0.0
 11
4437.4409831208668038
 21
223.1385905834065113
 31
0.0
  0
LINE
  5
1D8E7
  8
0
 10
4437.4409831208668038
 20
223.1335905834066011
 30
0.0
 11
4437.4409831208668038
 21
223.1135905834065909
 31
0.0
  0
LINE
  5
1D8E8
  8
0
 10
4437.4409831208668038
 20
223.1085905834065102
 30
0.0
 11
4437.4409831208668038
 21
223.0885905834066136
 31
0.0
  0
LINE
  5
1D8E9
  8
0
 10
4437.4409831208668038
 20
223.0835905834065045
 30
0.0
 11
4437.4409831208668038
 21
223.0635905834064943
 31
0.0
  0
LINE
  5
1D8EA
  8
0
 10
4437.4409831208668038
 20
223.0585905834066125
 30
0.0
 11
4437.4409831208668038
 21
223.0385905834066023
 31
0.0
  0
LINE
  5
1D8EB
  8
0
 10
4437.4409831208668038
 20
223.0335905834066068
 30
0.0
 11
4437.4409831208668038
 21
223.0135905834065113
 31
0.0
  0
LINE
  5
1D8EC
  8
0
 10
4437.4409831208668038
 20
223.0085905834064874
 30
0.0
 11
4437.4409831208668038
 21
222.9885905834065909
 31
0.0
  0
LINE
  5
1D8ED
  8
0
 10
4437.4409831208668038
 20
222.9835905834065102
 30
0.0
 11
4437.4409831208668038
 21
222.9635905834066136
 31
0.0
  0
LINE
  5
1D8EE
  8
0
 10
4437.4409831208668038
 20
222.9585905834065045
 30
0.0
 11
4437.4409831208668038
 21
222.9385905834066079
 31
0.0
  0
LINE
  5
1D8EF
  8
0
 10
4437.4409831208668038
 20
222.9335905834066125
 30
0.0
 11
4437.4409831208668038
 21
222.9135905834064886
 31
0.0
  0
LINE
  5
1D8F0
  8
0
 10
4437.4409831208668038
 20
222.9085905834064931
 30
0.0
 11
4437.4409831208668038
 21
222.9005799058375885
 31
0.0
  0
LINE
  5
1D8F1
  8
0
 10
4437.465983120868259
 20
222.9077740643955963
 30
0.0
 11
4437.465983120868259
 21
222.9085905834064931
 31
0.0
  0
LINE
  5
1D8F2
  8
0
 10
4437.465983120868259
 20
222.9135905834064886
 30
0.0
 11
4437.465983120868259
 21
222.9335905834066125
 31
0.0
  0
LINE
  5
1D8F3
  8
0
 10
4437.465983120868259
 20
222.9385905834066079
 30
0.0
 11
4437.465983120868259
 21
222.9585905834065045
 31
0.0
  0
LINE
  5
1D8F4
  8
0
 10
4437.465983120868259
 20
222.9635905834066136
 30
0.0
 11
4437.465983120868259
 21
222.9835905834065102
 31
0.0
  0
LINE
  5
1D8F5
  8
0
 10
4437.465983120868259
 20
222.9885905834065909
 30
0.0
 11
4437.465983120868259
 21
223.0085905834064874
 31
0.0
  0
LINE
  5
1D8F6
  8
0
 10
4437.465983120868259
 20
223.0135905834065113
 30
0.0
 11
4437.465983120868259
 21
223.0335905834066068
 31
0.0
  0
LINE
  5
1D8F7
  8
0
 10
4437.465983120868259
 20
223.0385905834066023
 30
0.0
 11
4437.465983120868259
 21
223.0585905834066125
 31
0.0
  0
LINE
  5
1D8F8
  8
0
 10
4437.465983120868259
 20
223.0635905834064943
 30
0.0
 11
4437.465983120868259
 21
223.0835905834065045
 31
0.0
  0
LINE
  5
1D8F9
  8
0
 10
4437.465983120868259
 20
223.0885905834066136
 30
0.0
 11
4437.465983120868259
 21
223.1085905834065102
 31
0.0
  0
LINE
  5
1D8FA
  8
0
 10
4437.465983120868259
 20
223.1135905834065909
 30
0.0
 11
4437.465983120868259
 21
223.1335905834066011
 31
0.0
  0
LINE
  5
1D8FB
  8
0
 10
4437.465983120868259
 20
223.1385905834065113
 30
0.0
 11
4437.465983120868259
 21
223.1585905834064931
 31
0.0
  0
LINE
  5
1D8FC
  8
0
 10
4437.465983120868259
 20
223.1635905834064886
 30
0.0
 11
4437.465983120868259
 21
223.1835905834066125
 31
0.0
  0
LINE
  5
1D8FD
  8
0
 10
4437.465983120868259
 20
223.1885905834066079
 30
0.0
 11
4437.465983120868259
 21
223.2085905834065045
 31
0.0
  0
LINE
  5
1D8FE
  8
0
 10
4437.465983120868259
 20
223.2135905834064999
 30
0.0
 11
4437.465983120868259
 21
223.2335905834065102
 31
0.0
  0
LINE
  5
1D8FF
  8
0
 10
4437.465983120868259
 20
223.2385905834065909
 30
0.0
 11
4437.465983120868259
 21
223.2585905834064874
 31
0.0
  0
LINE
  5
1D900
  8
0
 10
4437.465983120868259
 20
223.2635905834065113
 30
0.0
 11
4437.465983120868259
 21
223.2835905834066068
 31
0.0
  0
LINE
  5
1D901
  8
0
 10
4437.465983120868259
 20
223.2885905834064886
 30
0.0
 11
4437.465983120868259
 21
223.3085905834064988
 31
0.0
  0
LINE
  5
1D902
  8
0
 10
4437.465983120868259
 20
223.3135905834064943
 30
0.0
 11
4437.465983120868259
 21
223.3335905834065045
 31
0.0
  0
LINE
  5
1D903
  8
0
 10
4437.4709831208683681
 20
223.333138132560606
 30
0.0
 11
4437.4709831208683681
 21
223.3135905834064943
 31
0.0
  0
LINE
  5
1D904
  8
0
 10
4437.4709831208683681
 20
223.3085905834064988
 30
0.0
 11
4437.4709831208683681
 21
223.2885905834064886
 31
0.0
  0
LINE
  5
1D905
  8
0
 10
4437.4709831208683681
 20
223.2835905834066068
 30
0.0
 11
4437.4709831208683681
 21
223.2635905834065113
 31
0.0
  0
LINE
  5
1D906
  8
0
 10
4437.4709831208683681
 20
223.2585905834064874
 30
0.0
 11
4437.4709831208683681
 21
223.2385905834065909
 31
0.0
  0
LINE
  5
1D907
  8
0
 10
4437.4709831208683681
 20
223.2335905834065102
 30
0.0
 11
4437.4709831208683681
 21
223.2135905834064999
 31
0.0
  0
LINE
  5
1D908
  8
0
 10
4437.4709831208683681
 20
223.2085905834065045
 30
0.0
 11
4437.4709831208683681
 21
223.1885905834066079
 31
0.0
  0
LINE
  5
1D909
  8
0
 10
4437.4709831208683681
 20
223.1835905834066125
 30
0.0
 11
4437.4709831208683681
 21
223.1635905834064886
 31
0.0
  0
LINE
  5
1D90A
  8
0
 10
4437.4709831208683681
 20
223.1585905834064931
 30
0.0
 11
4437.4709831208683681
 21
223.1385905834065113
 31
0.0
  0
LINE
  5
1D90B
  8
0
 10
4437.4709831208683681
 20
223.1335905834066011
 30
0.0
 11
4437.4709831208683681
 21
223.1135905834065909
 31
0.0
  0
LINE
  5
1D90C
  8
0
 10
4437.4709831208683681
 20
223.1085905834065102
 30
0.0
 11
4437.4709831208683681
 21
223.0885905834066136
 31
0.0
  0
LINE
  5
1D90D
  8
0
 10
4437.4709831208683681
 20
223.0835905834065045
 30
0.0
 11
4437.4709831208683681
 21
223.0635905834064943
 31
0.0
  0
LINE
  5
1D90E
  8
0
 10
4437.4709831208683681
 20
223.0585905834066125
 30
0.0
 11
4437.4709831208683681
 21
223.0385905834066023
 31
0.0
  0
LINE
  5
1D90F
  8
0
 10
4437.4709831208683681
 20
223.0335905834066068
 30
0.0
 11
4437.4709831208683681
 21
223.0135905834065113
 31
0.0
  0
LINE
  5
1D910
  8
0
 10
4437.4709831208683681
 20
223.0085905834064874
 30
0.0
 11
4437.4709831208683681
 21
222.9885905834065909
 31
0.0
  0
LINE
  5
1D911
  8
0
 10
4437.4709831208683681
 20
222.9835905834065102
 30
0.0
 11
4437.4709831208683681
 21
222.9635905834066136
 31
0.0
  0
LINE
  5
1D912
  8
0
 10
4437.4709831208683681
 20
222.9585905834065045
 30
0.0
 11
4437.4709831208683681
 21
222.9385905834066079
 31
0.0
  0
LINE
  5
1D913
  8
0
 10
4437.4709831208683681
 20
222.9335905834066125
 30
0.0
 11
4437.4709831208683681
 21
222.9135905834064886
 31
0.0
  0
LINE
  5
1D914
  8
0
 10
4437.4959831208670948
 20
222.920812906799398
 30
0.0
 11
4437.4959831208670948
 21
222.9335905834066125
 31
0.0
  0
LINE
  5
1D915
  8
0
 10
4437.4959831208670948
 20
222.9385905834066079
 30
0.0
 11
4437.4959831208670948
 21
222.9585905834065045
 31
0.0
  0
LINE
  5
1D916
  8
0
 10
4437.4959831208670948
 20
222.9635905834066136
 30
0.0
 11
4437.4959831208670948
 21
222.9835905834065102
 31
0.0
  0
LINE
  5
1D917
  8
0
 10
4437.4959831208670948
 20
222.9885905834065909
 30
0.0
 11
4437.4959831208670948
 21
223.0085905834064874
 31
0.0
  0
LINE
  5
1D918
  8
0
 10
4437.4959831208670948
 20
223.0135905834065113
 30
0.0
 11
4437.4959831208670948
 21
223.0335905834066068
 31
0.0
  0
LINE
  5
1D919
  8
0
 10
4437.4959831208670948
 20
223.0385905834066023
 30
0.0
 11
4437.4959831208670948
 21
223.0585905834066125
 31
0.0
  0
LINE
  5
1D91A
  8
0
 10
4437.4959831208670948
 20
223.0635905834064943
 30
0.0
 11
4437.4959831208670948
 21
223.0835905834065045
 31
0.0
  0
LINE
  5
1D91B
  8
0
 10
4437.4959831208670948
 20
223.0885905834066136
 30
0.0
 11
4437.4959831208670948
 21
223.1085905834065102
 31
0.0
  0
LINE
  5
1D91C
  8
0
 10
4437.4959831208670948
 20
223.1135905834065909
 30
0.0
 11
4437.4959831208670948
 21
223.1335905834066011
 31
0.0
  0
LINE
  5
1D91D
  8
0
 10
4437.4959831208670948
 20
223.1385905834065113
 30
0.0
 11
4437.4959831208670948
 21
223.1585905834064931
 31
0.0
  0
LINE
  5
1D91E
  8
0
 10
4437.4959831208670948
 20
223.1635905834064886
 30
0.0
 11
4437.4959831208670948
 21
223.1835905834066125
 31
0.0
  0
LINE
  5
1D91F
  8
0
 10
4437.4959831208670948
 20
223.1885905834066079
 30
0.0
 11
4437.4959831208670948
 21
223.2085905834065045
 31
0.0
  0
LINE
  5
1D920
  8
0
 10
4437.4959831208670948
 20
223.2135905834064999
 30
0.0
 11
4437.4959831208670948
 21
223.2335905834065102
 31
0.0
  0
LINE
  5
1D921
  8
0
 10
4437.4959831208670948
 20
223.2385905834065909
 30
0.0
 11
4437.4959831208670948
 21
223.2585905834064874
 31
0.0
  0
LINE
  5
1D922
  8
0
 10
4437.4959831208670948
 20
223.2635905834065113
 30
0.0
 11
4437.4959831208670948
 21
223.2835905834066068
 31
0.0
  0
LINE
  5
1D923
  8
0
 10
4437.4959831208670948
 20
223.2885905834064886
 30
0.0
 11
4437.4959831208670948
 21
223.3085905834064988
 31
0.0
  0
LINE
  5
1D924
  8
0
 10
4437.4959831208670948
 20
223.3135905834064943
 30
0.0
 11
4437.4959831208670948
 21
223.3219212588136884
 31
0.0
  0
LINE
  5
1D925
  8
0
 10
4437.5009831208681135
 20
223.3192230342305891
 30
0.0
 11
4437.5009831208681135
 21
223.3135905834064943
 31
0.0
  0
LINE
  5
1D926
  8
0
 10
4437.5009831208681135
 20
223.3085905834064988
 30
0.0
 11
4437.5009831208681135
 21
223.2885905834064886
 31
0.0
  0
LINE
  5
1D927
  8
0
 10
4437.5009831208681135
 20
223.2835905834066068
 30
0.0
 11
4437.5009831208681135
 21
223.2635905834065113
 31
0.0
  0
LINE
  5
1D928
  8
0
 10
4437.5009831208681135
 20
223.2585905834064874
 30
0.0
 11
4437.5009831208681135
 21
223.2385905834065909
 31
0.0
  0
LINE
  5
1D929
  8
0
 10
4437.5009831208681135
 20
223.2335905834065102
 30
0.0
 11
4437.5009831208681135
 21
223.2135905834064999
 31
0.0
  0
LINE
  5
1D92A
  8
0
 10
4437.5009831208681135
 20
223.2085905834065045
 30
0.0
 11
4437.5009831208681135
 21
223.1885905834066079
 31
0.0
  0
LINE
  5
1D92B
  8
0
 10
4437.5009831208681135
 20
223.1835905834066125
 30
0.0
 11
4437.5009831208681135
 21
223.1635905834064886
 31
0.0
  0
LINE
  5
1D92C
  8
0
 10
4437.5009831208681135
 20
223.1585905834064931
 30
0.0
 11
4437.5009831208681135
 21
223.1385905834065113
 31
0.0
  0
LINE
  5
1D92D
  8
0
 10
4437.5009831208681135
 20
223.1335905834066011
 30
0.0
 11
4437.5009831208681135
 21
223.1135905834065909
 31
0.0
  0
LINE
  5
1D92E
  8
0
 10
4437.5009831208681135
 20
223.1085905834065102
 30
0.0
 11
4437.5009831208681135
 21
223.0885905834066136
 31
0.0
  0
LINE
  5
1D92F
  8
0
 10
4437.5009831208681135
 20
223.0835905834065045
 30
0.0
 11
4437.5009831208681135
 21
223.0635905834064943
 31
0.0
  0
LINE
  5
1D930
  8
0
 10
4437.5009831208681135
 20
223.0585905834066125
 30
0.0
 11
4437.5009831208681135
 21
223.0385905834066023
 31
0.0
  0
LINE
  5
1D931
  8
0
 10
4437.5009831208681135
 20
223.0335905834066068
 30
0.0
 11
4437.5009831208681135
 21
223.0135905834065113
 31
0.0
  0
LINE
  5
1D932
  8
0
 10
4437.5009831208681135
 20
223.0085905834064874
 30
0.0
 11
4437.5009831208681135
 21
222.9885905834065909
 31
0.0
  0
LINE
  5
1D933
  8
0
 10
4437.5009831208681135
 20
222.9835905834065102
 30
0.0
 11
4437.5009831208681135
 21
222.9635905834066136
 31
0.0
  0
LINE
  5
1D934
  8
0
 10
4437.5009831208681135
 20
222.9585905834065045
 30
0.0
 11
4437.5009831208681135
 21
222.9385905834066079
 31
0.0
  0
LINE
  5
1D935
  8
0
 10
4437.5009831208681135
 20
222.9335905834066125
 30
0.0
 11
4437.5009831208681135
 21
222.9235111313824973
 31
0.0
  0
LINE
  5
1D936
  8
0
 10
4437.5259831208677497
 20
222.9396475805127125
 30
0.0
 11
4437.5259831208677497
 21
222.9585905834065045
 31
0.0
  0
LINE
  5
1D937
  8
0
 10
4437.5259831208677497
 20
222.9635905834066136
 30
0.0
 11
4437.5259831208677497
 21
222.9835905834065102
 31
0.0
  0
LINE
  5
1D938
  8
0
 10
4437.5259831208677497
 20
222.9885905834065909
 30
0.0
 11
4437.5259831208677497
 21
223.0085905834064874
 31
0.0
  0
LINE
  5
1D939
  8
0
 10
4437.5259831208677497
 20
223.0135905834065113
 30
0.0
 11
4437.5259831208677497
 21
223.0335905834066068
 31
0.0
  0
LINE
  5
1D93A
  8
0
 10
4437.5259831208677497
 20
223.0385905834066023
 30
0.0
 11
4437.5259831208677497
 21
223.0585905834066125
 31
0.0
  0
LINE
  5
1D93B
  8
0
 10
4437.5259831208677497
 20
223.0635905834064943
 30
0.0
 11
4437.5259831208677497
 21
223.0835905834065045
 31
0.0
  0
LINE
  5
1D93C
  8
0
 10
4437.5259831208677497
 20
223.0885905834066136
 30
0.0
 11
4437.5259831208677497
 21
223.1085905834065102
 31
0.0
  0
LINE
  5
1D93D
  8
0
 10
4437.5259831208677497
 20
223.1135905834065909
 30
0.0
 11
4437.5259831208677497
 21
223.1335905834066011
 31
0.0
  0
LINE
  5
1D93E
  8
0
 10
4437.5259831208677497
 20
223.1385905834065113
 30
0.0
 11
4437.5259831208677497
 21
223.1585905834064931
 31
0.0
  0
LINE
  5
1D93F
  8
0
 10
4437.5259831208677497
 20
223.1635905834064886
 30
0.0
 11
4437.5259831208677497
 21
223.1835905834066125
 31
0.0
  0
LINE
  5
1D940
  8
0
 10
4437.5259831208677497
 20
223.1885905834066079
 30
0.0
 11
4437.5259831208677497
 21
223.2085905834065045
 31
0.0
  0
LINE
  5
1D941
  8
0
 10
4437.5259831208677497
 20
223.2135905834064999
 30
0.0
 11
4437.5259831208677497
 21
223.2335905834065102
 31
0.0
  0
LINE
  5
1D942
  8
0
 10
4437.5259831208677497
 20
223.2385905834065909
 30
0.0
 11
4437.5259831208677497
 21
223.2585905834064874
 31
0.0
  0
LINE
  5
1D943
  8
0
 10
4437.5259831208677497
 20
223.2635905834065113
 30
0.0
 11
4437.5259831208677497
 21
223.2835905834066068
 31
0.0
  0
LINE
  5
1D944
  8
0
 10
4437.5259831208677497
 20
223.2885905834064886
 30
0.0
 11
4437.5259831208677497
 21
223.3030865851004023
 31
0.0
  0
LINE
  5
1D945
  8
0
 10
4437.5309831208678588
 20
223.2992630566618004
 30
0.0
 11
4437.5309831208678588
 21
223.2885905834064886
 31
0.0
  0
LINE
  5
1D946
  8
0
 10
4437.5309831208678588
 20
223.2835905834066068
 30
0.0
 11
4437.5309831208678588
 21
223.2635905834065113
 31
0.0
  0
LINE
  5
1D947
  8
0
 10
4437.5309831208678588
 20
223.2585905834064874
 30
0.0
 11
4437.5309831208678588
 21
223.2385905834065909
 31
0.0
  0
LINE
  5
1D948
  8
0
 10
4437.5309831208678588
 20
223.2335905834065102
 30
0.0
 11
4437.5309831208678588
 21
223.2135905834064999
 31
0.0
  0
LINE
  5
1D949
  8
0
 10
4437.5309831208678588
 20
223.2085905834065045
 30
0.0
 11
4437.5309831208678588
 21
223.1885905834066079
 31
0.0
  0
LINE
  5
1D94A
  8
0
 10
4437.5309831208678588
 20
223.1835905834066125
 30
0.0
 11
4437.5309831208678588
 21
223.1635905834064886
 31
0.0
  0
LINE
  5
1D94B
  8
0
 10
4437.5309831208678588
 20
223.1585905834064931
 30
0.0
 11
4437.5309831208678588
 21
223.1385905834065113
 31
0.0
  0
LINE
  5
1D94C
  8
0
 10
4437.5309831208678588
 20
223.1335905834066011
 30
0.0
 11
4437.5309831208678588
 21
223.1135905834065909
 31
0.0
  0
LINE
  5
1D94D
  8
0
 10
4437.5309831208678588
 20
223.1085905834065102
 30
0.0
 11
4437.5309831208678588
 21
223.0885905834066136
 31
0.0
  0
LINE
  5
1D94E
  8
0
 10
4437.5309831208678588
 20
223.0835905834065045
 30
0.0
 11
4437.5309831208678588
 21
223.0635905834064943
 31
0.0
  0
LINE
  5
1D94F
  8
0
 10
4437.5309831208678588
 20
223.0585905834066125
 30
0.0
 11
4437.5309831208678588
 21
223.0385905834066023
 31
0.0
  0
LINE
  5
1D950
  8
0
 10
4437.5309831208678588
 20
223.0335905834066068
 30
0.0
 11
4437.5309831208678588
 21
223.0135905834065113
 31
0.0
  0
LINE
  5
1D951
  8
0
 10
4437.5309831208678588
 20
223.0085905834064874
 30
0.0
 11
4437.5309831208678588
 21
222.9885905834065909
 31
0.0
  0
LINE
  5
1D952
  8
0
 10
4437.5309831208678588
 20
222.9835905834065102
 30
0.0
 11
4437.5309831208678588
 21
222.9635905834066136
 31
0.0
  0
LINE
  5
1D953
  8
0
 10
4437.5309831208678588
 20
222.9585905834065045
 30
0.0
 11
4437.5309830839669303
 21
222.9434710799118022
 31
0.0
  0
LINE
  5
1D954
  8
0
 10
4437.5559831208684045
 20
222.9663768330682956
 30
0.0
 11
4437.5559831208684045
 21
222.9835905834065102
 31
0.0
  0
LINE
  5
1D955
  8
0
 10
4437.5559831208684045
 20
222.9885905834065909
 30
0.0
 11
4437.5559831208684045
 21
223.0085905834064874
 31
0.0
  0
LINE
  5
1D956
  8
0
 10
4437.5559831208684045
 20
223.0135905834065113
 30
0.0
 11
4437.5559831208684045
 21
223.0335905834066068
 31
0.0
  0
LINE
  5
1D957
  8
0
 10
4437.5559831208684045
 20
223.0385905834066023
 30
0.0
 11
4437.5559831208684045
 21
223.0585905834066125
 31
0.0
  0
LINE
  5
1D958
  8
0
 10
4437.5559831208684045
 20
223.0635905834064943
 30
0.0
 11
4437.5559831208684045
 21
223.0835905834065045
 31
0.0
  0
LINE
  5
1D959
  8
0
 10
4437.5559831208684045
 20
223.0885905834066136
 30
0.0
 11
4437.5559831208684045
 21
223.1085905834065102
 31
0.0
  0
LINE
  5
1D95A
  8
0
 10
4437.5559831208684045
 20
223.1135905834065909
 30
0.0
 11
4437.5559831208684045
 21
223.1335905834066011
 31
0.0
  0
LINE
  5
1D95B
  8
0
 10
4437.5559831208684045
 20
223.1385905834065113
 30
0.0
 11
4437.5559831208684045
 21
223.1585905834064931
 31
0.0
  0
LINE
  5
1D95C
  8
0
 10
4437.5559831208684045
 20
223.1635905834064886
 30
0.0
 11
4437.5559831208684045
 21
223.1835905834066125
 31
0.0
  0
LINE
  5
1D95D
  8
0
 10
4437.5559831208684045
 20
223.1885905834066079
 30
0.0
 11
4437.5559831208684045
 21
223.2085905834065045
 31
0.0
  0
LINE
  5
1D95E
  8
0
 10
4437.5559831208684045
 20
223.2135905834064999
 30
0.0
 11
4437.5559831208684045
 21
223.2335905834065102
 31
0.0
  0
LINE
  5
1D95F
  8
0
 10
4437.5559831208684045
 20
223.2385905834065909
 30
0.0
 11
4437.5559831208684045
 21
223.2585905834064874
 31
0.0
  0
LINE
  5
1D960
  8
0
 10
4437.5559831208684045
 20
223.2635905834065113
 30
0.0
 11
4437.5559831208684045
 21
223.2763573325447908
 31
0.0
  0
LINE
  5
1D961
  8
0
 10
4437.5609831208676042
 20
223.2708561376364003
 30
0.0
 11
4437.5609831208676042
 21
223.2635905834065113
 31
0.0
  0
LINE
  5
1D962
  8
0
 10
4437.5609831208676042
 20
223.2585905834064874
 30
0.0
 11
4437.5609831208676042
 21
223.2385905834065909
 31
0.0
  0
LINE
  5
1D963
  8
0
 10
4437.5609831208676042
 20
223.2335905834065102
 30
0.0
 11
4437.5609831208676042
 21
223.2135905834064999
 31
0.0
  0
LINE
  5
1D964
  8
0
 10
4437.5609831208676042
 20
223.2085905834065045
 30
0.0
 11
4437.5609831208676042
 21
223.1885905834066079
 31
0.0
  0
LINE
  5
1D965
  8
0
 10
4437.5609831208676042
 20
223.1835905834066125
 30
0.0
 11
4437.5609831208676042
 21
223.1635905834064886
 31
0.0
  0
LINE
  5
1D966
  8
0
 10
4437.5609831208676042
 20
223.1585905834064931
 30
0.0
 11
4437.5609831208676042
 21
223.1385905834065113
 31
0.0
  0
LINE
  5
1D967
  8
0
 10
4437.5609831208676042
 20
223.1335905834066011
 30
0.0
 11
4437.5609831208676042
 21
223.1135905834065909
 31
0.0
  0
LINE
  5
1D968
  8
0
 10
4437.5609831208676042
 20
223.1085905834065102
 30
0.0
 11
4437.5609831208676042
 21
223.0885905834066136
 31
0.0
  0
LINE
  5
1D969
  8
0
 10
4437.5609831208676042
 20
223.0835905834065045
 30
0.0
 11
4437.5609831208676042
 21
223.0635905834064943
 31
0.0
  0
LINE
  5
1D96A
  8
0
 10
4437.5609831208676042
 20
223.0585905834066125
 30
0.0
 11
4437.5609831208676042
 21
223.0385905834066023
 31
0.0
  0
LINE
  5
1D96B
  8
0
 10
4437.5609831208676042
 20
223.0335905834066068
 30
0.0
 11
4437.5609831208676042
 21
223.0135905834065113
 31
0.0
  0
LINE
  5
1D96C
  8
0
 10
4437.5609831208676042
 20
223.0085905834064874
 30
0.0
 11
4437.5609831208676042
 21
222.9885905834065909
 31
0.0
  0
LINE
  5
1D96D
  8
0
 10
4437.5609831208676042
 20
222.9835905834065102
 30
0.0
 11
4437.5609831208676042
 21
222.9718780279766861
 31
0.0
  0
LINE
  5
1D96E
  8
0
 10
4437.5859831208672404
 20
223.0063802248012905
 30
0.0
 11
4437.5859831208672404
 21
223.0085905834064874
 31
0.0
  0
LINE
  5
1D96F
  8
0
 10
4437.5859831208672404
 20
223.0135905834065113
 30
0.0
 11
4437.5859831208672404
 21
223.0335905834066068
 31
0.0
  0
LINE
  5
1D970
  8
0
 10
4437.5859831208672404
 20
223.0385905834066023
 30
0.0
 11
4437.5859831208672404
 21
223.0585905834066125
 31
0.0
  0
LINE
  5
1D971
  8
0
 10
4437.5859831208672404
 20
223.0635905834064943
 30
0.0
 11
4437.5859831208672404
 21
223.0835905834065045
 31
0.0
  0
LINE
  5
1D972
  8
0
 10
4437.5859831208672404
 20
223.0885905834066136
 30
0.0
 11
4437.5859831208672404
 21
223.1085905834065102
 31
0.0
  0
LINE
  5
1D973
  8
0
 10
4437.5859831208672404
 20
223.1135905834065909
 30
0.0
 11
4437.5859831208672404
 21
223.1335905834066011
 31
0.0
  0
LINE
  5
1D974
  8
0
 10
4437.5859831208672404
 20
223.1385905834065113
 30
0.0
 11
4437.5859831208672404
 21
223.1585905834064931
 31
0.0
  0
LINE
  5
1D975
  8
0
 10
4437.5859831208672404
 20
223.1635905834064886
 30
0.0
 11
4437.5859831208672404
 21
223.1835905834066125
 31
0.0
  0
LINE
  5
1D976
  8
0
 10
4437.5859831208672404
 20
223.1885905834066079
 30
0.0
 11
4437.5859831208672404
 21
223.2085905834065045
 31
0.0
  0
LINE
  5
1D977
  8
0
 10
4437.5859831208672404
 20
223.2135905834064999
 30
0.0
 11
4437.5859831208672404
 21
223.2335905834065102
 31
0.0
  0
LINE
  5
1D978
  8
0
 10
4437.590983120868259
 20
223.2274188508914108
 30
0.0
 11
4437.590983120868259
 21
223.2135905834064999
 31
0.0
  0
LINE
  5
1D979
  8
0
 10
4437.590983120868259
 20
223.2085905834065045
 30
0.0
 11
4437.590983120868259
 21
223.1885905834066079
 31
0.0
  0
LINE
  5
1D97A
  8
0
 10
4437.590983120868259
 20
223.1835905834066125
 30
0.0
 11
4437.590983120868259
 21
223.1635905834064886
 31
0.0
  0
LINE
  5
1D97B
  8
0
 10
4437.590983120868259
 20
223.1585905834064931
 30
0.0
 11
4437.590983120868259
 21
223.1385905834065113
 31
0.0
  0
LINE
  5
1D97C
  8
0
 10
4437.590983120868259
 20
223.1335905834066011
 30
0.0
 11
4437.590983120868259
 21
223.1135905834065909
 31
0.0
  0
LINE
  5
1D97D
  8
0
 10
4437.590983120868259
 20
223.1085905834065102
 30
0.0
 11
4437.590983120868259
 21
223.0885905834066136
 31
0.0
  0
LINE
  5
1D97E
  8
0
 10
4437.590983120868259
 20
223.0835905834065045
 30
0.0
 11
4437.590983120868259
 21
223.0635905834064943
 31
0.0
  0
LINE
  5
1D97F
  8
0
 10
4437.590983120868259
 20
223.0585905834066125
 30
0.0
 11
4437.590983120868259
 21
223.0385905834066023
 31
0.0
  0
LINE
  5
1D980
  8
0
 10
4437.590983120868259
 20
223.0335905834066068
 30
0.0
 11
4437.590983120868259
 21
223.015315314721704
 31
0.0
  0
LINE
  5
1D981
  8
0
 10
4437.6159831208678952
 20
223.0964276057887901
 30
0.0
 11
4437.6159831208678952
 21
223.1085905834065102
 31
0.0
  0
LINE
  5
1D982
  8
0
 10
4437.6159831208678952
 20
223.1135905834065909
 30
0.0
 11
4437.6159831208678952
 21
223.1335905834066011
 31
0.0
  0
LINE
  5
1D983
  8
0
 10
4437.6159831208678952
 20
223.1385905834065113
 30
0.0
 11
4437.6159831208678952
 21
223.1463065598242963
 31
0.0
  0
CIRCLE
  5
1D984
  8
0
 10
4431.4854713097693093
 20
223.1213670828065005
 30
0.0
 40
0.4524209894000001
  0
CIRCLE
  5
1D985
  8
0
 10
4431.4854713097693093
 20
223.1213670828065005
 30
0.0
 40
0.4192913386
  0
ARC
  5
1D986
  8
0
 10
4431.4917980788914065
 20
223.1213204313100107
 30
0.0
 40
0.3763789112634824
 50
247.197971053566306
 51
269.0421215113826179
  0
ARC
  5
1D987
  8
0
 10
4431.4854713097693093
 20
223.1213670828065005
 30
0.0
 40
0.374015748
 50
248.1677457786067009
 51
248.0942364416227974
  0
CIRCLE
  5
1D988
  8
0
 10
4431.4854713097693093
 20
223.1213670828065005
 30
0.0
 40
0.3641732283
  0
CIRCLE
  5
1D989
  8
0
 10
4431.4854713097693093
 20
223.1213670828065005
 30
0.0
 40
0.2263779528
  0
CIRCLE
  5
1D98A
  8
0
 10
4437.3909831208684409
 20
223.1213670828065005
 30
0.0
 40
0.4524209894000001
  0
CIRCLE
  5
1D98B
  8
0
 10
4437.3909831208684409
 20
223.1213670828065005
 30
0.0
 40
0.4192913386
  0
ARC
  5
1D98C
  8
0
 10
4437.384656639917921
 20
223.1214150965344061
 30
0.0
 40
0.3763775438101703
 50
67.1979311271730637
 51
89.0421619161447779
  0
ARC
  5
1D98D
  8
0
 10
4437.3909831208684409
 20
223.1213670828065005
 30
0.0
 40
0.374015748
 50
68.1677500176429731
 51
68.0942364416227832
  0
CIRCLE
  5
1D98E
  8
0
 10
4437.3909831208684409
 20
223.1213670828065005
 30
0.0
 40
0.3641732283
  0
CIRCLE
  5
1D98F
  8
0
 10
4437.3909831208684409
 20
223.1213670828065005
 30
0.0
 40
0.2263779528
  0
ARC
  5
1D990
  8
0
 10
4431.4916165621261825
 20
223.122920314905997
 30
0.0
 40
0.3779755941657888
 50
269.0736873444776052
 51
276.3327043559864933
  0
ARC
  5
1D991
  8
0
 10
4431.4919382977623172
 20
223.1210610974592896
 30
0.0
 40
0.3760922508913625
 50
276.3152307308138802
 51
288.9785079082893731
  0
ARC
  5
1D992
  8
0
 10
4431.4887565920780617
 20
223.128847882745589
 30
0.0
 40
0.3844907800857587
 50
289.0494972052183016
 51
303.4676061561975189
  0
ARC
  5
1D993
  8
0
 10
4431.4877462403746904
 20
223.1278951576636871
 30
0.0
 40
0.3842556289636892
 50
303.6716210179150153
 51
325.7761856249513244
  0
ARC
  5
1D994
  8
0
 10
4431.4898898843166535
 20
223.1261592131457974
 30
0.0
 40
0.3815068905856105
 50
325.8106851534686825
 51
346.6208953330498161
  0
ARC
  5
1D995
  8
0
 10
4431.4867799058320088
 20
223.127599713233792
 30
0.0
 40
0.384866390970039
 50
346.5193977504965801
 51
0.1960118851453222
  0
ARC
  5
1D996
  8
0
 10
4431.6713307359677856
 20
223.1265335970423109
 30
0.0
 40
0.2003274798592522
 50
0.6815111801182887
 51
14.8065665792461196
  0
ARC
  5
1D997
  8
0
 10
4431.4968959042416827
 20
223.0906889908742983
 30
0.0
 40
0.3782605660654401
 50
13.3032474978941604
 51
30.3418788257686884
  0
ARC
  5
1D998
  8
0
 10
4437.3848391090878067
 20
223.1197733722760006
 30
0.0
 40
0.3780160466609947
 50
89.0739745495786224
 51
103.3666850260719059
  0
ARC
  5
1D999
  8
0
 10
4437.3859728942643414
 20
223.1174094358634932
 30
0.0
 40
0.3805784631044368
 50
103.4504764223894
 51
120.2815442390777037
  0
ARC
  5
1D99A
  8
0
 10
4437.3895086769898626
 20
223.1137535800694991
 30
0.0
 40
0.3855203218439851
 50
120.4613576183727019
 51
150.0984259759356121
  0
ARC
  5
1D99B
  8
0
 10
4437.3913673788329106
 20
223.1148762897196889
 30
0.0
 40
0.3865765836859511
 50
150.3800089510546059
 51
168.0000958624802081
  0
ARC
  5
1D99C
  8
0
 10
4437.3904638355770658
 20
223.1150313995387933
 30
0.0
 40
0.3856605375040818
 50
167.9947273988786094
 51
182.6374738663328117
  0
ARC
  5
1D99D
  8
0
 10
4437.3815513365398147
 20
223.1529401538153081
 30
0.0
 40
0.3804325827888564
 50
188.4122859260731104
 51
210.3065752303855902
  0
CIRCLE
  5
1D99E
  8
0
 10
4437.3909831208684409
 20
223.1213670828065005
 30
0.0
 40
0.1188098219999998
  0
CIRCLE
  5
1D99F
  8
0
 10
4437.3909831208684409
 20
223.121409718565701
 30
0.0
 40
0.1515748090964062
  0
CIRCLE
  5
1D9A0
  8
0
 10
4431.4854713097693093
 20
223.1213670828065005
 30
0.0
 40
0.1515748030999999
  0
CIRCLE
  5
1D9A1
  8
0
 10
4431.4854713097693093
 20
223.1213670828065005
 30
0.0
 40
0.1188098219999998
  0
ENDSEC
  0
EOF
