  0
SECTION
  2
HEADER
  9
$ACADVER
  1
AC1009
  9
$INSBASE
 10
96.1511327529542825
 20
-28.3846702792052312
 30
0.0
  9
$EXTMIN
 10
88.6185237594542627
 20
-30.2636608466318293
 30
-0.0000000349181948
  9
$EXTMAX
 10
96.1681122354260083
 20
-27.0124399560481798
 30
0.0000000814935746
  9
$LIMMIN
 10
0.0
 20
0.0
  9
$LIMMAX
 10
11.6929133858000007
 20
8.2677165353999982
  9
$ORTHOMODE
 70
     0
  9
$REGENMODE
 70
     1
  9
$FILLMODE
 70
     1
  9
$QTEXTMODE
 70
     0
  9
$MIRRTEXT
 70
     0
  9
$DRAGMODE
 70
     2
  9
$LTSCALE
 40
0.6431102362
  9
$OSMODE
 70
  2039
  9
$ATTMODE
 70
     1
  9
$TEXTSIZE
 40
0.2
  9
$TRACEWID
 40
0.05
  9
$TEXTSTYLE
  7
STANDARD
  9
$CLAYER
  8
0
  9
$CELTYPE
  6
BYLAYER
  9
$CECOLOR
 62
   256
  9
$DIMSCALE
 40
1.0
  9
$DIMASZ
 40
0.1875
  9
$DIMEXO
 40
0.0625
  9
$DIMDLI
 40
0.4443307087
  9
$DIMRND
 40
0.0
  9
$DIMDLE
 40
0.0
  9
$DIMEXE
 40
0.125
  9
$DIMTP
 40
0.01
  9
$DIMTM
 40
0.01
  9
$DIMTXT
 40
1.0
  9
$DIMCEN
 40
0.1052362205
  9
$DIMTSZ
 40
0.0
  9
$DIMTOL
 70
     1
  9
$DIMLIM
 70
     0
  9
$DIMTIH
 70
     1
  9
$DIMTOH
 70
     1
  9
$DIMSE1
 70
     0
  9
$DIMSE2
 70
     0
  9
$DIMTAD
 70
     0
  9
$DIMZIN
 70
     0
  9
$DIMBLK
  1

  9
$DIMASO
 70
     1
  9
$DIMSHO
 70
     1
  9
$DIMPOST
  1
\X
  9
$DIMAPOST
  1

  9
$DIMALT
 70
     1
  9
$DIMALTD
 70
     2
  9
$DIMALTF
 40
25.3999999999999986
  9
$DIMLFAC
 40
1.0
  9
$DIMTOFL
 70
     0
  9
$DIMTVP
 40
0.0
  9
$DIMTIX
 70
     0
  9
$DIMSOXD
 70
     0
  9
$DIMSAH
 70
     0
  9
$DIMBLK1
  1

  9
$DIMBLK2
  1

  9
$DIMSTYLE
  2
STANDARD
  9
$DIMCLRD
 70
     0
  9
$DIMCLRE
 70
     0
  9
$DIMCLRT
 70
     0
  9
$DIMTFAC
 40
1.0
  9
$DIMGAP
 40
0.09
  9
$LUNITS
 70
     2
  9
$LUPREC
 70
     4
  9
$SKETCHINC
 40
0.1
  9
$FILLETRAD
 40
0.0
  9
$AUNITS
 70
     0
  9
$AUPREC
 70
     0
  9
$MENU
  1
.
  9
$ELEVATION
 40
0.0
  9
$PELEVATION
 40
0.0
  9
$THICKNESS
 40
0.0
  9
$LIMCHECK
 70
     0
  9
$BLIPMODE
 70
     0
  9
$CHAMFERA
 40
0.0
  9
$CHAMFERB
 40
0.0
  9
$SKPOLY
 70
     0
  9
$TDCREATE
 40
2458172.4620254631154239
  9
$TDUPDATE
 40
2459250.5987962959334254
  9
$TDINDWG
 40
0.1049017708
  9
$TDUSRTIMER
 40
0.1049017708
  9
$USRTIMER
 70
     1
  9
$ANGBASE
 50
0.0
  9
$ANGDIR
 70
     0
  9
$PDMODE
 70
     0
  9
$PDSIZE
 40
0.3125
  9
$PLINEWID
 40
0.0
  9
$COORDS
 70
     1
  9
$SPLFRAME
 70
     0
  9
$SPLINETYPE
 70
     6
  9
$SPLINESEGS
 70
     8
  9
$ATTDIA
 70
     1
  9
$ATTREQ
 70
     1
  9
$HANDLING
 70
     1
  9
$HANDSEED
  5
E7B3
  9
$SURFTAB1
 70
     6
  9
$SURFTAB2
 70
     6
  9
$SURFTYPE
 70
     6
  9
$SURFU
 70
     6
  9
$SURFV
 70
     6
  9
$UCSNAME
  2

  9
$UCSORG
 10
0.0
 20
0.0
 30
0.0
  9
$UCSXDIR
 10
1.0
 20
0.0
 30
0.0
  9
$UCSYDIR
 10
0.0
 20
1.0
 30
0.0
  9
$PUCSNAME
  2

  9
$PUCSORG
 10
0.0
 20
0.0
 30
0.0
  9
$PUCSXDIR
 10
1.0
 20
0.0
 30
0.0
  9
$PUCSYDIR
 10
0.0
 20
1.0
 30
0.0
  9
$USERI1
 70
     0
  9
$USERI2
 70
     0
  9
$USERI3
 70
     0
  9
$USERI4
 70
     0
  9
$USERI5
 70
     0
  9
$USERR1
 40
0.0
  9
$USERR2
 40
0.0
  9
$USERR3
 40
0.0
  9
$USERR4
 40
0.0
  9
$USERR5
 40
0.0
  9
$WORLDVIEW
 70
     1
  9
$SHADEDGE
 70
     3
  9
$SHADEDIF
 70
    70
  9
$TILEMODE
 70
     1
  9
$MAXACTVP
 70
    64
  9
$PLIMCHECK
 70
     0
  9
$PEXTMIN
 10
1.0000000000000000E+20
 20
1.0000000000000000E+20
 30
1.0000000000000000E+20
  9
$PEXTMAX
 10
-1.0000000000000000E+20
 20
-1.0000000000000000E+20
 30
-1.0000000000000000E+20
  9
$PLIMMIN
 10
0.0
 20
0.0
  9
$PLIMMAX
 10
12.0
 20
9.0
  9
$UNITMODE
 70
     0
  9
$VISRETAIN
 70
     1
  9
$PLINEGEN
 70
     0
  9
$PSLTSCALE
 70
     1
  0
ENDSEC
  0
SECTION
  2
TABLES
  0
TABLE
  2
VPORT
 70
     1
  0
VPORT
  2
*ACTIVE
 70
     0
 10
0.0
 20
0.0
 11
1.0
 21
1.0
 12
-32.2178406026325135
 22
-33.9503245717178288
 13
0.0
 23
0.0
 14
1.0
 24
1.0
 15
0.0
 25
0.0
 16
0.0
 26
0.0
 36
30.6214257250603907
 17
124.6111586000725993
 27
5.3122741703778242
 37
0.0
 40
3.278276820324975
 41
2.6486111111111108
 42
50.0
 43
0.0
 44
0.0
 50
0.0
 51
0.0
 71
     0
 72
   100
 73
     1
 74
     1
 75
     0
 76
     0
 77
     0
 78
     1
  0
ENDTAB
  0
TABLE
  2
LTYPE
 70
     2
  0
LTYPE
  2
CONTINUOUS
 70
     0
  3
Solid line
 72
    65
 73
     0
 40
0.0
  0
LTYPE
  2
PHANTOM2
 70
     0
  3
___ _ _ ___ _ _ ___ _ _ ___ _ _
 72
    65
 73
     6
 40
1.25
 49
0.625
 49
-0.125
 49
0.125
 49
-0.125
 49
0.125
 49
-0.125
  0
ENDTAB
  0
TABLE
  2
LAYER
 70
     2
  0
LAYER
  2
0
 70
     0
 62
   255
  6
CONTINUOUS
  0
LAYER
  2
DEFPOINTS
 70
     0
 62
     7
  6
CONTINUOUS
  0
ENDTAB
  0
TABLE
  2
STYLE
 70
     1
  0
STYLE
  2
STANDARD
 70
     0
 40
0.0
 41
0.8
 50
0.0
 71
     0
 42
0.2
  3
txt
  4

  0
ENDTAB
  0
TABLE
  2
VIEW
 70
     0
  0
ENDTAB
  0
TABLE
  2
UCS
 70
     0
  0
ENDTAB
  0
TABLE
  2
APPID
 70
     9
  0
APPID
  2
ACAD
 70
     0
  0
APPID
  2
ACAD_MLEADERVER
 70
     0
  0
APPID
  2
ACAD_EXEMPT_FROM_CAD_STANDARDS
 70
     0
  0
APPID
  2
ACAD_DSTYLE_DIMJAG
 70
     0
  0
APPID
  2
ACAD_DSTYLE_DIMTALN
 70
     0
  0
APPID
  2
ACAD_NAV_VCDISPLAY
 70
     0
  0
APPID
  2
ACAECLAYERSTANDARD
 70
     0
  0
APPID
  2
ACCMTRANSPARENCY
 70
     0
  0
APPID
  2
ACDBATTR
 70
     0
  0
ENDTAB
  0
TABLE
  2
DIMSTYLE
 70
     1
  0
DIMSTYLE
  2
STANDARD
 70
     0
  3

  4

  5

  6

  7

 40
1.0
 41
0.1875
 42
0.0625
 43
0.38
 44
0.125
 45
0.0
 46
0.0
 47
0.01
 48
0.01
140
0.15625
141
0.09
142
0.0
143
25.3999999999999986
144
1.0
145
0.0
146
1.0
147
0.09
 71
     1
 72
     0
 73
     1
 74
     1
 75
     0
 76
     0
 77
     0
 78
     4
170
     0
171
     2
172
     0
173
     0
174
     0
175
     0
176
     0
177
     0
178
     0
  0
ENDTAB
  0
ENDSEC
  0
SECTION
  2
BLOCKS
  0
BLOCK
  8
0
  2
$MODEL_SPACE
 70
     0
 10
0.0
 20
0.0
 30
0.0
  3
$MODEL_SPACE
  1

  0
ENDBLK
  5
21
  8
0
  0
BLOCK
 67
     1
  8
0
  2
$PAPER_SPACE
 70
     0
 10
0.0
 20
0.0
 30
0.0
  3
$PAPER_SPACE
  1

  0
ENDBLK
  5
1D
 67
     1
  8
0
  0
BLOCK
  8
0
  2
_FILLED
 70
     0
 10
0.0
 20
0.0
 30
0.0
  3
_FILLED
  1

  0
SOLID
  5
B3EB
  8
0
  6
BYBLOCK
 62
     0
 10
0.0
 20
0.0
 30
0.0
 11
-1.0
 21
0.1666666667
 31
0.0
 12
-1.0
 22
-0.1666666667
 32
0.0
 13
-1.0
 23
-0.1666666667
 33
0.0
  0
ENDBLK
  5
B3EC
  8
0
  6
BYBLOCK
 62
     0
  0
ENDSEC
  0
SECTION
  2
ENTITIES
  0
ATTDEF
  5
BA2F
  8
DEFPOINTS
 10
96.1515757538989675
 20
-28.38077386820569
 30
0.0
 40
0.001
  1
K-11624BR
  3

  2
MODELNUMBER
 70
     0
1001
ACDBATTR
1070
     0
1070
     1
  0
ATTDEF
  5
BA30
  8
DEFPOINTS
 10
96.1515757538989675
 20
-28.3824405348723516
 30
0.0
 40
0.001
  1
STILLNESS
  3

  2
TRADENAME
 70
     0
1001
ACDBATTR
1070
     0
1070
     1
  0
ATTDEF
  5
BA31
  8
DEFPOINTS
 10
96.1515757538989675
 20
-28.3841072015390203
 30
0.0
 40
0.001
  1
SHOWER ARM
  3

  2
PRODUCT
 70
     0
1001
ACDBATTR
1070
     0
1070
     1
  0
LINE
  5
E2ED
  8
0
 10
96.1216058247649414
 20
-27.0145859130550789
 30
0.0
 11
95.8696373208649248
 21
-27.0145859130550789
 31
0.0
  0
LINE
  5
E2EE
  8
0
 10
91.0211333837649335
 20
-27.7596646532550793
 30
0.0
 11
95.8401097617649356
 21
-27.7596646532550793
 31
0.0
  0
ARC
  5
E2EF
  8
0
 10
95.8696373223226459
 20
-27.0441134756742798
 30
0.0
 40
0.0295275626191991
 50
90.0000028285486167
 51
180.021409940442993
  0
LINE
  5
E2F0
  8
0
 10
95.8401097617649356
 20
-27.0441245093550791
 30
0.0
 11
95.8401097617649356
 21
-29.7252158343550796
 31
0.0
  0
ARC
  5
E2F1
  8
0
 10
95.8696373223226459
 20
-29.7252158308358894
 30
0.0
 40
0.029527562619201
 50
179.978590059557007
 51
269.9999971714481717
  0
LINE
  5
E2F2
  8
0
 10
95.8696373208649248
 20
-29.7547433934550796
 30
0.0
 11
96.1216058247649414
 21
-29.7547434058941498
 31
0.0
  0
ARC
  5
E2F3
  8
0
 10
96.1216058262226625
 20
-29.7252158482518496
 30
0.0
 40
0.0295275576422994
 50
269.9999971714498201
 51
0.0000269655274995
  0
LINE
  5
E2F4
  8
0
 10
96.1511333838649449
 20
-29.7252158343550796
 30
0.0
 11
96.1511321220436344
 21
-27.0441247240553793
 31
0.0
  0
ARC
  5
E2F5
  8
0
 10
96.1215932944836027
 20
-27.0441247379574499
 30
0.0
 40
0.0295388275600207
 50
0.0000269655297386
 51
89.9756953028486777
  0
LINE
  5
E2F6
  8
0
 10
89.2770851163292036
 20
-30.2613093650503515
 30
0.0
 11
89.2913804880253963
 21
-30.2587887516967804
 31
0.0
  0
LINE
  5
E2F7
  8
0
 10
89.2913804880253963
 20
-30.2587887516967804
 30
0.0
 11
89.2914830685649434
 21
-30.2584280001550816
 31
0.0
  0
LINE
  5
E2F8
  8
0
 10
89.2914830685649434
 20
-30.2584280001550816
 30
0.0
 11
89.2843319287035939
 21
-30.24306699906899
 31
0.0
  0
LINE
  5
E2F9
  8
0
 10
89.2770851163292036
 20
-30.2613093650503515
 30
0.0
 11
88.6315933352649381
 21
-29.8093315807550816
 31
0.0
  0
LINE
  5
E2FA
  8
0
 10
88.6315933352649381
 20
-29.8093315807550816
 30
0.0
 11
88.6235109817649374
 21
-29.7634942761550789
 31
0.0
  0
LINE
  5
E2FB
  8
0
 10
88.6235109817649374
 20
-29.7634942761550789
 30
0.0
 11
88.6237949305649408
 21
-29.7632907453550786
 31
0.0
  0
LINE
  5
E2FC
  8
0
 10
88.6237949305649408
 20
-29.7632907453550786
 30
0.0
 11
88.6679403295649422
 21
-29.7671908924550799
 31
0.0
  0
LINE
  5
E2FD
  8
0
 10
88.666820717764935
 20
-29.7670937016550816
 30
0.0
 11
88.6451613701649421
 21
-29.720216547055081
 31
0.0
  0
LINE
  5
E2FE
  8
0
 10
88.6451613701649421
 20
-29.720216547055081
 30
0.0
 11
88.6563272096649371
 21
-29.7042700755550904
 31
0.0
  0
LINE
  5
E2FF
  8
0
 10
88.6563272096649371
 20
-29.7042700755550904
 30
0.0
 11
88.7088789533649447
 21
-29.7086499372550783
 31
0.0
  0
LINE
  5
E300
  8
0
 10
88.7076998022774745
 20
-29.7085474766315016
 30
0.0
 11
88.6861311155649332
 21
-29.6617056867550808
 31
0.0
  0
LINE
  5
E301
  8
0
 10
88.6861311155649332
 20
-29.6617056867550808
 30
0.0
 11
88.6972969551649442
 21
-29.6457592152550795
 31
0.0
  0
LINE
  5
E302
  8
0
 10
88.6972969551649442
 20
-29.6457592152550795
 30
0.0
 11
88.7498467702649378
 21
-29.65014878265508
 31
0.0
  0
LINE
  5
E303
  8
0
 10
88.7487026961649406
 20
-29.6500494379550794
 30
0.0
 11
88.7271451461649434
 21
-29.6032259345550806
 31
0.0
  0
LINE
  5
E304
  8
0
 10
88.7271451461649434
 20
-29.6032259345550806
 30
0.0
 11
88.7382667005649353
 21
-29.5872483548550811
 31
0.0
  0
LINE
  5
E305
  8
0
 10
88.7382667005649353
 20
-29.5872483548550811
 30
0.0
 11
88.7907811507649285
 21
-29.5916323302550808
 31
0.0
  0
LINE
  5
E306
  8
0
 10
88.7896437533649419
 20
-29.5915335369550903
 30
0.0
 11
88.7854122277649367
 21
-29.5824387551550814
 31
0.0
  0
LINE
  5
E307
  8
0
 10
88.7854122277649367
 20
-29.5824387551550814
 30
0.0
 11
89.4670608513649341
 21
-30.0597342597550785
 31
0.0
  0
LINE
  5
E308
  8
0
 10
89.4670608513649341
 20
-30.0597342597550785
 30
0.0
 11
89.458623472764927
 21
-30.0717840852550786
 31
0.0
  0
LINE
  5
E309
  8
0
 10
89.458623472764927
 20
-30.0717840852550786
 30
0.0
 11
89.457937714764924
 21
-30.0719563795550791
 31
0.0
  0
LINE
  5
E30A
  8
0
 10
89.457937714764924
 20
-30.0719563795550791
 30
0.0
 11
89.4060724030649396
 21
-30.0674469040550782
 31
0.0
  0
LINE
  5
E30B
  8
0
 10
89.407199085475753
 20
-30.0675448655972417
 30
0.0
 11
89.428738548864942
 21
-30.1136954100550902
 31
0.0
  0
LINE
  5
E30C
  8
0
 10
89.428738548864942
 20
-30.1136954100550902
 30
0.0
 11
89.4288058023649342
 21
-30.1143681318550804
 31
0.0
  0
LINE
  5
E30D
  8
0
 10
89.4288058023649342
 20
-30.1143681318550804
 30
0.0
 11
89.4176399627649374
 21
-30.1303146033550817
 31
0.0
  0
LINE
  5
E30E
  8
0
 10
89.4176399627649374
 20
-30.1303146033550817
 30
0.0
 11
89.417008726964923
 21
-30.13046604645508
 31
0.0
  0
LINE
  5
E30F
  8
0
 10
89.417008726964923
 20
-30.13046604645508
 30
0.0
 11
89.365129308764935
 21
-30.1259541775550801
 31
0.0
  0
LINE
  5
E310
  8
0
 10
89.366230994564944
 20
-30.1260499299550801
 30
0.0
 11
89.3877311126649374
 21
-30.1722288989550904
 31
0.0
  0
LINE
  5
E311
  8
0
 10
89.3877311126649374
 20
-30.1722288989550904
 30
0.0
 11
89.3878359657365991
 21
-30.1728791222998396
 31
0.0
  0
LINE
  5
E312
  8
0
 10
89.3878359657365991
 20
-30.1728791222998396
 30
0.0
 11
89.3766702172649445
 21
-30.1888254636550784
 31
0.0
  0
LINE
  5
E313
  8
0
 10
89.3766702172649445
 20
-30.1888254636550784
 30
0.0
 11
89.3760630431649332
 21
-30.188972859455081
 31
0.0
  0
LINE
  5
E314
  8
0
 10
89.3760630431649332
 20
-30.188972859455081
 30
0.0
 11
89.324160004864936
 21
-30.1844586591550801
 31
0.0
  0
LINE
  5
E315
  8
0
 10
89.3252980624348822
 20
-30.1845576402550684
 30
0.0
 11
89.3467866950649352
 21
-30.2306908123550784
 31
0.0
  0
LINE
  5
E316
  8
0
 10
89.3467866950649352
 20
-30.2306908123550784
 30
0.0
 11
89.3468663011649369
 21
-30.2313898670550785
 31
0.0
  0
LINE
  5
E317
  8
0
 10
89.3468663011649369
 20
-30.2313898670550785
 30
0.0
 11
89.3357318134649461
 21
-30.2472915634550787
 31
0.0
  0
LINE
  5
E318
  8
0
 10
89.3357318134649461
 20
-30.2472915634550787
 30
0.0
 11
89.3349909823649284
 21
-30.2475077641550811
 31
0.0
  0
LINE
  5
E319
  8
0
 10
89.3349909823649284
 20
-30.2475077641550811
 30
0.0
 11
89.2831243210649461
 21
-30.2429620643550798
 31
0.0
  0
ARC
  5
E31A
  8
0
 10
88.789980532119074
 20
-29.5993708027198288
 30
0.0
 40
0.0077797780369189
 50
63.2814199008115494
 51
84.0932214731539034
  0
ARC
  5
E31B
  8
0
 10
88.5876009127779156
 20
-30.0014330215843117
 30
0.0
 40
0.4579036922682202
 50
60.4820234317277894
 51
63.2814199008115494
  0
ARC
  5
E31C
  8
0
 10
88.6288407354570893
 20
-29.928595213113379
 30
0.0
 40
0.3742014263642472
 50
58.8419186015106135
 51
60.4820234317278889
  0
ARC
  5
E31D
  8
0
 10
88.1591190531351572
 20
-30.6977249043186617
 30
0.0
 40
1.252425712141038
 50
54.4930389984999124
 51
62.4565747428177573
  0
ARC
  5
E31E
  8
0
 10
31.0774730129314705
 20
-117.6607873976658993
 30
0.0
 40
105.2749914596410008
 50
56.4690232416393911
 51
56.6930421858706808
  0
ARC
  5
E31F
  8
0
 10
97.2456583357101323
 20
-17.7914486502558411
 30
0.0
 40
14.5253184074207997
 50
236.5070476633794101
 51
237.2654393915906894
  0
LINE
  5
E320
  8
0
 10
89.3911240946649457
 20
-30.0099250975550902
 30
0.0
 11
89.3927038717649367
 21
-30.0076689421550817
 31
0.0
  0
ARC
  5
E321
  8
0
 10
88.1719811688681858
 20
-30.6465958263389915
 30
0.0
 40
1.1818813473540211
 50
56.5649923855230981
 51
61.9857231949843879
  0
ARC
  5
E322
  8
0
 10
183.6830727257097919
 20
114.0111766979262029
 30
0.0
 40
172.1623996718402907
 50
236.5649923855229986
 51
236.7674271497992038
  0
ARC
  5
E323
  8
0
 10
90.6417470718848648
 20
-27.9946082342963898
 30
0.0
 40
2.3909909080624852
 50
236.7674271497992038
 51
240.3220425215160958
  0
ARC
  5
E324
  8
0
 10
89.4067490293438141
 20
-30.0615425322261913
 30
0.0
 40
0.0059430152124253
 50
250.100675245976305
 51
263.4625649107392746
  0
ARC
  5
E325
  8
0
 10
89.4235414983176042
 20
-30.0151521405914607
 30
0.0
 40
0.055279162713612
 50
238.9908851166707109
 51
250.100675245976305
  0
ARC
  5
E326
  8
0
 10
125.3150709051894012
 20
26.2449145721039301
 30
0.0
 40
66.7890365248901361
 50
236.8524047320657075
 51
237.4651203394330992
  0
ARC
  5
E327
  8
0
 10
88.487863340380656
 20
-30.1600480580253603
 30
0.0
 40
0.5739387117931734
 50
57.6488293236239002
 51
62.3289651573712575
  0
ARC
  5
E328
  8
0
 10
88.7416874342931266
 20
-29.6785801890308889
 30
0.0
 40
0.0296869366254827
 50
64.6511545261671756
 51
72.3570258298005911
  0
ARC
  5
E329
  8
0
 10
88.7497715479967866
 20
-29.6531619966067304
 30
0.0
 40
0.003014152734693
 50
72.3570258298099986
 51
88.5699576698497424
  0
ARC
  5
E32A
  8
0
 10
85.4442835181698683
 20
-35.118337920765839
 30
0.0
 40
6.366412970368815
 50
55.5056275233159582
 51
59.2718787169688071
  0
ARC
  5
E32B
  8
0
 10
95.804052500511915
 20
-19.8445722444143584
 30
0.0
 40
12.0894611227138302
 50
236.034478987276799
 51
238.129529625825711
  0
ARC
  5
E32C
  8
0
 10
89.4351640905318561
 20
-30.0879013000991513
 30
0.0
 40
0.0275996869788684
 50
238.6583810897847115
 51
253.4988194749641082
  0
ARC
  5
E32D
  8
0
 10
89.4280720717886908
 20
-30.1118417427519596
 30
0.0
 40
0.0026308759485891
 50
253.4988194749624029
 51
286.1920989922797958
  0
ARC
  5
E32E
  8
0
 10
87.8016531569665943
 20
-31.2827329016053106
 30
0.0
 40
1.8466263720837151
 50
55.1068322358278309
 51
61.3817334326948512
  0
ARC
  5
E32F
  8
0
 10
52.3427519039049898
 20
-85.3370164503947564
 30
0.0
 40
66.4926274573452929
 50
56.4485365364787981
 51
56.6904212088322197
  0
ARC
  5
E330
  8
0
 10
99.2513344003486964
 20
-14.6702379027684895
 30
0.0
 40
18.3260825346916896
 50
236.3340815044396948
 51
237.3323609853856908
  0
ARC
  5
E331
  8
0
 10
89.6007329381597941
 20
-29.7447425178982812
 30
0.0
 40
0.427257956946704
 50
235.6343169803429873
 51
244.525949708631714
  0
ARC
  5
E332
  8
0
 10
89.3676302470043424
 20
-30.1124986192136603
 30
0.0
 40
0.0136860053469522
 50
244.3153511193287954
 51
259.4707825441603859
  0
ARC
  5
E333
  8
0
 10
89.4608766752601241
 20
-29.9186139311282311
 30
0.0
 40
0.2288282110074165
 50
239.7183172803489128
 51
244.3153511193287102
  0
ARC
  5
E334
  8
0
 10
97.9768347036106348
 20
-16.3653643951213397
 30
0.0
 40
16.2353364322674913
 50
236.311644503301693
 51
237.8837083994754096
  0
ARC
  5
E335
  8
0
 10
82.8853219458521266
 20
-39.0600367801011075
 30
0.0
 40
11.0190821157613996
 50
56.4729765400507375
 51
57.8591284761015601
  0
ARC
  5
E336
  8
0
 10
88.5083713940342705
 20
-30.110070206938051
 30
0.0
 40
0.4492861699151464
 50
57.8424280299186933
 51
62.937937884069477
  0
ARC
  5
E337
  8
0
 10
88.7058336572679593
 20
-29.7240078735256503
 30
0.0
 40
0.0156569484513806
 50
63.6765441121525129
 51
78.7844103208710749
  0
ARC
  5
E338
  8
0
 10
82.2250081774936774
 20
-40.2347685292686279
 30
0.0
 40
12.3390948686373196
 50
55.6172680768459102
 51
58.5862258782354104
  0
ARC
  5
E339
  8
0
 10
91.0620739818125742
 20
-27.3202115832099715
 30
0.0
 40
3.3095316890786881
 50
235.6172680768459031
 51
239.3102446109488994
  0
ARC
  5
E33A
  8
0
 10
89.409011938561747
 20
-30.1054196673806089
 30
0.0
 40
0.0707050202113788
 50
239.3102446109488142
 51
252.5725790504889119
  0
ARC
  5
E33B
  8
0
 10
78.6599361831636514
 20
-45.7673129893502093
 30
0.0
 40
18.9001065146058309
 50
56.0565265870697687
 51
58.1082682580497334
  0
ARC
  5
E33C
  8
0
 10
92.380371805290082
 20
-25.2853211261764983
 30
0.0
 40
5.7529264308451484
 50
236.5973913072932078
 51
238.1419105486311025
  0
ARC
  5
E33D
  8
0
 10
89.6041743697758051
 20
-29.72748925866577
 30
0.0
 40
0.5147833438696747
 50
239.6260276220965864
 51
243.6968145302969049
  0
ARC
  5
E33E
  8
0
 10
88.6672361763133665
 20
-29.7748003461085418
 30
0.0
 40
0.0076419641916122
 50
63.8381016691316816
 51
84.7130975694445851
  0
ARC
  5
E33F
  8
0
 10
88.5050738458193536
 20
-30.1049116868985713
 30
0.0
 40
0.3754328269783778
 50
61.5669382313041709
 51
63.8381016691316816
  0
ARC
  5
E340
  8
0
 10
86.2035222712820826
 20
-33.8753479323798175
 30
0.0
 40
4.7923581513510261
 50
56.5411351101797308
 51
58.8316379727314214
  0
ARC
  5
E341
  8
0
 10
132.4824436013240927
 20
36.4169738277239574
 30
0.0
 40
79.3667193774473247
 50
236.6459383778671963
 51
236.9725155976877033
  0
ARC
  5
E342
  8
0
 10
90.8294356529443832
 20
-27.6429953369204391
 30
0.0
 40
2.9556506250029901
 50
237.1070131727306034
 51
238.6583030376324928
  0
ARC
  5
E343
  8
0
 10
89.3969142594077653
 20
-30.0122139478975605
 30
0.0
 40
0.1872430464818782
 50
235.9526970864152986
 51
245.0313938021238016
  0
ARC
  5
E344
  8
0
 10
89.4586517793002542
 20
-29.8796277890345507
 30
0.0
 40
0.3334983400083666
 50
245.0313938021238016
 51
245.7546291581408013
  0
ARC
  5
E345
  8
0
 10
89.3258519308353129
 20
-30.1744961368027482
 30
0.0
 40
0.0101051702167803
 50
245.7546291581427056
 51
260.361473075908691
  0
ARC
  5
E346
  8
0
 10
85.0240806391546471
 20
-35.6221115997055477
 30
0.0
 40
6.875994163399886
 50
55.3696696981493517
 51
58.4341736440885668
  0
ARC
  5
E347
  8
0
 10
93.4627728884797051
 20
-23.4033740623177415
 30
0.0
 40
7.9735537720218863
 50
235.3696696981492948
 51
237.8644188253371965
  0
ARC
  5
E348
  8
0
 10
78.9286749350060148
 20
-46.5407802613884272
 30
0.0
 40
19.3500544988848517
 50
57.5092714763544279
 51
57.8644188253372604
  0
ARC
  5
E349
  8
0
 10
89.4174588298593847
 20
-30.0708067647740904
 30
0.0
 40
0.176199995311273
 50
237.5092714763542858
 51
243.9326025836876966
  0
ARC
  5
E34A
  8
0
 10
89.3525716163739361
 20
-30.2034490355738185
 30
0.0
 40
0.0285371276809252
 50
243.9326025836859912
 51
258.4420582312801002
  0
ARC
  5
E34B
  8
0
 10
89.2860062398508774
 20
-30.2274919064858807
 30
0.0
 40
0.0157325912332521
 50
240.5423224063875125
 51
259.5743809631298973
  0
ARC
  5
E34C
  8
0
 10
90.8138507350601856
 20
-27.5223755732893203
 30
0.0
 40
3.1224934731918368
 50
239.8473584332029986
 51
240.5423224063875125
  0
ARC
  5
E34D
  8
0
 10
92.8662557464769236
 20
-24.3991877117894909
 30
0.0
 40
6.8571098049986787
 50
236.5958180778658004
 51
238.1266618059478901
  0
ARC
  5
E34E
  8
0
 10
87.4096972420067004
 20
-32.5137871225941666
 30
0.0
 40
2.922400741738993
 50
54.8751214506101803
 51
58.729730458433707
  0
LINE
  5
E34F
  8
0
 10
88.6454649513649429
 20
-29.3867846473086587
 30
0.0
 11
89.6694050067743262
 21
-30.1037551955416696
 31
0.0
  0
LINE
  5
E350
  8
0
 10
89.6694050067743262
 20
-30.1037551955416696
 30
0.0
 11
90.0995873338882802
 21
-29.4893911624337584
 31
0.0
  0
ARC
  5
E351
  8
0
 10
91.0211333837649335
 20
-30.1346646532550793
 30
0.0
 40
1.125
 50
90.0
 51
145.0000000045760942
  0
LINE
  5
E352
  8
0
 10
91.0211333837649335
 20
-29.0096646532550793
 30
0.0
 11
95.8401097617649356
 21
-29.0096646532550793
 31
0.0
  0
ARC
  5
E353
  8
0
 10
91.0211333837345649
 20
-30.1346646529854709
 30
0.0
 40
2.3749999997303881
 50
89.9999999992671889
 51
145.0000000043795865
  0
LINE
  5
E354
  8
0
 10
89.0756472786649454
 20
-28.7724206169550811
 30
0.0
 11
88.6454649514443958
 21
-29.3867846473643013
 31
0.0
  0
LINE
  5
E355
  8
0
 10
89.4523297149649466
 20
-29.951757439955081
 30
0.0
 11
89.4064436000837475
 21
-30.01728960346734
 31
0.0
  0
LINE
  5
E356
  8
0
 10
88.8625402430649274
 20
-29.5387824057550787
 30
0.0
 11
88.8166541281811277
 21
-29.6043145693319687
 31
0.0
  0
ENDSEC
  0
EOF
