  0
SECTION
  2
HEADER
  9
$ACADVER
  1
AC1009
  9
$INSBASE
 10
3566.5647066520250519
 20
145.8620066571556038
 30
0.0
  9
$EXTMIN
 10
3565.2713995653248276
 20
144.5686995705555944
 30
0.0
  9
$EXTMAX
 10
3567.858013738624777
 20
147.1553137437556984
 30
0.0
  9
$LIMMIN
 10
0.0
 20
0.0
  9
$LIMMAX
 10
11.6929133858000007
 20
8.2677165353999982
  9
$ORTHOMODE
 70
     0
  9
$REGENMODE
 70
     1
  9
$FILLMODE
 70
     1
  9
$QTEXTMODE
 70
     0
  9
$MIRRTEXT
 70
     0
  9
$DRAGMODE
 70
     2
  9
$LTSCALE
 40
0.6431102362
  9
$OSMODE
 70
   575
  9
$ATTMODE
 70
     1
  9
$TEXTSIZE
 40
0.2
  9
$TRACEWID
 40
0.05
  9
$TEXTSTYLE
  7
STANDARD
  9
$CLAYER
  8
0
  9
$CELTYPE
  6
BYLAYER
  9
$CECOLOR
 62
   256
  9
$DIMSCALE
 40
1.0
  9
$DIMASZ
 40
0.1875
  9
$DIMEXO
 40
0.0625
  9
$DIMDLI
 40
0.4443307087
  9
$DIMRND
 40
0.0
  9
$DIMDLE
 40
0.0
  9
$DIMEXE
 40
0.125
  9
$DIMTP
 40
0.01
  9
$DIMTM
 40
0.01
  9
$DIMTXT
 40
2.0
  9
$DIMCEN
 40
0.1052362205
  9
$DIMTSZ
 40
0.0
  9
$DIMTOL
 70
     1
  9
$DIMLIM
 70
     0
  9
$DIMTIH
 70
     1
  9
$DIMTOH
 70
     1
  9
$DIMSE1
 70
     0
  9
$DIMSE2
 70
     0
  9
$DIMTAD
 70
     0
  9
$DIMZIN
 70
     0
  9
$DIMBLK
  1

  9
$DIMASO
 70
     1
  9
$DIMSHO
 70
     1
  9
$DIMPOST
  1
\X
  9
$DIMAPOST
  1

  9
$DIMALT
 70
     1
  9
$DIMALTD
 70
     2
  9
$DIMALTF
 40
25.3999999999999986
  9
$DIMLFAC
 40
1.0
  9
$DIMTOFL
 70
     0
  9
$DIMTVP
 40
0.0
  9
$DIMTIX
 70
     0
  9
$DIMSOXD
 70
     0
  9
$DIMSAH
 70
     0
  9
$DIMBLK1
  1

  9
$DIMBLK2
  1

  9
$DIMSTYLE
  2
STANDARD
  9
$DIMCLRD
 70
     0
  9
$DIMCLRE
 70
     0
  9
$DIMCLRT
 70
     0
  9
$DIMTFAC
 40
1.0
  9
$DIMGAP
 40
0.09
  9
$LUNITS
 70
     2
  9
$LUPREC
 70
     4
  9
$SKETCHINC
 40
0.1
  9
$FILLETRAD
 40
0.0
  9
$AUNITS
 70
     0
  9
$AUPREC
 70
     0
  9
$MENU
  1
.
  9
$ELEVATION
 40
0.0
  9
$PELEVATION
 40
0.0
  9
$THICKNESS
 40
0.0
  9
$LIMCHECK
 70
     0
  9
$BLIPMODE
 70
     0
  9
$CHAMFERA
 40
0.0
  9
$CHAMFERB
 40
0.0
  9
$SKPOLY
 70
     0
  9
$TDCREATE
 40
2458060.468368056230247
  9
$TDUPDATE
 40
2459598.7663425928913057
  9
$TDINDWG
 40
0.6191621528
  9
$TDUSRTIMER
 40
0.6191621528
  9
$USRTIMER
 70
     1
  9
$ANGBASE
 50
0.0
  9
$ANGDIR
 70
     0
  9
$PDMODE
 70
     0
  9
$PDSIZE
 40
0.3125
  9
$PLINEWID
 40
0.0
  9
$COORDS
 70
     1
  9
$SPLFRAME
 70
     0
  9
$SPLINETYPE
 70
     6
  9
$SPLINESEGS
 70
     8
  9
$ATTDIA
 70
     1
  9
$ATTREQ
 70
     1
  9
$HANDLING
 70
     1
  9
$HANDSEED
  5
10ADF
  9
$SURFTAB1
 70
     6
  9
$SURFTAB2
 70
     6
  9
$SURFTYPE
 70
     6
  9
$SURFU
 70
     6
  9
$SURFV
 70
     6
  9
$UCSNAME
  2

  9
$UCSORG
 10
0.0
 20
0.0
 30
0.0
  9
$UCSXDIR
 10
1.0
 20
0.0
 30
0.0
  9
$UCSYDIR
 10
0.0
 20
1.0
 30
0.0
  9
$PUCSNAME
  2

  9
$PUCSORG
 10
0.0
 20
0.0
 30
0.0
  9
$PUCSXDIR
 10
1.0
 20
0.0
 30
0.0
  9
$PUCSYDIR
 10
0.0
 20
1.0
 30
0.0
  9
$USERI1
 70
     0
  9
$USERI2
 70
     0
  9
$USERI3
 70
     0
  9
$USERI4
 70
     0
  9
$USERI5
 70
     0
  9
$USERR1
 40
0.0
  9
$USERR2
 40
0.0
  9
$USERR3
 40
0.0
  9
$USERR4
 40
0.0
  9
$USERR5
 40
0.0
  9
$WORLDVIEW
 70
     1
  9
$SHADEDGE
 70
     3
  9
$SHADEDIF
 70
    70
  9
$TILEMODE
 70
     1
  9
$MAXACTVP
 70
    64
  9
$PLIMCHECK
 70
     0
  9
$PEXTMIN
 10
1.0000000000000000E+20
 20
1.0000000000000000E+20
 30
1.0000000000000000E+20
  9
$PEXTMAX
 10
-1.0000000000000000E+20
 20
-1.0000000000000000E+20
 30
-1.0000000000000000E+20
  9
$PLIMMIN
 10
0.0
 20
0.0
  9
$PLIMMAX
 10
12.0
 20
9.0
  9
$UNITMODE
 70
     0
  9
$VISRETAIN
 70
     1
  9
$PLINEGEN
 70
     0
  9
$PSLTSCALE
 70
     1
  0
ENDSEC
  0
SECTION
  2
TABLES
  0
TABLE
  2
VPORT
 70
     1
  0
VPORT
  2
*ACTIVE
 70
     0
 10
0.0
 20
0.0
 11
1.0
 21
1.0
 12
36.8974702968675317
 22
0.2207865645655371
 13
0.0
 23
0.0
 14
1.0
 24
1.0
 15
0.0
 25
0.0
 16
0.0
 26
0.0
 36
63.5766009093590512
 17
3529.667236328125
 27
145.6412200927734091
 37
0.0
 40
3.3693919859102959
 41
2.5179738562091498
 42
50.0
 43
0.0
 44
0.0
 50
0.0
 51
0.0
 71
     0
 72
   100
 73
     1
 74
     1
 75
     0
 76
     0
 77
     0
 78
     0
  0
ENDTAB
  0
TABLE
  2
LTYPE
 70
     2
  0
LTYPE
  2
CONTINUOUS
 70
     0
  3
Solid line
 72
    65
 73
     0
 40
0.0
  0
LTYPE
  2
PHANTOM2
 70
     0
  3
___ _ _ ___ _ _ ___ _ _ ___ _ _
 72
    65
 73
     6
 40
1.25
 49
0.625
 49
-0.125
 49
0.125
 49
-0.125
 49
0.125
 49
-0.125
  0
ENDTAB
  0
TABLE
  2
LAYER
 70
     2
  0
LAYER
  2
0
 70
     0
 62
   255
  6
CONTINUOUS
  0
LAYER
  2
DEFPOINTS
 70
     0
 62
     7
  6
CONTINUOUS
  0
ENDTAB
  0
TABLE
  2
STYLE
 70
     1
  0
STYLE
  2
STANDARD
 70
     0
 40
0.0
 41
0.8
 50
0.0
 71
     0
 42
0.2
  3
txt
  4

  0
ENDTAB
  0
TABLE
  2
VIEW
 70
     0
  0
ENDTAB
  0
TABLE
  2
UCS
 70
     0
  0
ENDTAB
  0
TABLE
  2
APPID
 70
     9
  0
APPID
  2
ACAD
 70
     0
  0
APPID
  2
ACAD_MLEADERVER
 70
     0
  0
APPID
  2
ACAD_EXEMPT_FROM_CAD_STANDARDS
 70
     0
  0
APPID
  2
ACAD_NAV_VCDISPLAY
 70
     0
  0
APPID
  2
ACAECLAYERSTANDARD
 70
     0
  0
APPID
  2
ACCMTRANSPARENCY
 70
     0
  0
APPID
  2
ACAD_DSTYLE_DIMJAG
 70
     0
  0
APPID
  2
ACAD_DSTYLE_DIMTALN
 70
     0
  0
APPID
  2
ACDBATTR
 70
     0
  0
ENDTAB
  0
TABLE
  2
DIMSTYLE
 70
     1
  0
DIMSTYLE
  2
STANDARD
 70
     0
  3

  4

  5

  6

  7

 40
1.0
 41
0.1875
 42
0.0625
 43
0.38
 44
0.125
 45
0.0
 46
0.0
 47
0.01
 48
0.01
140
0.15625
141
0.09
142
0.0
143
25.3999999999999986
144
1.0
145
0.0
146
1.0
147
0.09
 71
     1
 72
     0
 73
     1
 74
     1
 75
     0
 76
     0
 77
     0
 78
     4
170
     0
171
     2
172
     0
173
     0
174
     0
175
     0
176
     0
177
     0
178
     0
  0
ENDTAB
  0
ENDSEC
  0
SECTION
  2
BLOCKS
  0
BLOCK
  8
0
  2
$MODEL_SPACE
 70
     0
 10
0.0
 20
0.0
 30
0.0
  3
$MODEL_SPACE
  1

  0
ENDBLK
  5
21
  8
0
  0
BLOCK
 67
     1
  8
0
  2
$PAPER_SPACE
 70
     0
 10
0.0
 20
0.0
 30
0.0
  3
$PAPER_SPACE
  1

  0
ENDBLK
  5
1D
 67
     1
  8
0
  0
ENDSEC
  0
SECTION
  2
ENTITIES
  0
ATTDEF
  5
FFD0
  8
DEFPOINTS
 10
3566.564827133036033
 20
145.8607490796981097
 30
0.0
 40
0.001
  1
K-11623BR
  3

  2
MODELNUMBER
 70
     0
1001
ACDBATTR
1070
     0
1070
     1
  0
ATTDEF
  5
FFD1
  8
DEFPOINTS
 10
3566.564827133036033
 20
145.8590824130313877
 30
0.0
 40
0.001
  1

  3

  2
TRADENAME
 70
     0
1001
ACDBATTR
1070
     0
1070
     1
  0
ATTDEF
  5
FFD2
  8
DEFPOINTS
 10
3566.564827133036033
 20
145.8574157463648078
 30
0.0
 40
0.001
  1
SHOWER ARM
  3

  2
PRODUCT
 70
     0
1001
ACDBATTR
1070
     0
1070
     1
  0
ARC
  5
10A07
  8
0
 10
3566.5647066519250075
 20
145.8620066571556038
 30
0.0
 40
1.2933070866
 50
89.9999999977592609
 51
270.0000000022407107
  0
ARC
  5
10A08
  8
0
 10
3566.5647066519250075
 20
145.8620066571556038
 30
0.0
 40
1.214566929099999
 50
89.9999999976550384
 51
270.0000000023450184
  0
ARC
  5
10A09
  8
0
 10
3566.5647066519250075
 20
145.8620066571556038
 30
0.0
 40
1.0826740759999991
 50
89.9999999973423854
 51
270.0000000026576004
  0
ARC
  5
10A0A
  8
0
 10
3566.5647066519250075
 20
145.8620066571556038
 30
0.0
 40
0.8661382756999998
 50
89.9999999967170652
 51
270.000000003282878
  0
ARC
  5
10A0B
  8
0
 10
3566.5647066519250075
 20
145.8620066571556038
 30
0.0
 40
0.6342283888
 50
89.9999999954664105
 51
270.0000000045336037
  0
ARC
  5
10A0C
  8
0
 10
3566.5647066519250075
 20
145.8620066571556038
 30
0.0
 40
0.5433070866
 50
89.9999999947368536
 51
270.0000000052630753
  0
ARC
  5
10A0D
  8
0
 10
3566.5647066519250075
 20
145.8620066571556038
 30
0.0
 40
0.4055118110000001
 50
89.9999999929130183
 51
270.0000000070870101
  0
ARC
  5
10A0E
  8
0
 10
3566.5647066519250075
 20
145.8620066571556038
 30
0.0
 40
0.3661417323
 50
89.9999999921834615
 51
270.0000000078165954
  0
ARC
  5
10A0F
  8
0
 10
3566.5647066519250075
 20
145.8620066571556038
 30
0.0
 40
0.3385826772
 50
89.9999999915581412
 51
270.000000008441873
  0
ARC
  5
10A10
  8
0
 10
3566.5647066520250519
 20
145.8620066571556038
 30
0.0
 40
1.2933070866
 50
269.9999999977591756
 51
90.0000000022407391
  0
ARC
  5
10A11
  8
0
 10
3566.5647066520250519
 20
145.8620066571556038
 30
0.0
 40
1.214566929099999
 50
269.9999999976549816
 51
90.0000000023449616
  0
ARC
  5
10A12
  8
0
 10
3566.5647066520250519
 20
145.8620066571556038
 30
0.0
 40
1.0826740759999991
 50
269.9999999973423996
 51
90.0000000026576146
  0
ARC
  5
10A13
  8
0
 10
3566.5647066520250519
 20
145.8620066571556038
 30
0.0
 40
0.8661382756999998
 50
269.999999996717122
 51
90.0000000032829348
  0
ARC
  5
10A14
  8
0
 10
3566.5647066520250519
 20
145.8620066571556038
 30
0.0
 40
0.6342283888
 50
269.9999999954663963
 51
90.0000000045336037
  0
ARC
  5
10A15
  8
0
 10
3566.5647066520250519
 20
145.8620066571556038
 30
0.0
 40
0.5433070866
 50
269.9999999947369247
 51
90.0000000052631322
  0
ARC
  5
10A16
  8
0
 10
3566.5647066520250519
 20
145.8620066571556038
 30
0.0
 40
0.4055118110000001
 50
269.9999999929129899
 51
90.0000000070869817
  0
ARC
  5
10A17
  8
0
 10
3566.5647066520250519
 20
145.8620066571556038
 30
0.0
 40
0.3661417323
 50
269.9999999921835183
 51
90.0000000078165243
  0
ARC
  5
10A18
  8
0
 10
3566.5647066520250519
 20
145.8620066571556038
 30
0.0
 40
0.3385826772
 50
269.999999991558127
 51
90.0000000084418446
  0
ENDSEC
  0
EOF
