999
DXF file: C:\Chris\10-Komponent\Input INFO\20180713\20200108-HC版本\普通版\f22378_top.dxf
999
Pro/ENGINEER 2019030 by Parametric Technology Corporation
  0
SECTION
  2
HEADER
  9
$ACADVER
  1
AC1021
  9
$DWGCODEPAGE
  3
ANSI_1252
  9
$EXTMAX
 10
841.0
 20
594.0
 30
0.0
  9
$EXTMIN
 10
0.0
 20
0.0
 30
0.0
  9
$LIMMIN
 10
0.0
 20
0.0
  9
$LIMMAX
 10
841.0
 20
594.0
  9
$VIEWCTR
 10
420.5
 20
297.0
  9
$VIEWSIZE
 40
594.0
  9
$CLAYER
  8
0
  9
$LTSCALE
 40
46.255
  9
$CELTYPE
  6
BYLAYER
  9
$DIMSCALE
 40
1.0
  9
$DIMASZ
 40
4.7625
  9
$DIMEXO
 40
1.5875
  9
$DIMDLI
 40
31.958
  9
$DIMEXE
 40
3.175
  9
$DIMCEN
 40
7.569
  9
$DIMLFAC
 40
1.0
  9
$DIMBLK
  1
_FILLED
  9
$DIMALT
 70
1
  9
$DIMALTD
 70
2
  9
$DIMALTTD
 70
2
  9
$DIMALTF
 40
0.0393700787
  9
$DIMTXT
 40
3.96875
  9
$DIMTOL
 70
1
  9
$DIMLIM
 70
0
  9
$DIMTFAC
 40
1.0
  9
$DIMTP
 40
0.01
  9
$DIMTM
 40
0.01
  9
$DIMGAP
 40
0.625
  9
$DIMDSEP
 70
46
  9
$AUNITS
 70
0
  9
$PDMODE
 70
3
  9
$PDSIZE
 40
7.9375
  9
$HANDSEED
  5
394
  9
$TILEMODE
 70
1
  9
$MEASUREMENT
 70
1
  9
$INSUNITS
 70
4
  0
ENDSEC
  0
SECTION
  2
CLASSES
  0
CLASS
  1
ACDBDICTIONARYWDFLT
  2
AcDbDictionaryWithDefault
  3
AutoCAD 2000
 90
0
 91
1
280
0
281
0
  0
CLASS
  1
ACDBPLACEHOLDER
  2
AcDbPlaceHolder
  3
AutoCAD 2000
 90
0
 91
1
280
0
281
0
  0
CLASS
  1
LAYOUT
  2
AcDbLayout
  3
AutoCAD 2000
 90
0
 91
0
280
0
281
0
  0
ENDSEC
  0
SECTION
  2
TABLES
  0
TABLE
  2
VPORT
  5
8
100
AcDbSymbolTable
 70
2
  0
VPORT
  5
1F4
100
AcDbSymbolTableRecord
100
AcDbViewportTableRecord
  2
*ACTIVE
 70
0
 10
0.0
 20
0.0
 11
1.0
 21
1.0
 12
420.5
 22
297.0
 13
0.0
 23
0.0
 14
1.0
 24
1.0
 15
0.0
 25
0.0
 16
0.0
 26
0.0
 36
1.0
 17
0.0
 27
0.0
 37
0.0
 40
594.0
 41
1.4158249158
 42
50.0
 43
0.0
 44
0.0
 50
0.0
 51
0.0
 71
0
 72
100
 73
1
 74
1
 75
0
 76
0
 77
0
 78
0
  0
ENDTAB
  0
TABLE
  2
LTYPE
  5
5
100
AcDbSymbolTable
 70
6
  0
LTYPE
  5
14
100
AcDbSymbolTableRecord
100
AcDbLinetypeTableRecord
  2
BYBLOCK
 70
0
  3

 72
65
 73
0
 40
0.0
  0
LTYPE
  5
15
100
AcDbSymbolTableRecord
100
AcDbLinetypeTableRecord
  2
BYLAYER
 70
0
  3

 72
65
 73
0
 40
0.0
  0
LTYPE
  5
16
100
AcDbSymbolTableRecord
100
AcDbLinetypeTableRecord
  2
CONTINUOUS
 70
64
  3
Solid line
 72
65
 73
0
 40
0.0
  0
LTYPE
  5
1F5
100
AcDbSymbolTableRecord
100
AcDbLinetypeTableRecord
  2
CENTER
 70
64
  3
____ _ ____ _ ____ _ ____ _ ____ _ ____ _ ____
 72
65
 73
4
 40
0.6
 49
0.375
 74
0
 49
-0.075
 74
0
 49
0.075
 74
0
 49
-0.075
 74
0
  0
LTYPE
  5
1F6
100
AcDbSymbolTableRecord
100
AcDbLinetypeTableRecord
  2
HIDDEN
 70
64
  3
- - - - - - - - - - - - - - - - - - - -
 72
65
 73
2
 40
0.2
 49
0.1
 74
0
 49
-0.1
 74
0
  0
LTYPE
  5
1F7
100
AcDbSymbolTableRecord
100
AcDbLinetypeTableRecord
  2
PHANTOM
 70
64
  3
_____ _ _ _____ _ _ _____ _ _ _____
 72
65
 73
6
 40
0.8
 49
0.45
 74
0
 49
-0.05
 74
0
 49
0.1
 74
0
 49
-0.05
 74
0
 49
0.1
 74
0
 49
-0.05
 74
0
  0
LTYPE
  5
1F8
100
AcDbSymbolTableRecord
100
AcDbLinetypeTableRecord
  2
DOT
 70
64
  3
. . . . . . . . . . . . . . . . . . . .
 72
65
 73
2
 40
0.2
 49
0.1
 74
0
 49
-0.1
 74
0
  0
LTYPE
  5
1F9
100
AcDbSymbolTableRecord
100
AcDbLinetypeTableRecord
  2
DASHED
 70
64
  3
- - - - - - - - - - - - - - - - - - - -
 72
65
 73
2
 40
0.2
 49
0.1
 74
0
 49
-0.1
 74
0
  0
ENDTAB
  0
TABLE
  2
LAYER
  5
2
100
AcDbSymbolTable
 70
36
  0
LAYER
  5
10
100
AcDbSymbolTableRecord
100
AcDbLayerTableRecord
  2
0
 70
0
 62
7
  6
CONTINUOUS
370
-3
390
F
  0
LAYER
  5
1FA
100
AcDbSymbolTableRecord
100
AcDbLayerTableRecord
  2
DEFAULT_1
 70
0
 62
7
  6
CENTER
370
-3
390
F
  0
LAYER
  5
1FB
100
AcDbSymbolTableRecord
100
AcDbLayerTableRecord
  2
DEFAULT_2
 70
0
 62
8
  6
HIDDEN
370
-3
390
F
  0
LAYER
  5
1FC
100
AcDbSymbolTableRecord
100
AcDbLayerTableRecord
  2
DEFAULT_3
 70
0
 62
7
  6
PHANTOM
370
-3
390
F
  0
LAYER
  5
1FD
100
AcDbSymbolTableRecord
100
AcDbLayerTableRecord
  2
01___PRT_ALL_DTM_PLN
 70
0
 62
7
  6
CONTINUOUS
370
-3
390
F
  0
LAYER
  5
1FE
100
AcDbSymbolTableRecord
100
AcDbLayerTableRecord
  2
01___PRT_DEF_DTM_PLN
 70
0
 62
7
  6
CONTINUOUS
370
-3
390
F
  0
LAYER
  5
1FF
100
AcDbSymbolTableRecord
100
AcDbLayerTableRecord
  2
02___PRT_ALL_AXES
 70
0
 62
7
  6
CONTINUOUS
370
-3
390
F
  0
LAYER
  5
200
100
AcDbSymbolTableRecord
100
AcDbLayerTableRecord
  2
03___PRT_ALL_CURVES
 70
0
 62
7
  6
CONTINUOUS
370
-3
390
F
  0
LAYER
  5
201
100
AcDbSymbolTableRecord
100
AcDbLayerTableRecord
  2
04___PRT_ALL_DTM_PNT
 70
0
 62
7
  6
CONTINUOUS
370
-3
390
F
  0
LAYER
  5
202
100
AcDbSymbolTableRecord
100
AcDbLayerTableRecord
  2
05___PRT_ALL_DTM_CSYS
 70
0
 62
7
  6
CONTINUOUS
370
-3
390
F
  0
LAYER
  5
203
100
AcDbSymbolTableRecord
100
AcDbLayerTableRecord
  2
05___PRT_DEF_DTM_CSYS
 70
0
 62
7
  6
CONTINUOUS
370
-3
390
F
  0
LAYER
  5
204
100
AcDbSymbolTableRecord
100
AcDbLayerTableRecord
  2
06___PRT_ALL_SURFS
 70
0
 62
7
  6
CONTINUOUS
370
-3
390
F
  0
LAYER
  5
205
100
AcDbSymbolTableRecord
100
AcDbLayerTableRecord
  2
DATUM_AXIS
 70
0
 62
7
  6
CONTINUOUS
370
-3
390
F
  0
LAYER
  5
206
100
AcDbSymbolTableRecord
100
AcDbLayerTableRecord
  2
DATUM_PLANE
 70
0
 62
7
  6
CONTINUOUS
370
-3
390
F
  0
LAYER
  5
207
100
AcDbSymbolTableRecord
100
AcDbLayerTableRecord
  2
DATUM_POINT
 70
0
 62
7
  6
CONTINUOUS
370
-3
390
F
  0
LAYER
  5
208
100
AcDbSymbolTableRecord
100
AcDbLayerTableRecord
  2
_CURVE
 70
0
 62
7
  6
CONTINUOUS
370
-3
390
F
  0
LAYER
  5
209
100
AcDbSymbolTableRecord
100
AcDbLayerTableRecord
  2
_SURFACE
 70
0
 62
7
  6
CONTINUOUS
370
-3
390
F
  0
ENDTAB
  0
TABLE
  2
STYLE
  5
3
100
AcDbSymbolTable
 70
1
  0
STYLE
  5
11
100
AcDbSymbolTableRecord
100
AcDbTextStyleTableRecord
  2
STANDARD
 70
0
 40
0.0
 41
0.8
 50
0.0
 71
0
 42
0.2
  3
txt
  4

  0
STYLE
  5
20A
100
AcDbSymbolTableRecord
100
AcDbTextStyleTableRecord
  2
TEXTSTYLE_1
 70
0
 40
0.0
 41
0.8
 50
0.0
 71
0
 42
0.2
  3
gdt
  4

  0
ENDTAB
  0
TABLE
  2
VIEW
  5
6
100
AcDbSymbolTable
 70
0
  0
ENDTAB
  0
TABLE
  2
UCS
  5
7
100
AcDbSymbolTable
 70
0
  0
ENDTAB
  0
TABLE
  2
APPID
  5
9
100
AcDbSymbolTable
 70
1
  0
APPID
  5
20B
100
AcDbSymbolTableRecord
100
AcDbRegAppTableRecord
  2
ACAD
 70
0
  0
ENDTAB
  0
TABLE
  2
BLOCK_RECORD
  5
1
100
AcDbSymbolTable
 70
0
  0
BLOCK_RECORD
  5
20C
100
AcDbSymbolTableRecord
100
AcDbBlockTableRecord
  2
*Model_Space
  0
BLOCK_RECORD
  5
20D
100
AcDbSymbolTableRecord
100
AcDbBlockTableRecord
  2
*Paper_Space
  0
BLOCK_RECORD
  5
20E
100
AcDbSymbolTableRecord
100
AcDbBlockTableRecord
  2
_FILLED
  0
ENDTAB
  0
TABLE
  2
DIMSTYLE
  5
A
100
AcDbSymbolTable
 70
1
100
AcDbDimStyleTable
 71
0
  0
DIMSTYLE
105
20F
100
AcDbSymbolTableRecord
100
AcDbDimStyleTableRecord
  2
STANDARD
 70
0
  3

  4

 40
1.0
 41
4.7625
 42
1.5875
 43
0.38
 44
3.175
 45
0.0
 46
0.0
 47
0.01
 48
0.01
140
3.96875
141
0.09
142
0.0
143
0.0393700787
144
1.0
145
0.0
146
1.0
147
0.625
 71
1.0
 72
0.0
 73
1
 74
1
 75
0
 76
0
 77
0
 78
8
 79
2
170
1
171
2
172
0
173
0
174
0
175
0
176
0
177
0
178
0
270
2
179
3
271
3
272
3
273
2
274
2
275
0
280
0
281
0
282
0
283
1
284
8
285
0
286
0
287
3
288
0
340
11
278
46
341
20E
342
20E
343
20E
344
20E
  0
ENDTAB
  0
ENDSEC
  0
SECTION
  2
BLOCKS
  0
BLOCK
  5
20
100
AcDbEntity
  8
0
100
AcDbBlockBegin
  2
*Model_Space
 70
0
 10
0.0
 20
0.0
 30
0.0
  3
*Model_Space
  1

  0
ENDBLK
  5
21
100
AcDbEntity
  8
0
100
AcDbBlockEnd
  0
BLOCK
  5
1C
100
AcDbEntity
  8
0
100
AcDbBlockBegin
  2
*Paper_Space
 70
0
 10
0.0
 20
0.0
 30
0.0
  3
*Paper_Space
  1

  0
ENDBLK
  5
1D
100
AcDbEntity
  8
0
100
AcDbBlockEnd
  0
BLOCK
  5
210
100
AcDbEntity
  8
0
100
AcDbBlockBegin
  2
_FILLED
 70
64
 10
0.0
 20
0.0
  3
_FILLED
  1

  0
SOLID
  5
211
100
AcDbEntity
  8
0
  6
BYBLOCK
 62
0
100
AcDbTrace
 10
0.0
 20
0.0
 11
-1.0
 21
0.1666666667
 12
-1.0
 22
-0.1666666667
 13
-1.0
 23
-0.1666666667
  0
ENDBLK
  5
212
100
AcDbEntity
  8
0
  6
BYBLOCK
 62
0
100
AcDbBlockEnd
  0
ENDSEC
  0
SECTION
  2
ENTITIES
  0
LINE
  5
213
100
AcDbEntity
  8
0
100
AcDbLine
 62
7
  6
CONTINUOUS
 10
0.0
 20
0.0
 11
0.0
 21
594.0
  0
LINE
  5
214
100
AcDbEntity
  8
0
100
AcDbLine
 62
7
  6
CONTINUOUS
 10
0.0
 20
0.0
 11
841.0
 21
0.0
  0
LINE
  5
215
100
AcDbEntity
  8
0
100
AcDbLine
 62
7
  6
CONTINUOUS
 10
0.0
 20
594.0
 11
841.0
 21
594.0
  0
LINE
  5
216
100
AcDbEntity
  8
0
100
AcDbLine
 62
7
  6
CONTINUOUS
 10
841.0
 20
0.0
 11
841.0
 21
594.0
  0
LWPOLYLINE
  5
217
100
AcDbEntity
  8
06___PRT_ALL_SURFS
100
AcDbPolyline
 62
7
  6
CONTINUOUS
 90
19
 70
0
 10
79.6541804503
 20
118.1335781015
 10
79.6906537636
 20
117.2802664374
 10
79.7991978601
 20
116.4367172291
 10
79.9781212877
 20
115.6089157916
 10
80.224892469
 20
114.8036233261
 10
80.5370784502
 20
114.0252257552
 10
80.9132166051
 20
113.2760374008
 10
81.3505538507
 20
112.5613269172
 10
81.8459650056
 20
111.8860169031
 10
82.3982356316
 20
111.2523306109
 10
83.0009239023
 20
110.6680216548
 10
83.6529202964
 20
110.1344977956
 10
84.3635724035
 20
109.6477118444
 10
85.1350717488
 20
109.2129187125
 10
85.9596050695
 20
108.8410722832
 10
86.8325929684
 20
108.5398701878
 10
87.7483198512
 20
108.3168419667
 10
88.6998936869
 20
108.179183766
 10
89.6792950496
 20
108.1335777249
  0
LINE
  5
218
100
AcDbEntity
  8
0
100
AcDbLine
 62
7
  6
CONTINUOUS
 10
89.6617540075
 20
106.4838636602
 11
89.6617192709
 21
106.4854029823
  0
LINE
  5
219
100
AcDbEntity
  8
0
100
AcDbLine
 62
7
  6
CONTINUOUS
 10
89.6617192709
 20
106.4854029823
 11
89.6609429144
 21
106.6450293755
  0
LINE
  5
21A
100
AcDbEntity
  8
0
100
AcDbLine
 62
7
  6
CONTINUOUS
 10
79.6541804503
 20
472.7682279485
 11
79.6541804503
 21
471.1492816562
  0
LINE
  5
21B
100
AcDbEntity
  8
06___PRT_ALL_SURFS
100
AcDbLine
 62
7
  6
CONTINUOUS
 10
79.6541804503
 20
471.1184163212
 11
79.6541804503
 21
118.1335781006
  0
LINE
  5
21C
100
AcDbEntity
  8
0
100
AcDbLine
 62
7
  6
CONTINUOUS
 10
79.6541804503
 20
116.4841502818
 11
79.6541804503
 21
118.0962020721
  0
LINE
  5
21D
100
AcDbEntity
  8
06___PRT_ALL_SURFS
100
AcDbLine
 62
7
  6
CONTINUOUS
 10
90.6541804503
 20
122.1554140394
 11
90.6541804503
 21
467.096608523
  0
LWPOLYLINE
  5
21E
100
AcDbEntity
  8
0
100
AcDbPolyline
 62
7
  6
CONTINUOUS
 90
3
 70
0
 10
89.6609429144
 20
106.6450293755
 10
89.6600820846
 20
106.9873163436
 10
89.6601144317
 20
107.0044930361
  0
LINE
  5
21F
100
AcDbEntity
  8
0
100
AcDbLine
 62
7
  6
CONTINUOUS
 10
89.6612972324
 20
107.1185605095
 11
89.6613654837
 21
107.1313259037
  0
LWPOLYLINE
  5
220
100
AcDbEntity
  8
06___PRT_ALL_SURFS
100
AcDbPolyline
 62
7
  6
CONTINUOUS
 90
13
 70
0
 10
90.6541804503
 20
467.096608523
 10
90.6831948282
 20
467.4990483536
 10
90.7595497024
 20
467.8823016869
 10
90.8832450728
 20
468.246368523
 10
91.0582974223
 20
468.5970828089
 10
91.280690268
 20
468.9286105975
 10
91.5383741612
 20
469.223450048
 10
91.832507224
 20
469.4791155313
 10
92.1619313343
 20
469.6980926764
 10
92.5111226762
 20
469.8703365299
 10
92.8749066444
 20
469.9924987738
 10
93.2584578443
 20
470.067927726
 10
93.6617762758
 20
470.0966233865
  0
LINE
  5
221
100
AcDbEntity
  8
0
100
AcDbLine
 62
7
  6
CONTINUOUS
 10
89.6610976129
 20
107.0855103187
 11
89.6611632969
 21
107.0954468522
  0
LINE
  5
222
100
AcDbEntity
  8
0
100
AcDbLine
 62
7
  6
CONTINUOUS
 10
89.6601701954
 20
107.0177459559
 11
89.6602385698
 21
107.0276917453
  0
LWPOLYLINE
  5
223
100
AcDbEntity
  8
0
100
AcDbPolyline
 62
7
  6
CONTINUOUS
 90
3
 70
0
 10
89.6614423359
 20
107.1447162548
 10
89.6618581784
 20
107.1998870274
 10
89.661999586
 20
107.21305103
  0
LINE
  5
224
100
AcDbEntity
  8
0
100
AcDbLine
 62
7
  6
CONTINUOUS
 10
89.660873324
 20
107.0626386639
 11
89.6609526264
 21
107.0690723933
  0
LWPOLYLINE
  5
225
100
AcDbEntity
  8
0
100
AcDbPolyline
 62
7
  6
CONTINUOUS
 90
3
 70
0
 10
89.6603197569
 20
107.0350296373
 10
89.6604135548
 20
107.0404999967
 10
89.6605085523
 20
107.0448366115
  0
LINE
  5
226
100
AcDbEntity
  8
0
100
AcDbLine
 62
7
  6
CONTINUOUS
 10
89.6623369067
 20
107.2375725434
 11
89.6625328195
 21
107.2489460212
  0
LINE
  5
227
100
AcDbEntity
  8
0
100
AcDbLine
 62
7
  6
CONTINUOUS
 10
89.6647826251
 20
107.3562136563
 11
89.6687317631
 21
107.6068982924
  0
LINE
  5
228
100
AcDbEntity
  8
0
100
AcDbLine
 62
7
  6
CONTINUOUS
 10
89.6750852185
 20
107.8958916206
 11
89.6792949362
 21
108.1336229461
  0
LINE
  5
229
100
AcDbEntity
  8
0
100
AcDbLine
 62
7
  6
CONTINUOUS
 10
89.6629682984
 20
107.2703613537
 11
89.6645094886
 21
107.3411565371
  0
LINE
  5
22A
100
AcDbEntity
  8
0
100
AcDbLine
 62
7
  6
CONTINUOUS
 10
89.6687317631
 20
107.6068982924
 11
89.6744978458
 21
107.8670571196
  0
LINE
  5
22B
100
AcDbEntity
  8
06___PRT_ALL_SURFS
100
AcDbLine
 62
7
  6
CONTINUOUS
 10
177.4041804503
 20
108.0971393144
 11
177.4041804503
 21
108.1745123148
  0
LINE
  5
22C
100
AcDbEntity
  8
06___PRT_ALL_SURFS
100
AcDbLine
 62
7
  6
CONTINUOUS
 10
194.9041804503
 20
108.2181190989
 11
194.9041804503
 21
108.1404639834
  0
LINE
  5
22D
100
AcDbEntity
  8
06___PRT_ALL_SURFS
100
AcDbLine
 62
7
  6
CONTINUOUS
 10
232.1548669862
 20
478.4674706052
 11
232.2806196791
 21
478.8688727871
  0
LWPOLYLINE
  5
22E
100
AcDbEntity
  8
06___PRT_ALL_SURFS
100
AcDbPolyline
 62
7
  6
CONTINUOUS
 90
9
 70
0
 10
232.2762027428
 20
478.8294290327
 10
232.445773017
 20
479.1787602616
 10
232.664789409
 20
479.5108350854
 10
232.9269360415
 20
479.8121746154
 10
233.2232164891
 20
480.0732651985
 10
233.5509472704
 20
480.2929913104
 10
233.9063536372
 20
480.4685201405
 10
234.2826568158
 20
480.5959056079
 10
234.6706099496
 20
480.6721906071
  0
LWPOLYLINE
  5
22F
100
AcDbEntity
  8
06___PRT_ALL_SURFS
100
AcDbPolyline
 62
7
  6
CONTINUOUS
 90
4
 70
0
 10
232.2806196791
 20
478.8688727871
 10
232.4573593616
 20
479.2276425763
 10
232.6760316308
 20
479.5542400312
 10
232.9355257303
 20
479.8494476007
  0
LWPOLYLINE
  5
230
100
AcDbEntity
  8
06___PRT_ALL_SURFS
100
AcDbPolyline
 62
7
  6
CONTINUOUS
 90
4
 70
0
 10
233.5585551255
 20
108.9259649721
 10
233.9113799475
 20
108.7527562882
 10
234.2838212142
 20
108.6271602314
 10
234.6694858819
 20
108.5513326879
  0
LWPOLYLINE
  5
231
100
AcDbEntity
  8
06___PRT_ALL_SURFS
100
AcDbPolyline
 62
7
  6
CONTINUOUS
 90
7
 70
0
 10
232.2553617574
 20
110.4464488816
 10
232.2832669668
 20
110.3767492456
 10
232.4573674065
 20
110.024366079
 10
232.676042765
 20
109.6977680524
 10
232.9355394273
 20
109.4025612992
 10
233.231403071
 20
109.1438131142
 10
233.5585551255
 20
108.9259649721
  0
LWPOLYLINE
  5
232
100
AcDbEntity
  8
06___PRT_ALL_SURFS
100
AcDbPolyline
 62
7
  6
CONTINUOUS
 90
5
 70
0
 10
232.1548669812
 20
110.7845519759
 10
232.2762027332
 20
110.4225935534
 10
232.4457730026
 20
110.0732623262
 10
232.6647893905
 20
109.7411875014
 10
232.9269360207
 20
109.439847968
  0
LINE
  5
233
100
AcDbEntity
  8
06___PRT_ALL_SURFS
100
AcDbLine
 62
7
  6
CONTINUOUS
 10
232.0541804503
 20
111.5552084788
 11
232.0801275874
 21
111.1615853769
  0
LINE
  5
234
100
AcDbEntity
  8
06___PRT_ALL_SURFS
100
AcDbLine
 62
7
  6
CONTINUOUS
 10
212.0541804503
 20
461.8170138469
 11
212.0541804503
 21
127.4350087156
  0
LWPOLYLINE
  5
235
100
AcDbEntity
  8
06___PRT_ALL_SURFS
100
AcDbPolyline
 62
7
  6
CONTINUOUS
 90
16
 70
0
 10
212.0541804503
 20
127.4350087156
 10
212.0093566685
 20
126.5950806832
 10
211.8812764365
 20
125.7785618906
 10
211.6699397541
 20
124.9854523379
 10
211.3715424511
 20
124.2067051977
 10
210.9898886978
 20
123.4513672973
 10
210.5363910054
 20
122.7465791184
 10
210.0077738541
 20
122.0943144596
 10
209.4073127636
 20
121.4925995224
 10
208.7562468045
 20
120.9626533924
 10
208.0525887056
 20
120.5077566116
 10
207.2983257381
 20
120.1246286381
 10
206.5206587863
 20
119.8246469316
 10
205.7286548119
 20
119.6116039788
 10
204.9132468532
 20
119.4817072932
 10
204.0744349104
 20
119.4349568746
  0
LINE
  5
236
100
AcDbEntity
  8
06___PRT_ALL_SURFS
100
AcDbLine
 62
7
  6
CONTINUOUS
 10
232.0541804503
 20
477.7254838817
 11
232.0799275786
 21
478.1176797615
  0
LINE
  5
237
100
AcDbEntity
  8
06___PRT_ALL_SURFS
100
AcDbLine
 62
7
  6
CONTINUOUS
 10
232.0801275888
 20
478.0904371962
 11
232.1548669862
 21
478.4674706052
  0
LINE
  5
238
100
AcDbEntity
  8
0
100
AcDbLine
 62
7
  6
CONTINUOUS
 10
249.2579489849
 20
107.4749852728
 11
249.3493580302
 21
107.4617180648
  0
LWPOLYLINE
  5
239
100
AcDbEntity
  8
06___PRT_ALL_SURFS
100
AcDbPolyline
 62
7
  6
CONTINUOUS
 90
3
 70
0
 10
232.0799283102
 20
111.1343372527
 10
232.1567299218
 20
110.7488688107
 10
232.2553617574
 20
110.4464488816
  0
LWPOLYLINE
  5
23A
100
AcDbEntity
  8
06___PRT_ALL_SURFS
100
AcDbPolyline
 62
7
  6
CONTINUOUS
 90
34
 70
0
 10
244.9039277863
 20
475.6849235793
 10
244.8917211233
 20
476.0336405998
 10
244.8567542176
 20
476.3697195763
 10
244.8014092815
 20
476.6918544179
 10
244.7281937122
 20
476.9985134208
 10
244.6393544735
 20
477.2894921258
 10
244.5365422463
 20
477.5657937584
 10
244.4215138609
 20
477.8273788136
 10
244.2962443184
 20
478.0736836528
 10
244.1622598615
 20
478.3050710748
 10
244.0211434044
 20
478.5216578353
 10
243.87446925
 20
478.7235565718
 10
243.7235217676
 20
478.9112480896
 10
243.5699866963
 20
479.0846977921
 10
243.414778308
 20
479.2447498844
 10
243.2576816795
 20
479.3931248242
 10
243.0998866827
 20
479.5299536867
 10
242.9419665162
 20
479.6559075216
 10
242.7822875461
 20
479.7731285513
 10
242.6213811044
 20
479.8818035622
 10
242.4597390574
 20
479.982150094
 10
242.2952242517
 20
480.0758228138
 10
242.1281284707
 20
480.1627788854
 10
241.9587349016
 20
480.2429909516
 10
241.7845671062
 20
480.3175633239
 10
241.6057922625
 20
480.3861731392
 10
241.4225808747
 20
480.4485048023
 10
241.2322347805
 20
480.5050400992
 10
241.0349047025
 20
480.5551092081
 10
240.8307460877
 20
480.5980388211
 10
240.6169467571
 20
480.6335752294
 10
240.3927181947
 20
480.6607114007
 10
240.1593923867
 20
480.6781112471
 10
239.9173965676
 20
480.684601519
  0
LINE
  5
23B
100
AcDbEntity
  8
06___PRT_ALL_SURFS
100
AcDbLine
 62
7
  6
CONTINUOUS
 10
235.061753924
 20
108.5265752557
 11
235.0617084931
 21
108.5552450913
  0
LINE
  5
23C
100
AcDbEntity
  8
06___PRT_ALL_SURFS
100
AcDbLine
 62
7
  6
CONTINUOUS
 10
232.0541804503
 20
111.5552084788
 11
232.0541804503
 21
477.6968140836
  0
LINE
  5
23D
100
AcDbEntity
  8
06___PRT_ALL_SURFS
100
AcDbLine
 62
7
  6
CONTINUOUS
 10
244.9039277863
 20
113.5670968531
 11
244.9039277863
 21
475.6849235793
  0
LINE
  5
23E
100
AcDbEntity
  8
06___PRT_ALL_SURFS
100
AcDbLine
 62
7
  6
CONTINUOUS
 10
235.0617084931
 20
480.6967774711
 11
235.061753924
 21
480.7254473067
  0
LWPOLYLINE
  5
23F
100
AcDbEntity
  8
06___PRT_ALL_SURFS
100
AcDbPolyline
 62
7
  6
CONTINUOUS
 90
67
 70
0
 10
497.1269367339
 20
109.5387181002
 10
523.9807133278
 20
109.8396728237
 10
551.3002282075
 20
110.2242141769
 10
578.8793004864
 20
110.7815395957
 10
602.7974190589
 20
111.6731290253
 10
620.986965681
 20
112.9708599696
 10
635.4213369532
 20
114.6179228965
 10
648.3078875602
 20
116.6346219078
 10
660.0627430098
 20
119.0481207073
 10
670.233161095
 20
121.6811725162
 10
679.6886262918
 20
124.6738701747
 10
688.4683303576
 20
128.0127960661
 10
696.4859164823
 20
131.6089098798
 10
704.3752870218
 20
135.6960139348
 10
712.3063426327
 20
140.3849925532
 10
720.0464963527
 20
145.5626913969
 10
727.5912956455
 20
151.234642547
 10
734.932177556
 20
157.4117102624
 10
742.0167160922
 20
164.0690625861
 10
748.7754438864
 20
171.1549761833
 10
755.1811358949
 20
178.6489346828
 10
761.2133536894
 20
186.5367634708
 10
766.8249476931
 20
194.7643929597
 10
771.992801539
 20
203.3020514918
 10
776.7030076008
 20
212.1339321919
 10
780.9326993889
 20
221.2191862932
 10
784.6715854623
 20
230.5357936775
 10
787.9051532742
 20
240.0529205089
 10
790.6131822772
 20
249.7123425268
 10
792.7852874
 20
259.4631454545
 10
794.4226799326
 20
269.2963681975
 10
795.524087419
 20
279.2152809588
 10
796.0871249977
 20
289.2085570361
 10
796.1086060554
 20
299.2291566824
 10
795.5889755226
 20
309.2274069211
 10
794.5314493132
 20
319.157425384
 10
792.9368163777
 20
329.0059646064
 10
790.8048870646
 20
338.7720495947
 10
788.1365388378
 20
348.4459699098
 10
784.9427019686
 20
357.978437246
 10
781.2433758523
 20
367.3113775972
 10
777.0533440324
 20
376.4128815785
 10
772.3822317415
 20
385.2619051084
 10
767.251626484
 20
393.8208283446
 10
761.6742335123
 20
402.0746985693
 10
755.6732951759
 20
409.9920801518
 10
749.2965588676
 20
417.5176007457
 10
742.5653328562
 20
424.6362746484
 10
735.5058386437
 20
431.3281360854
 10
728.1857125159
 20
437.5424152384
 10
720.6540675175
 20
443.2564480616
 10
712.9217840806
 20
448.4778342146
 10
705.0021247661
 20
453.2069180905
 10
697.1251639154
 20
457.3324870452
 10
689.1241828064
 20
460.9656672104
 10
680.3817270903
 20
464.3356653479
 10
670.9910537421
 20
467.3518815289
 10
660.9085860543
 20
470.0058506895
 10
649.2677524098
 20
472.4428910366
 10
636.4978673068
 20
474.4870371038
 10
622.2056901802
 20
476.167502238
 10
604.2562043362
 20
477.5003042107
 10
580.8357736636
 20
478.4178146697
 10
553.8533763998
 20
478.9862419392
 10
526.8129129041
 20
479.3770827556
 10
499.637128783
 20
479.6876305482
 10
448.7672180025
 20
480.1477267671
  0
LWPOLYLINE
  5
240
100
AcDbEntity
  8
06___PRT_ALL_SURFS
100
AcDbPolyline
 62
7
  6
CONTINUOUS
 90
3
 70
0
 10
314.0963457623
 20
108.1861995472
 10
338.8081047431
 20
108.3728021869
 10
497.1269367339
 20
109.5387181002
  0
LINE
  5
241
100
AcDbEntity
  8
06___PRT_ALL_SURFS
100
AcDbLine
 62
7
  6
CONTINUOUS
 10
245.9573039173
 20
106.8181344371
 11
265.1637551688
 21
106.8998074126
  0
LINE
  5
242
100
AcDbEntity
  8
06___PRT_ALL_SURFS
100
AcDbLine
 62
7
  6
CONTINUOUS
 10
194.9041804503
 20
108.1404639834
 11
177.4041804503
 21
108.0971393144
  0
LINE
  5
243
100
AcDbEntity
  8
06___PRT_ALL_SURFS
100
AcDbLine
 62
7
  6
CONTINUOUS
 10
177.4041804503
 20
108.1745123148
 11
194.9041804503
 21
108.2181190989
  0
LINE
  5
244
100
AcDbEntity
  8
06___PRT_ALL_SURFS
100
AcDbLine
 62
7
  6
CONTINUOUS
 10
89.6792949362
 20
108.1336229461
 11
231.4073072477
 21
108.4934197156
  0
LINE
  5
245
100
AcDbEntity
  8
06___PRT_ALL_SURFS
100
AcDbLine
 62
7
  6
CONTINUOUS
 10
235.0617084931
 20
108.5552450913
 11
239.9173966195
 21
108.5674212465
  0
LINE
  5
246
100
AcDbEntity
  8
06___PRT_ALL_SURFS
100
AcDbLine
 62
7
  6
CONTINUOUS
 10
159.7063103497
 20
106.5779978134
 11
245.9573039173
 21
106.8181344371
  0
LINE
  5
247
100
AcDbEntity
  8
06___PRT_ALL_SURFS
100
AcDbLine
 62
7
  6
CONTINUOUS
 10
89.6617520373
 20
106.4838636586
 11
159.7063103497
 21
106.5779978134
  0
LWPOLYLINE
  5
248
100
AcDbEntity
  8
0
100
AcDbPolyline
 62
7
  6
CONTINUOUS
 90
6
 70
0
 10
250.8248925758
 20
107.3626018393
 10
251.0174932885
 20
107.3564828928
 10
251.2377785439
 20
107.3481987019
 10
251.4891541159
 20
107.3368754943
 10
251.7947151238
 20
107.3215304066
 10
252.1482854103
 20
107.3010647168
  0
LINE
  5
249
100
AcDbEntity
  8
06___PRT_ALL_SURFS
100
AcDbLine
 62
7
  6
CONTINUOUS
 10
234.6706099466
 20
108.5798319557
 11
235.0617084931
 21
108.5552450913
  0
LWPOLYLINE
  5
24A
100
AcDbEntity
  8
0
100
AcDbPolyline
 62
7
  6
CONTINUOUS
 90
10
 70
0
 10
252.1482854103
 20
107.3010647168
 10
253.6506070496
 20
107.2000051652
 10
254.3374172422
 20
107.1519621334
 10
255.1867768045
 20
107.0986981808
 10
256.2122283168
 20
107.0420512496
 10
257.4002290853
 20
106.9863682191
 10
258.7768916319
 20
106.9385911523
 10
260.3753260369
 20
106.9034305886
 10
262.1624220415
 20
106.8856619949
 10
263.4831877766
 20
106.8857978636
  0
LWPOLYLINE
  5
24B
100
AcDbEntity
  8
06___PRT_ALL_SURFS
100
AcDbPolyline
 62
7
  6
CONTINUOUS
 90
13
 70
0
 10
93.6617762756
 20
119.155399176
 10
93.2584577286
 20
119.1840968024
 10
92.8749064549
 20
119.2595272271
 10
92.5111224544
 20
119.3816904499
 10
92.1619311377
 20
119.5539346289
 10
91.8325070942
 20
119.7729116061
 10
91.5383740923
 20
120.0285769078
 10
91.2806902415
 20
120.3234164706
 10
91.0582974321
 20
120.6549443578
 10
90.8832451044
 20
121.0056582866
 10
90.7595497381
 20
121.3697241627
 10
90.6831948534
 20
121.7529760803
 10
90.6541804503
 20
122.1554140394
  0
LINE
  5
24C
100
AcDbEntity
  8
0
100
AcDbLine
 62
7
  6
CONTINUOUS
 10
247.7894499247
 20
107.6362680802
 11
248.3533967902
 21
107.5842858186
  0
LINE
  5
24D
100
AcDbEntity
  8
0
100
AcDbLine
 62
7
  6
CONTINUOUS
 10
248.3533967902
 20
107.5842858186
 11
248.4582249911
 21
107.5740373876
  0
LINE
  5
24E
100
AcDbEntity
  8
0
100
AcDbLine
 62
7
  6
CONTINUOUS
 10
247.6174003131
 20
107.652990641
 11
247.7894499247
 21
107.6362680802
  0
LINE
  5
24F
100
AcDbEntity
  8
0
100
AcDbLine
 62
7
  6
CONTINUOUS
 10
248.4582249911
 20
107.5740373876
 11
248.5565164896
 21
107.563964454
  0
LINE
  5
250
100
AcDbEntity
  8
0
100
AcDbLine
 62
7
  6
CONTINUOUS
 10
247.4469003587
 20
107.6705840026
 11
247.6174003131
 21
107.652990641
  0
LINE
  5
251
100
AcDbEntity
  8
0
100
AcDbLine
 62
7
  6
CONTINUOUS
 10
248.5565164896
 20
107.563964454
 11
248.6481349967
 21
107.554090955
  0
LINE
  5
252
100
AcDbEntity
  8
0
100
AcDbLine
 62
7
  6
CONTINUOUS
 10
247.3330412391
 20
107.6829598266
 11
247.4469003587
 21
107.6705840026
  0
LINE
  5
253
100
AcDbEntity
  8
0
100
AcDbLine
 62
7
  6
CONTINUOUS
 10
242.992417437
 20
108.2007981341
 11
244.620127539
 21
108.0226064054
  0
LINE
  5
254
100
AcDbEntity
  8
0
100
AcDbLine
 62
7
  6
CONTINUOUS
 10
247.2159132077
 20
107.696220766
 11
247.3330412391
 21
107.6829598266
  0
LINE
  5
255
100
AcDbEntity
  8
0
100
AcDbLine
 62
7
  6
CONTINUOUS
 10
248.6481349967
 20
107.554090955
 11
248.7331384294
 21
107.5444628116
  0
LINE
  5
256
100
AcDbEntity
  8
0
100
AcDbLine
 62
7
  6
CONTINUOUS
 10
242.4468804251
 20
108.2635000735
 11
242.992417437
 21
108.2007981341
  0
LINE
  5
257
100
AcDbEntity
  8
0
100
AcDbLine
 62
7
  6
CONTINUOUS
 10
244.620127539
 20
108.0226064054
 11
245.0034370028
 21
107.9785831779
  0
LWPOLYLINE
  5
258
100
AcDbEntity
  8
0
100
AcDbPolyline
 62
7
  6
CONTINUOUS
 90
3
 70
0
 10
248.7331384294
 20
107.5444628116
 10
248.812142287
 20
107.5350851408
 10
248.8496146792
 20
107.5304895853
  0
LINE
  5
259
100
AcDbEntity
  8
0
100
AcDbLine
 62
7
  6
CONTINUOUS
 10
239.9173966195
 20
108.5674212465
 11
240.8634038673
 21
108.4549730558
  0
LINE
  5
25A
100
AcDbEntity
  8
0
100
AcDbLine
 62
7
  6
CONTINUOUS
 10
247.0298482549
 20
107.7183335103
 11
247.2159132077
 21
107.696220766
  0
LINE
  5
25B
100
AcDbEntity
  8
0
100
AcDbLine
 62
7
  6
CONTINUOUS
 10
240.8634038673
 20
108.4549730558
 11
242.4468804251
 21
108.2635000735
  0
LINE
  5
25C
100
AcDbEntity
  8
0
100
AcDbLine
 62
7
  6
CONTINUOUS
 10
245.0034370028
 20
107.9785831779
 11
245.3616980396
 21
107.935393362
  0
LWPOLYLINE
  5
25D
100
AcDbEntity
  8
0
100
AcDbPolyline
 62
7
  6
CONTINUOUS
 90
13
 70
0
 10
249.5914136417
 20
107.428014805
 10
249.6328221255
 20
107.4229107047
 10
249.6766565678
 20
107.4177968217
 10
249.7230840062
 20
107.4127214194
 10
249.7735473279
 20
107.4077156258
 10
249.827689647
 20
107.4028326408
 10
249.8858678466
 20
107.3981224406
 10
249.9505954668
 20
107.3936169379
 10
250.0212822648
 20
107.3893560643
 10
250.0985184795
 20
107.3853633941
 10
250.1865883724
 20
107.3816285121
 10
250.2844604002
 20
107.3781053441
 10
250.8248925758
 20
107.3626018393
  0
LINE
  5
25E
100
AcDbEntity
  8
0
100
AcDbLine
 62
7
  6
CONTINUOUS
 10
246.8256585358
 20
107.743881383
 11
247.0298482549
 21
107.7183335103
  0
LINE
  5
25F
100
AcDbEntity
  8
0
100
AcDbLine
 62
7
  6
CONTINUOUS
 10
245.3616980396
 20
107.935393362
 11
245.6917653664
 21
107.8937206956
  0
LINE
  5
260
100
AcDbEntity
  8
0
100
AcDbLine
 62
7
  6
CONTINUOUS
 10
248.8857945458
 20
107.5259625521
 11
248.98732073
 21
107.5127990509
  0
LINE
  5
261
100
AcDbEntity
  8
0
100
AcDbLine
 62
7
  6
CONTINUOUS
 10
246.5218323362
 20
107.7836333822
 11
246.8256585358
 21
107.743881383
  0
LWPOLYLINE
  5
262
100
AcDbEntity
  8
0
100
AcDbPolyline
 62
7
  6
CONTINUOUS
 90
3
 70
0
 10
245.6917653664
 20
107.8937206956
 10
246.2693227594
 20
107.8174162609
 10
246.5218323362
 20
107.7836333822
  0
LINE
  5
263
100
AcDbEntity
  8
0
100
AcDbLine
 62
7
  6
CONTINUOUS
 10
248.98732073
 20
107.5127990509
 11
249.0805089854
 21
107.5001628167
  0
LWPOLYLINE
  5
264
100
AcDbEntity
  8
0
100
AcDbPolyline
 62
7
  6
CONTINUOUS
 90
3
 70
0
 10
249.479857115
 20
107.4429877229
 10
249.5154338973
 20
107.4380747648
 10
249.5914136417
 20
107.428014805
  0
LINE
  5
265
100
AcDbEntity
  8
0
100
AcDbLine
 62
7
  6
CONTINUOUS
 10
249.0805089854
 20
107.5001628167
 11
249.1692761608
 21
107.4877126156
  0
LINE
  5
266
100
AcDbEntity
  8
0
100
AcDbLine
 62
7
  6
CONTINUOUS
 10
249.4129067174
 20
107.4525256984
 11
249.445931561
 21
107.4477923931
  0
LINE
  5
267
100
AcDbEntity
  8
0
100
AcDbLine
 62
7
  6
CONTINUOUS
 10
249.1985913085
 20
107.4835305829
 11
249.2281321787
 21
107.4792888994
  0
LWPOLYLINE
  5
268
100
AcDbEntity
  8
06___PRT_ALL_SURFS
100
AcDbPolyline
 62
7
  6
CONTINUOUS
 90
34
 70
0
 10
239.9173966735
 20
108.5674188082
 10
240.2465274316
 20
108.5791225217
 10
240.5643505588
 20
108.6111554386
 10
240.8697572822
 20
108.6614987004
 10
241.1617867405
 20
108.7281219414
 10
241.4398745498
 20
108.8090626615
 10
241.7038200299
 20
108.9024944338
 10
241.9532895612
 20
109.0065787173
 10
242.1881997252
 20
109.1195837093
 10
242.4089239014
 20
109.2400524312
 10
242.6152148249
 20
109.3662306941
 10
242.8076606855
 20
109.4968740216
 10
242.9878882177
 20
109.6316697362
 10
243.155807381
 20
109.769242979
 10
243.3120808058
 20
109.9088294308
 10
243.4591732287
 20
110.0516068267
 10
243.5972166313
 20
110.1969229219
 10
243.7263957357
 20
110.3441775604
 10
243.8487830977
 20
110.4951911788
 10
243.9643287544
 20
110.6496227593
 10
244.0730017557
 20
110.807140136
 10
244.1763697656
 20
110.9700195469
 10
244.27412205
 20
111.1381024219
 10
244.3659625553
 20
111.311236164
 10
244.4528726557
 20
111.4920502094
 10
244.5341990755
 20
111.6804661485
 10
244.6092952861
 20
111.8764196937
 10
244.6784293871
 20
112.0828121067
 10
244.7404869372
 20
112.2995100403
 10
244.794349455
 20
112.526426565
 10
244.8393782449
 20
112.7666600797
 10
244.8739763159
 20
113.0210583241
 10
244.8961111691
 20
113.2880773561
 10
244.9039277857
 20
113.5670968531
  0
LWPOLYLINE
  5
269
100
AcDbEntity
  8
06___PRT_ALL_SURFS
100
AcDbPolyline
 62
7
  6
CONTINUOUS
 90
4
 70
0
 10
272.080895155
 20
107.0683382284
 10
289.7157966597
 20
107.7215381127
 10
294.0846615733
 20
107.8479626925
 10
298.7000499444
 20
107.9554381905
  0
LWPOLYLINE
  5
26A
100
AcDbEntity
  8
06___PRT_ALL_SURFS
100
AcDbPolyline
 62
7
  6
CONTINUOUS
 90
5
 70
0
 10
234.978176981
 20
108.5220528448
 10
235.0130455035
 20
108.5231662484
 10
235.0383690117
 20
108.5242922853
 10
235.0546051519
 20
108.5254286308
 10
235.061753924
 20
108.5265752557
  0
LINE
  5
26B
100
AcDbEntity
  8
06___PRT_ALL_SURFS
100
AcDbLine
 62
7
  6
CONTINUOUS
 10
234.8825507704
 20
108.5198502792
 11
234.978176981
 21
108.5220528448
  0
LWPOLYLINE
  5
26C
100
AcDbEntity
  8
06___PRT_ALL_SURFS
100
AcDbPolyline
 62
7
  6
CONTINUOUS
 90
4
 70
0
 10
265.1637551688
 20
106.8998074126
 10
267.3328079723
 20
106.9364191061
 10
269.641268706
 20
106.9934274509
 10
272.080895155
 20
107.0683382284
  0
LWPOLYLINE
  5
26D
100
AcDbEntity
  8
06___PRT_ALL_SURFS
100
AcDbPolyline
 62
7
  6
CONTINUOUS
 90
3
 70
0
 10
298.7000499444
 20
107.9554381905
 10
308.6944326328
 20
108.1224923885
 10
314.0963457623
 20
108.1861995472
  0
LINE
  5
26E
100
AcDbEntity
  8
06___PRT_ALL_SURFS
100
AcDbLine
 62
7
  6
CONTINUOUS
 10
234.6826261715
 20
108.5165659772
 11
234.8825507704
 21
108.5198502792
  0
LINE
  5
26F
100
AcDbEntity
  8
06___PRT_ALL_SURFS
100
AcDbLine
 62
7
  6
CONTINUOUS
 10
234.0641703245
 20
108.5097491984
 11
234.6826261715
 21
108.5165659772
  0
LINE
  5
270
100
AcDbEntity
  8
06___PRT_ALL_SURFS
100
AcDbLine
 62
7
  6
CONTINUOUS
 10
231.4073072477
 20
108.4934197156
 11
234.0641703245
 21
108.5097491984
  0
LINE
  5
271
100
AcDbEntity
  8
06___PRT_ALL_SURFS
100
AcDbLine
 62
7
  6
CONTINUOUS
 10
93.6617762756
 20
119.155399176
 11
204.0744349104
 21
119.4349568746
  0
LWPOLYLINE
  5
272
100
AcDbEntity
  8
06___PRT_ALL_SURFS
100
AcDbPolyline
 62
7
  6
CONTINUOUS
 90
34
 70
0
 10
563.2323715114
 20
160.9115733169
 10
559.029979876
 20
160.730317715
 10
554.9485359686
 20
160.6185079238
 10
550.9873403487
 20
160.569818931
 10
547.1508776759
 20
160.5781438831
 10
543.4340316422
 20
160.637557956
 10
539.8219168914
 20
160.7429892256
 10
536.3115338393
 20
160.8897659233
 10
532.9060909108
 20
161.0732765574
 10
529.6001270699
 20
161.2896580905
 10
526.3954805241
 20
161.5354626548
 10
523.2957216064
 20
161.8076967403
 10
520.2984372315
 20
162.1039319872
 10
517.4108254794
 20
162.42077996
 10
514.6300737967
 20
162.7558726539
 10
511.9381018933
 20
163.1091115502
 10
509.3405049528
 20
163.4776919618
 10
506.8341131985
 20
163.8599927335
 10
504.3875421236
 20
164.2593596112
 10
502.002588556
 20
164.6744331476
 10
499.6789757579
 20
165.104104021
 10
497.3825173558
 20
165.5541550858
 10
495.1101491732
 20
166.0251545988
 10
492.8663010236
 20
166.5160533938
 10
490.6285610724
 20
167.0319916871
 10
488.3899377286
 20
167.5753492303
 10
486.1592738502
 20
168.1447674369
 10
483.9382220945
 20
168.7405008496
 10
481.7255401632
 20
169.363583626
 10
479.524424099
 20
170.01383264
 10
477.3431065111
 20
170.6893858365
 10
475.1855188113
 20
171.3893942342
 10
473.0496627259
 20
172.1148731338
 10
470.9347611011
 20
172.8665619802
  0
LINE
  5
273
100
AcDbEntity
  8
06___PRT_ALL_SURFS
100
AcDbLine
 62
7
  6
CONTINUOUS
 10
548.8068346503
 20
159.1213159391
 11
543.7091818045
 21
159.2965467853
  0
LINE
  5
274
100
AcDbEntity
  8
06___PRT_ALL_SURFS
100
AcDbLine
 62
7
  6
CONTINUOUS
 10
471.499373905
 20
418.9271747192
 11
472.1876563198
 21
419.1865180088
  0
LINE
  5
275
100
AcDbEntity
  8
06___PRT_ALL_SURFS
100
AcDbLine
 62
7
  6
CONTINUOUS
 10
472.1876563198
 20
419.1865180088
 11
472.8453296603
 21
419.4304645119
  0
LINE
  5
276
100
AcDbEntity
  8
06___PRT_ALL_SURFS
100
AcDbLine
 62
7
  6
CONTINUOUS
 10
472.8453296603
 20
419.4304645119
 11
473.4704486348
 21
419.658864827
  0
LINE
  5
277
100
AcDbEntity
  8
06___PRT_ALL_SURFS
100
AcDbLine
 62
7
  6
CONTINUOUS
 10
473.4704486348
 20
419.658864827
 11
474.0620042895
 21
419.871910677
  0
LINE
  5
278
100
AcDbEntity
  8
06___PRT_ALL_SURFS
100
AcDbLine
 62
7
  6
CONTINUOUS
 10
474.0620042895
 20
419.871910677
 11
474.8835384019
 21
420.1628366863
  0
LINE
  5
279
100
AcDbEntity
  8
06___PRT_ALL_SURFS
100
AcDbLine
 62
7
  6
CONTINUOUS
 10
474.8835384019
 20
420.1628366863
 11
475.6305740715
 21
420.4224289215
  0
LINE
  5
27A
100
AcDbEntity
  8
06___PRT_ALL_SURFS
100
AcDbLine
 62
7
  6
CONTINUOUS
 10
475.6305740715
 20
420.4224289215
 11
476.3160437407
 21
420.6564900137
  0
LINE
  5
27B
100
AcDbEntity
  8
06___PRT_ALL_SURFS
100
AcDbLine
 62
7
  6
CONTINUOUS
 10
476.3160437407
 20
420.6564900137
 11
476.956212022
 21
420.8715062308
  0
LINE
  5
27C
100
AcDbEntity
  8
06___PRT_ALL_SURFS
100
AcDbLine
 62
7
  6
CONTINUOUS
 10
476.956212022
 20
420.8715062308
 11
477.5679924812
 21
421.0737607428
  0
LINE
  5
27D
100
AcDbEntity
  8
06___PRT_ALL_SURFS
100
AcDbLine
 62
7
  6
CONTINUOUS
 10
477.5679924812
 20
421.0737607428
 11
478.167593717
 21
421.2689391318
  0
LINE
  5
27E
100
AcDbEntity
  8
06___PRT_ALL_SURFS
100
AcDbLine
 62
7
  6
CONTINUOUS
 10
478.167593717
 20
421.2689391318
 11
478.7649965346
 21
421.46041364
  0
LINE
  5
27F
100
AcDbEntity
  8
06___PRT_ALL_SURFS
100
AcDbLine
 62
7
  6
CONTINUOUS
 10
478.7649965346
 20
421.46041364
 11
479.3624008074
 21
421.6489112092
  0
LINE
  5
280
100
AcDbEntity
  8
06___PRT_ALL_SURFS
100
AcDbLine
 62
7
  6
CONTINUOUS
 10
479.3624008074
 20
421.6489112092
 11
479.9603999153
 21
421.8344487604
  0
LINE
  5
281
100
AcDbEntity
  8
06___PRT_ALL_SURFS
100
AcDbLine
 62
7
  6
CONTINUOUS
 10
479.9603999153
 20
421.8344487604
 11
480.5617519072
 21
422.0176236981
  0
LINE
  5
282
100
AcDbEntity
  8
06___PRT_ALL_SURFS
100
AcDbLine
 62
7
  6
CONTINUOUS
 10
480.5617519072
 20
422.0176236981
 11
481.371411667
 21
422.2594922783
  0
LINE
  5
283
100
AcDbEntity
  8
06___PRT_ALL_SURFS
100
AcDbLine
 62
7
  6
CONTINUOUS
 10
481.371411667
 20
422.2594922783
 11
481.9830315681
 21
422.4388857171
  0
LINE
  5
284
100
AcDbEntity
  8
06___PRT_ALL_SURFS
100
AcDbLine
 62
7
  6
CONTINUOUS
 10
481.9830315681
 20
422.4388857171
 11
482.6149420627
 21
422.6208958244
  0
LINE
  5
285
100
AcDbEntity
  8
06___PRT_ALL_SURFS
100
AcDbLine
 62
7
  6
CONTINUOUS
 10
543.7091818045
 20
159.2965467853
 11
539.0327420762
 21
159.492161111
  0
LINE
  5
286
100
AcDbEntity
  8
06___PRT_ALL_SURFS
100
AcDbLine
 62
7
  6
CONTINUOUS
 10
539.0327420762
 20
159.492161111
 11
534.7469542643
 21
159.6971764264
  0
LINE
  5
287
100
AcDbEntity
  8
06___PRT_ALL_SURFS
100
AcDbLine
 62
7
  6
CONTINUOUS
 10
534.7469542643
 20
159.6971764264
 11
530.8089799051
 21
159.9064811572
  0
LINE
  5
288
100
AcDbEntity
  8
06___PRT_ALL_SURFS
100
AcDbLine
 62
7
  6
CONTINUOUS
 10
530.8089799051
 20
159.9064811572
 11
527.1844939366
 21
160.1175227746
  0
LINE
  5
289
100
AcDbEntity
  8
06___PRT_ALL_SURFS
100
AcDbLine
 62
7
  6
CONTINUOUS
 10
527.1844939366
 20
160.1175227746
 11
523.8528482376
 21
160.3282640578
  0
LINE
  5
28A
100
AcDbEntity
  8
06___PRT_ALL_SURFS
100
AcDbLine
 62
7
  6
CONTINUOUS
 10
523.8528482376
 20
160.3282640578
 11
520.7881093049
 21
160.5406628511
  0
LINE
  5
28B
100
AcDbEntity
  8
06___PRT_ALL_SURFS
100
AcDbLine
 62
7
  6
CONTINUOUS
 10
520.7881093049
 20
160.5406628511
 11
517.9643620741
 21
160.7566718956
  0
LINE
  5
28C
100
AcDbEntity
  8
06___PRT_ALL_SURFS
100
AcDbLine
 62
7
  6
CONTINUOUS
 10
517.9643620741
 20
160.7566718956
 11
515.3652536752
 21
160.9763131252
  0
LINE
  5
28D
100
AcDbEntity
  8
06___PRT_ALL_SURFS
100
AcDbLine
 62
7
  6
CONTINUOUS
 10
515.3652536752
 20
160.9763131252
 11
512.9672053781
 21
161.1993387651
  0
LINE
  5
28E
100
AcDbEntity
  8
06___PRT_ALL_SURFS
100
AcDbLine
 62
7
  6
CONTINUOUS
 10
512.9672053781
 20
161.1993387651
 11
510.7511490921
 21
161.4246945309
  0
LINE
  5
28F
100
AcDbEntity
  8
06___PRT_ALL_SURFS
100
AcDbLine
 62
7
  6
CONTINUOUS
 10
510.7511490921
 20
161.4246945309
 11
508.7049468053
 21
161.6506699662
  0
LINE
  5
290
100
AcDbEntity
  8
06___PRT_ALL_SURFS
100
AcDbLine
 62
7
  6
CONTINUOUS
 10
508.7049468053
 20
161.6506699662
 11
506.8116339858
 21
161.8762391611
  0
LINE
  5
291
100
AcDbEntity
  8
06___PRT_ALL_SURFS
100
AcDbLine
 62
7
  6
CONTINUOUS
 10
506.8116339858
 20
161.8762391611
 11
505.0569735825
 21
162.1003776966
  0
LINE
  5
292
100
AcDbEntity
  8
06___PRT_ALL_SURFS
100
AcDbLine
 62
7
  6
CONTINUOUS
 10
505.0569735825
 20
162.1003776966
 11
503.4319317184
 21
162.3216776935
  0
LINE
  5
293
100
AcDbEntity
  8
06___PRT_ALL_SURFS
100
AcDbLine
 62
7
  6
CONTINUOUS
 10
503.4319317184
 20
162.3216776935
 11
501.9241014657
 21
162.5394566921
  0
LINE
  5
294
100
AcDbEntity
  8
06___PRT_ALL_SURFS
100
AcDbLine
 62
7
  6
CONTINUOUS
 10
501.9241014657
 20
162.5394566921
 11
500.5224780402
 21
162.7531596361
  0
LINE
  5
295
100
AcDbEntity
  8
06___PRT_ALL_SURFS
100
AcDbLine
 62
7
  6
CONTINUOUS
 10
500.5224780402
 20
162.7531596361
 11
499.2203034397
 21
162.9618461966
  0
LINE
  5
296
100
AcDbEntity
  8
06___PRT_ALL_SURFS
100
AcDbLine
 62
7
  6
CONTINUOUS
 10
499.2203034397
 20
162.9618461966
 11
498.0085782496
 21
163.165127651
  0
LINE
  5
297
100
AcDbEntity
  8
06___PRT_ALL_SURFS
100
AcDbLine
 62
7
  6
CONTINUOUS
 10
498.0085782496
 20
163.165127651
 11
496.8796616532
 21
163.3626455054
  0
LINE
  5
298
100
AcDbEntity
  8
06___PRT_ALL_SURFS
100
AcDbLine
 62
7
  6
CONTINUOUS
 10
496.8796616532
 20
163.3626455054
 11
495.8284648881
 21
163.5538149953
  0
LINE
  5
299
100
AcDbEntity
  8
06___PRT_ALL_SURFS
100
AcDbLine
 62
7
  6
CONTINUOUS
 10
495.8284648881
 20
163.5538149953
 11
494.8477179178
 21
163.7386414564
  0
LINE
  5
29A
100
AcDbEntity
  8
06___PRT_ALL_SURFS
100
AcDbLine
 62
7
  6
CONTINUOUS
 10
494.8477179178
 20
163.7386414564
 11
493.9306574532
 21
163.917252615
  0
LINE
  5
29B
100
AcDbEntity
  8
06___PRT_ALL_SURFS
100
AcDbLine
 62
7
  6
CONTINUOUS
 10
493.9306574532
 20
163.917252615
 11
493.0730266143
 21
164.0894650498
  0
LINE
  5
29C
100
AcDbEntity
  8
06___PRT_ALL_SURFS
100
AcDbLine
 62
7
  6
CONTINUOUS
 10
493.0730266143
 20
164.0894650498
 11
492.2682303168
 21
164.255715127
  0
LINE
  5
29D
100
AcDbEntity
  8
06___PRT_ALL_SURFS
100
AcDbLine
 62
7
  6
CONTINUOUS
 10
492.2682303168
 20
164.255715127
 11
491.5148350203
 21
164.4155053893
  0
LINE
  5
29E
100
AcDbEntity
  8
06___PRT_ALL_SURFS
100
AcDbLine
 62
7
  6
CONTINUOUS
 10
491.5148350203
 20
164.4155053893
 11
490.8117132277
 21
164.5683278171
  0
LINE
  5
29F
100
AcDbEntity
  8
06___PRT_ALL_SURFS
100
AcDbLine
 62
7
  6
CONTINUOUS
 10
490.8117132277
 20
164.5683278171
 11
490.1581438994
 21
164.713634368
  0
LINE
  5
2A0
100
AcDbEntity
  8
06___PRT_ALL_SURFS
100
AcDbLine
 62
7
  6
CONTINUOUS
 10
490.1581438994
 20
164.713634368
 11
489.2668872114
 21
164.91692813
  0
LINE
  5
2A1
100
AcDbEntity
  8
06___PRT_ALL_SURFS
100
AcDbLine
 62
7
  6
CONTINUOUS
 10
489.2668872114
 20
164.91692813
 11
488.4635134902
 21
165.1053259379
  0
LINE
  5
2A2
100
AcDbEntity
  8
06___PRT_ALL_SURFS
100
AcDbLine
 62
7
  6
CONTINUOUS
 10
488.4635134902
 20
165.1053259379
 11
487.7177260661
 21
165.2846339731
  0
LINE
  5
2A3
100
AcDbEntity
  8
06___PRT_ALL_SURFS
100
AcDbLine
 62
7
  6
CONTINUOUS
 10
487.7177260661
 20
165.2846339731
 11
486.9974758218
 21
165.4618758833
  0
LINE
  5
2A4
100
AcDbEntity
  8
06___PRT_ALL_SURFS
100
AcDbLine
 62
7
  6
CONTINUOUS
 10
486.9974758218
 20
165.4618758833
 11
486.2765671812
 21
165.6433535242
  0
LINE
  5
2A5
100
AcDbEntity
  8
06___PRT_ALL_SURFS
100
AcDbLine
 62
7
  6
CONTINUOUS
 10
486.2765671812
 20
165.6433535242
 11
485.5513276297
 21
165.8301362137
  0
LINE
  5
2A6
100
AcDbEntity
  8
06___PRT_ALL_SURFS
100
AcDbLine
 62
7
  6
CONTINUOUS
 10
485.5513276297
 20
165.8301362137
 11
484.8280705714
 21
166.0207250396
  0
LINE
  5
2A7
100
AcDbEntity
  8
06___PRT_ALL_SURFS
100
AcDbLine
 62
7
  6
CONTINUOUS
 10
484.8280705714
 20
166.0207250396
 11
484.1095781777
 21
166.2144473089
  0
LINE
  5
2A8
100
AcDbEntity
  8
06___PRT_ALL_SURFS
100
AcDbLine
 62
7
  6
CONTINUOUS
 10
484.1095781777
 20
166.2144473089
 11
483.392258165
 21
166.4124166183
  0
LINE
  5
2A9
100
AcDbEntity
  8
06___PRT_ALL_SURFS
100
AcDbLine
 62
7
  6
CONTINUOUS
 10
483.392258165
 20
166.4124166183
 11
482.6678843383
 21
166.6169923708
  0
LINE
  5
2AA
100
AcDbEntity
  8
06___PRT_ALL_SURFS
100
AcDbLine
 62
7
  6
CONTINUOUS
 10
482.6678843383
 20
166.6169923708
 11
481.9355038901
 21
166.8280104769
  0
LINE
  5
2AB
100
AcDbEntity
  8
06___PRT_ALL_SURFS
100
AcDbLine
 62
7
  6
CONTINUOUS
 10
481.9355038901
 20
166.8280104769
 11
481.2053356597
 21
167.0422195237
  0
LINE
  5
2AC
100
AcDbEntity
  8
06___PRT_ALL_SURFS
100
AcDbLine
 62
7
  6
CONTINUOUS
 10
481.2053356597
 20
167.0422195237
 11
480.4712541083
 21
167.2616738992
  0
LINE
  5
2AD
100
AcDbEntity
  8
06___PRT_ALL_SURFS
100
AcDbLine
 62
7
  6
CONTINUOUS
 10
480.4712541083
 20
167.2616738992
 11
479.9650596451
 21
167.4157094021
  0
LINE
  5
2AE
100
AcDbEntity
  8
06___PRT_ALL_SURFS
100
AcDbLine
 62
7
  6
CONTINUOUS
 10
479.9650596451
 20
167.4157094021
 11
479.4343520688
 21
167.5798942444
  0
LINE
  5
2AF
100
AcDbEntity
  8
06___PRT_ALL_SURFS
100
AcDbLine
 62
7
  6
CONTINUOUS
 10
479.4343520688
 20
167.5798942444
 11
478.8630576646
 21
167.7596643924
  0
LINE
  5
2B0
100
AcDbEntity
  8
06___PRT_ALL_SURFS
100
AcDbLine
 62
7
  6
CONTINUOUS
 10
478.8630576646
 20
167.7596643924
 11
478.2429859791
 21
167.9580955139
  0
LINE
  5
2B1
100
AcDbEntity
  8
06___PRT_ALL_SURFS
100
AcDbLine
 62
7
  6
CONTINUOUS
 10
478.2429859791
 20
167.9580955139
 11
477.571866938
 21
168.1765798913
  0
LINE
  5
2B2
100
AcDbEntity
  8
06___PRT_ALL_SURFS
100
AcDbLine
 62
7
  6
CONTINUOUS
 10
477.571866938
 20
168.1765798913
 11
476.8517848321
 21
168.4152109558
  0
LINE
  5
2B3
100
AcDbEntity
  8
06___PRT_ALL_SURFS
100
AcDbLine
 62
7
  6
CONTINUOUS
 10
476.8517848321
 20
168.4152109558
 11
476.0859935951
 21
168.6737597362
  0
LINE
  5
2B4
100
AcDbEntity
  8
06___PRT_ALL_SURFS
100
AcDbLine
 62
7
  6
CONTINUOUS
 10
476.0859935951
 20
168.6737597362
 11
475.2773899297
 21
168.9520966217
  0
LINE
  5
2B5
100
AcDbEntity
  8
06___PRT_ALL_SURFS
100
AcDbLine
 62
7
  6
CONTINUOUS
 10
475.2773899297
 20
168.9520966217
 11
474.4289073592
 21
169.2500461259
  0
LINE
  5
2B6
100
AcDbEntity
  8
06___PRT_ALL_SURFS
100
AcDbLine
 62
7
  6
CONTINUOUS
 10
474.4289073592
 20
169.2500461259
 11
473.5595776304
 21
169.561562164
  0
LINE
  5
2B7
100
AcDbEntity
  8
06___PRT_ALL_SURFS
100
AcDbLine
 62
7
  6
CONTINUOUS
 10
473.5595776304
 20
169.561562164
 11
472.6817135893
 21
169.882594176
  0
LWPOLYLINE
  5
2B8
100
AcDbEntity
  8
06___PRT_ALL_SURFS
100
AcDbPolyline
 62
7
  6
CONTINUOUS
 90
3
 70
0
 10
472.6817135893
 20
169.882594176
 10
471.8156677084
 20
170.2057703407
 10
471.3936006479
 20
170.3656309359
  0
LINE
  5
2B9
100
AcDbEntity
  8
06___PRT_ALL_SURFS
100
AcDbLine
 62
7
  6
CONTINUOUS
 10
463.0310500945
 20
415.3886662656
 11
464.1286194531
 21
415.884478303
  0
LINE
  5
2BA
100
AcDbEntity
  8
06___PRT_ALL_SURFS
100
AcDbLine
 62
7
  6
CONTINUOUS
 10
464.1286194531
 20
415.884478303
 11
465.1705502962
 21
416.3446211806
  0
LINE
  5
2BB
100
AcDbEntity
  8
06___PRT_ALL_SURFS
100
AcDbLine
 62
7
  6
CONTINUOUS
 10
465.1705502962
 20
416.3446211806
 11
466.158719973
 21
416.7716928125
  0
LINE
  5
2BC
100
AcDbEntity
  8
06___PRT_ALL_SURFS
100
AcDbLine
 62
7
  6
CONTINUOUS
 10
466.158719973
 20
416.7716928125
 11
467.0964984797
 21
417.168711558
  0
LINE
  5
2BD
100
AcDbEntity
  8
06___PRT_ALL_SURFS
100
AcDbLine
 62
7
  6
CONTINUOUS
 10
467.0964984797
 20
417.168711558
 11
467.9874265861
 21
417.5385284201
  0
LINE
  5
2BE
100
AcDbEntity
  8
06___PRT_ALL_SURFS
100
AcDbLine
 62
7
  6
CONTINUOUS
 10
467.9874265861
 20
417.5385284201
 11
468.8338325805
 21
417.8832612429
  0
LINE
  5
2BF
100
AcDbEntity
  8
06___PRT_ALL_SURFS
100
AcDbLine
 62
7
  6
CONTINUOUS
 10
468.8338325805
 20
417.8832612429
 11
469.6395888192
 21
418.2054850491
  0
LINE
  5
2C0
100
AcDbEntity
  8
06___PRT_ALL_SURFS
100
AcDbLine
 62
7
  6
CONTINUOUS
 10
469.6395888192
 20
418.2054850491
 11
470.4087252965
 21
418.5076691395
  0
LWPOLYLINE
  5
2C1
100
AcDbEntity
  8
06___PRT_ALL_SURFS
100
AcDbPolyline
 62
7
  6
CONTINUOUS
 90
3
 70
0
 10
470.4087252965
 20
418.5076691395
 10
471.1434761772
 20
418.7914395528
 10
471.499373905
 20
418.9271747192
  0
LINE
  5
2C2
100
AcDbEntity
  8
06___PRT_ALL_SURFS
100
AcDbLine
 62
7
  6
CONTINUOUS
 10
470.9347611011
 20
172.8665619802
 11
468.8429915723
 21
173.6441895051
  0
LINE
  5
2C3
100
AcDbEntity
  8
06___PRT_ALL_SURFS
100
AcDbLine
 62
7
  6
CONTINUOUS
 10
471.3936006479
 20
170.3656309359
 11
470.5778226386
 21
170.6790492966
  0
LWPOLYLINE
  5
2C4
100
AcDbEntity
  8
06___PRT_ALL_SURFS
100
AcDbPolyline
 62
7
  6
CONTINUOUS
 90
30
 70
0
 10
468.8429915723
 20
173.6441895051
 10
466.7741715651
 20
174.4483605066
 10
464.724211512
 20
175.2814455693
 10
462.6938940088
 20
176.1441308785
 10
460.6849347104
 20
177.0367408447
 10
458.6949161431
 20
177.9615332352
 10
456.7240062195
 20
178.9195371761
 10
454.7736029529
 20
179.9111779307
 10
452.842964492
 20
180.9380621045
 10
450.931981048
 20
182.0013074351
 10
449.0418538214
 20
183.1010807997
 10
447.1737928914
 20
184.2375463771
 10
445.3269150428
 20
185.4120023712
 10
443.5029838687
 20
186.6238198174
 10
441.7069295756
 20
187.8699692229
 10
439.9379365042
 20
189.1510439694
 10
438.19735911
 20
190.4658991754
 10
436.4927928478
 20
191.8081275481
 10
434.8242256601
 20
193.1766736842
 10
433.1915402169
 20
194.5705143549
 10
431.6014307157
 20
195.9823905866
 10
430.0541627613
 20
197.4101312361
 10
428.5486554319
 20
198.8527752695
 10
427.0890851145
 20
200.3040315852
 10
425.6755049169
 20
201.7612786401
 10
424.3069934269
 20
203.2229494387
 10
422.9858739848
 20
204.6839416966
 10
421.712199615
 20
206.1414583913
 10
420.4845109248
 20
207.5944779322
 10
420.2792104916
 20
207.8456700138
  0
LINE
  5
2C5
100
AcDbEntity
  8
06___PRT_ALL_SURFS
100
AcDbLine
 62
7
  6
CONTINUOUS
 10
470.5778226386
 20
170.6790492966
 11
469.8192214944
 21
170.9758058003
  0
LINE
  5
2C6
100
AcDbEntity
  8
06___PRT_ALL_SURFS
100
AcDbLine
 62
7
  6
CONTINUOUS
 10
469.8192214944
 20
170.9758058003
 11
469.130421079
 21
171.2497412685
  0
LINE
  5
2C7
100
AcDbEntity
  8
06___PRT_ALL_SURFS
100
AcDbLine
 62
7
  6
CONTINUOUS
 10
469.130421079
 20
171.2497412685
 11
468.5346623511
 21
171.4901560164
  0
LINE
  5
2C8
100
AcDbEntity
  8
06___PRT_ALL_SURFS
100
AcDbLine
 62
7
  6
CONTINUOUS
 10
468.5346623511
 20
171.4901560164
 11
467.9968038099
 21
171.7100086291
  0
LWPOLYLINE
  5
2C9
100
AcDbEntity
  8
06___PRT_ALL_SURFS
100
AcDbPolyline
 62
7
  6
CONTINUOUS
 90
3
 70
0
 10
467.9627224522
 20
171.7240297895
 10
466.6393251617
 20
172.276374845
 10
465.3129874132
 20
172.845631517
  0
LINE
  5
2CA
100
AcDbEntity
  8
06___PRT_ALL_SURFS
100
AcDbLine
 62
7
  6
CONTINUOUS
 10
465.3129874132
 20
172.845631517
 11
463.9840535161
 21
173.4321579449
  0
LINE
  5
2CB
100
AcDbEntity
  8
06___PRT_ALL_SURFS
100
AcDbLine
 62
7
  6
CONTINUOUS
 10
462.6641279705
 20
174.0311406921
 11
461.3422150267
 21
174.6478854204
  0
LINE
  5
2CC
100
AcDbEntity
  8
06___PRT_ALL_SURFS
100
AcDbLine
 62
7
  6
CONTINUOUS
 10
459.9852651989
 20
175.2990204816
 11
458.5867748114
 21
175.9897810882
  0
LINE
  5
2CD
100
AcDbEntity
  8
06___PRT_ALL_SURFS
100
AcDbLine
 62
7
  6
CONTINUOUS
 10
457.1552586717
 20
176.7182025209
 11
455.680995185
 21
177.4916956257
  0
LINE
  5
2CE
100
AcDbEntity
  8
06___PRT_ALL_SURFS
100
AcDbLine
 62
7
  6
CONTINUOUS
 10
454.1664316248
 20
178.3118364419
 11
452.612003324
 21
179.1814386209
  0
LWPOLYLINE
  5
2CF
100
AcDbEntity
  8
06___PRT_ALL_SURFS
100
AcDbPolyline
 62
7
  6
CONTINUOUS
 90
4
 70
0
 10
451.0056664534
 20
180.1109186489
 10
449.3451574315
 20
181.1061193532
 10
447.6377832095
 20
182.167924271
 10
445.8866550842
 20
183.3002283002
  0
LWPOLYLINE
  5
2D0
100
AcDbEntity
  8
06___PRT_ALL_SURFS
100
AcDbPolyline
 62
7
  6
CONTINUOUS
 90
4
 70
0
 10
444.0846921598
 20
184.5144755149
 10
442.2472253712
 20
185.8078946808
 10
440.4101773615
 20
187.161441661
 10
438.5751426659
 20
188.5791834143
  0
LWPOLYLINE
  5
2D1
100
AcDbEntity
  8
06___PRT_ALL_SURFS
100
AcDbPolyline
 62
7
  6
CONTINUOUS
 90
3
 70
0
 10
436.7476602439
 20
190.0624779809
 10
434.9662677635
 20
191.5837498662
 10
433.2374841485
 20
193.1381683874
  0
LINE
  5
2D2
100
AcDbEntity
  8
06___PRT_ALL_SURFS
100
AcDbLine
 62
7
  6
CONTINUOUS
 10
392.5067037707
 20
332.0121616639
 11
392.6327666657
 21
332.5795503397
  0
LWPOLYLINE
  5
2D3
100
AcDbEntity
  8
06___PRT_ALL_SURFS
100
AcDbPolyline
 62
7
  6
CONTINUOUS
 90
36
 70
0
 10
420.2532947109
 20
381.3723193978
 10
420.9971154581
 20
382.2701610131
 10
422.273013501
 20
383.7584199756
 10
423.5934938498
 20
385.2462931727
 10
424.9539073205
 20
386.7264221798
 10
426.3537916405
 20
388.1964870157
 10
427.7937892033
 20
389.655310014
 10
429.2703124727
 20
391.0975115625
 10
430.7820293544
 20
392.520300734
 10
432.3301258164
 20
393.9234538131
 10
433.9145618827
 20
395.3055957394
 10
435.5357383375
 20
396.6657000366
 10
437.193495401
 20
398.0023250433
 10
438.8869120256
 20
399.3136131404
 10
440.6178975369
 20
400.5998560764
 10
442.3848261369
 20
401.8586928885
 10
444.1811457594
 20
403.0849516815
 10
446.0067920028
 20
404.2784039233
 10
447.8615661967
 20
405.4387576553
 10
449.7380928164
 20
406.5617771613
 10
451.634356863
 20
407.6470991601
 10
453.5514815072
 20
408.696208267
 10
455.4863201106
 20
409.7084107012
 10
457.4360812872
 20
410.6836264106
 10
459.4018295962
 20
411.6237820795
 10
461.3860203646
 20
412.5313237602
 10
463.3861943986
 20
413.4063834094
 10
465.4023497626
 20
414.2502723029
 10
467.4408746131
 20
415.0667259756
 10
469.5027679648
 20
415.8568833147
 10
471.58492362
 20
416.6201761071
 10
473.6878827031
 20
417.3574056379
 10
475.8124774768
 20
418.0693741558
 10
477.955899527
 20
418.7556272788
 10
480.1131749156
 20
419.4151654987
 10
482.278607005
 20
420.0470067977
  0
LWPOLYLINE
  5
2D4
100
AcDbEntity
  8
03___PRT_ALL_CURVES
100
AcDbPolyline
 62
40
  6
CONTINUOUS
 90
81
 70
0
 10
476.821045985
 20
232.9320121811
 10
474.813296369
 20
232.5480489511
 10
472.8309550149
 20
232.1893072421
 10
470.87324927
 20
231.8544976446
 10
468.9401201415
 20
231.5424557031
 10
467.0343632765
 20
231.2525167805
 10
465.1594879819
 20
230.984141194
 10
463.3186528536
 20
230.7367893137
 10
461.5136136422
 20
230.5099217213
 10
459.7457753868
 20
230.3029990512
 10
458.0168214089
 20
230.11578015
 10
456.3295481582
 20
229.9492167118
 10
454.6870303667
 20
229.8045586428
 10
453.092825641
 20
229.6828700961
 10
451.5524230877
 20
229.5844722128
 10
450.071794688
 20
229.5095003807
 10
448.6552512016
 20
229.4579328393
 10
447.3004585008
 20
229.4291192339
 10
446.0034212364
 20
229.4222520613
 10
444.7603557168
 20
229.436486297
 10
443.5683248828
 20
229.4708268305
 10
442.4246033328
 20
229.5242410297
 10
441.3262532247
 20
229.5958089585
 10
440.269486954
 20
229.6850614628
 10
439.2503044755
 20
229.7916420843
 10
438.2649432421
 20
229.9152188217
 10
437.3105907
 20
230.0555575013
 10
436.3846717935
 20
230.2124484063
 10
435.0433796652
 20
230.4788601343
 10
433.7510151226
 20
230.7843269325
 10
432.4980268866
 20
231.1319876589
 10
431.2736754383
 20
231.5283989002
 10
430.0690828116
 20
231.9808427804
 10
428.8840054918
 20
232.4960858424
 10
427.7216212152
 20
233.0788308575
 10
426.5901582686
 20
233.7260410903
 10
425.4971135981
 20
234.4324979598
 10
424.442008236
 20
235.1919950089
 10
423.4229718071
 20
235.9977912377
 10
422.4405442195
 20
236.8419953513
 10
421.4936294936
 20
237.7191341007
 10
420.5721778142
 20
238.6345567132
 10
419.6646702112
 20
239.5967584376
 10
418.7626649302
 20
240.6159961302
 10
418.1606733946
 20
241.3326235352
 10
417.5559080615
 20
242.08352234
 10
416.9465596347
 20
242.872860288
 10
416.3310757399
 20
243.7048547255
 10
415.7089316901
 20
244.58392141
 10
415.0798597202
 20
245.5145257017
 10
414.4441120449
 20
246.5005263309
 10
413.8040207983
 20
247.5433555077
 10
413.1624380947
 20
248.6438388124
 10
412.5222907078
 20
249.8026519562
 10
411.8868040493
 20
251.0198711748
 10
411.2592781907
 20
252.2954228347
 10
410.6428980528
 20
253.6294922109
 10
410.0403879544
 20
255.0233002103
 10
409.4543570634
 20
256.4783266479
 10
409.0271507197
 20
257.6109736923
 10
408.6113789317
 20
258.781387289
 10
408.2077390438
 20
259.992066223
 10
407.8169284006
 20
261.245509279
 10
407.4397142155
 20
262.5444015742
 10
407.0771431792
 20
263.8921735551
 10
406.7303318512
 20
265.2924420002
 10
406.4003967912
 20
266.7488236884
 10
406.0885770408
 20
268.2637318677
 10
405.7966015692
 20
269.8347656645
 10
405.5263218277
 20
271.4583206742
 10
405.2795892675
 20
273.1307924927
 10
405.0578929612
 20
274.8480286444
 10
404.8612724668
 20
276.6036843689
 10
404.6894049633
 20
278.3908668349
 10
404.54196763
 20
280.2026832108
 10
404.3821756988
 20
282.6435723594
 10
404.2605560022
 20
285.0920312464
 10
404.1724232646
 20
287.524089915
 10
404.1133747309
 20
289.921106732
 10
404.0801377267
 20
292.2857533574
 10
404.0697220981
 20
294.6260297747
  0
LWPOLYLINE
  5
2D5
100
AcDbEntity
  8
06___PRT_ALL_SURFS
100
AcDbPolyline
 62
7
  6
CONTINUOUS
 90
3
 70
0
 10
431.5564531696
 20
194.7285977946
 10
429.9411079771
 20
196.3350132192
 10
428.3911595151
 20
197.9533032443
  0
LWPOLYLINE
  5
2D6
100
AcDbEntity
  8
06___PRT_ALL_SURFS
100
AcDbPolyline
 62
7
  6
CONTINUOUS
 90
3
 70
0
 10
426.9043979181
 20
199.581292629
 10
425.4927651975
 20
201.1993004651
 10
424.1548320121
 20
202.8007773734
  0
LWPOLYLINE
  5
2D7
100
AcDbEntity
  8
06___PRT_ALL_SURFS
100
AcDbPolyline
 62
7
  6
CONTINUOUS
 90
3
 70
0
 10
422.8854222029
 20
204.3840810248
 10
421.6890276746
 20
205.9356969129
 10
420.5668679864
 20
207.445335167
  0
LINE
  5
2D8
100
AcDbEntity
  8
06___PRT_ALL_SURFS
100
AcDbLine
 62
7
  6
CONTINUOUS
 10
419.5100746416
 20
208.9160814866
 11
418.508246265
 21
210.3548931082
  0
LWPOLYLINE
  5
2D9
100
AcDbEntity
  8
06___PRT_ALL_SURFS
100
AcDbPolyline
 62
7
  6
CONTINUOUS
 90
3
 70
0
 10
417.5610198577
 20
211.7555877377
 10
416.6631692493
 20
213.1196605514
 10
415.79858052
 20
214.4668025374
  0
LINE
  5
2DA
100
AcDbEntity
  8
06___PRT_ALL_SURFS
100
AcDbLine
 62
7
  6
CONTINUOUS
 10
414.9661005869
 20
215.7955233195
 11
414.1642446603
 21
217.1052860982
  0
LINE
  5
2DB
100
AcDbEntity
  8
06___PRT_ALL_SURFS
100
AcDbLine
 62
7
  6
CONTINUOUS
 10
413.3780970904
 20
218.4184325804
 11
412.6068130338
 21
219.735179759
  0
LINE
  5
2DC
100
AcDbEntity
  8
06___PRT_ALL_SURFS
100
AcDbLine
 62
7
  6
CONTINUOUS
 10
411.8503100866
 20
221.0544759616
 11
411.0961392078
 21
222.3975513276
  0
LINE
  5
2DD
100
AcDbEntity
  8
06___PRT_ALL_SURFS
100
AcDbLine
 62
7
  6
CONTINUOUS
 10
410.345002409
 20
223.7645863518
 11
409.5980941399
 21
225.1560451629
  0
LWPOLYLINE
  5
2DE
100
AcDbEntity
  8
06___PRT_ALL_SURFS
100
AcDbPolyline
 62
7
  6
CONTINUOUS
 90
3
 70
0
 10
408.8453140289
 20
226.5944369452
 10
408.0883171782
 20
228.0815478147
 10
407.3298711757
 20
229.617406193
  0
LWPOLYLINE
  5
2DF
100
AcDbEntity
  8
06___PRT_ALL_SURFS
100
AcDbPolyline
 62
7
  6
CONTINUOUS
 90
3
 70
0
 10
406.5631691303
 20
231.2226564139
 10
405.7881258121
 20
232.905310815
 10
405.0110327954
 20
234.6595944227
  0
LWPOLYLINE
  5
2E0
100
AcDbEntity
  8
06___PRT_ALL_SURFS
100
AcDbPolyline
 62
7
  6
CONTINUOUS
 90
5
 70
0
 10
404.235407319
 20
236.4856971302
 10
403.4623437318
 20
238.3902497037
 10
402.69773221
 20
240.3686329271
 10
401.9511601532
 20
242.4034686326
 10
401.222758577
 20
244.5006112751
  0
LWPOLYLINE
  5
2E1
100
AcDbEntity
  8
06___PRT_ALL_SURFS
100
AcDbPolyline
 62
7
  6
CONTINUOUS
 90
35
 70
0
 10
401.4139653859
 20
243.938544305
 10
402.2425674558
 20
241.5962473372
 10
403.1506244304
 20
239.1847285943
 10
404.1390532147
 20
236.718255131
 10
405.1969473013
 20
234.2333665697
 10
406.3248108219
 20
231.7334419959
 10
407.5245378356
 20
229.218509929
 10
408.7818029902
 20
226.7175729165
 10
410.0874081879
 20
224.2406863995
 10
411.443086985
 20
221.7761796271
 10
412.8486437744
 20
219.3192649883
 10
414.3010879847
 20
216.8796619777
 10
415.8078411727
 20
214.4521972454
 10
417.389882548
 20
212.0128539838
 10
419.0539965456
 20
209.5656851001
 10
420.8061802666
 20
207.1189184789
 10
422.670564195
 20
204.6584155859
 10
424.6722841684
 20
202.1733684328
 10
426.8030729567
 20
199.6950467497
 10
429.0349900369
 20
197.271604101
 10
431.3837261096
 20
194.8966245
 10
433.8364059413
 20
192.5905876781
 10
436.3092593703
 20
190.4296751539
 10
438.7598056199
 20
188.4333727915
 10
441.2081078482
 20
186.5657733793
 10
443.6567819079
 20
184.8105451364
 10
446.0719228286
 20
183.1782677791
 10
448.4711723376
 20
181.6446108178
 10
450.9406666895
 20
180.1492077875
 10
453.4885259522
 20
178.6875464444
 10
456.1040253328
 20
177.2672795718
 10
458.8514739449
 20
175.857475839
 10
461.7540312714
 20
174.4539132717
 10
464.7910133078
 20
173.0740536006
 10
464.9152850647
 20
173.0211578832
  0
LINE
  5
2E2
100
AcDbEntity
  8
06___PRT_ALL_SURFS
100
AcDbLine
 62
7
  6
CONTINUOUS
 10
401.4139653859
 20
243.938544305
 11
400.5168212143
 21
246.654258546
  0
LINE
  5
2E3
100
AcDbEntity
  8
06___PRT_ALL_SURFS
100
AcDbLine
 62
7
  6
CONTINUOUS
 10
394.6134064994
 20
276.0347350571
 11
394.7625487497
 21
274.574160749
  0
LINE
  5
2E4
100
AcDbEntity
  8
06___PRT_ALL_SURFS
100
AcDbLine
 62
7
  6
CONTINUOUS
 10
394.4883932114
 20
277.3702207922
 11
394.6247647007
 21
275.9187706577
  0
LINE
  5
2E5
100
AcDbEntity
  8
06___PRT_ALL_SURFS
100
AcDbLine
 62
7
  6
CONTINUOUS
 10
394.3762913332
 20
278.6727658658
 11
394.5029894349
 21
277.2083509536
  0
LINE
  5
2E6
100
AcDbEntity
  8
06___PRT_ALL_SURFS
100
AcDbLine
 62
7
  6
CONTINUOUS
 10
394.2757162105
 20
279.9431601916
 11
394.3954094422
 21
278.4427472417
  0
LINE
  5
2E7
100
AcDbEntity
  8
06___PRT_ALL_SURFS
100
AcDbLine
 62
7
  6
CONTINUOUS
 10
394.1855430373
 20
281.1803457524
 11
394.2997453865
 21
279.6298831705
  0
LINE
  5
2E8
100
AcDbEntity
  8
06___PRT_ALL_SURFS
100
AcDbLine
 62
7
  6
CONTINUOUS
 10
394.1045170553
 20
282.3865058041
 11
394.2146221328
 21
280.7701614906
  0
LINE
  5
2E9
100
AcDbEntity
  8
06___PRT_ALL_SURFS
100
AcDbLine
 62
7
  6
CONTINUOUS
 10
394.1388854004
 20
281.8629280307
 11
394.0102274988
 21
283.9257619723
  0
LINE
  5
2EA
100
AcDbEntity
  8
06___PRT_ALL_SURFS
100
AcDbLine
 62
7
  6
CONTINUOUS
 10
393.9068954356
 20
285.8201768667
 11
394.0316377457
 21
283.5619389789
  0
LINE
  5
2EB
100
AcDbEntity
  8
06___PRT_ALL_SURFS
100
AcDbLine
 62
7
  6
CONTINUOUS
 10
393.8539858324
 20
286.9047967084
 11
393.9556551341
 21
284.8956748435
  0
LINE
  5
2EC
100
AcDbEntity
  8
06___PRT_ALL_SURFS
100
AcDbLine
 62
7
  6
CONTINUOUS
 10
393.8624760008
 20
286.7237087111
 11
393.7893006584
 21
288.407754293
  0
LINE
  5
2ED
100
AcDbEntity
  8
06___PRT_ALL_SURFS
100
AcDbLine
 62
7
  6
CONTINUOUS
 10
393.8074877815
 20
287.9591174667
 11
393.7596209569
 21
289.2015335848
  0
LINE
  5
2EE
100
AcDbEntity
  8
06___PRT_ALL_SURFS
100
AcDbLine
 62
7
  6
CONTINUOUS
 10
393.7342527558
 20
289.965117392
 11
393.7675138641
 21
288.9816420355
  0
LINE
  5
2EF
100
AcDbEntity
  8
06___PRT_ALL_SURFS
100
AcDbLine
 62
7
  6
CONTINUOUS
 10
405.6472162492
 20
284.6105882755
 11
405.596789448
 21
286.1743285229
  0
LINE
  5
2F0
100
AcDbEntity
  8
06___PRT_ALL_SURFS
100
AcDbLine
 62
7
  6
CONTINUOUS
 10
393.7342527558
 20
289.965117392
 11
393.6955369394
 21
291.4069779824
  0
LINE
  5
2F1
100
AcDbEntity
  8
06___PRT_ALL_SURFS
100
AcDbLine
 62
7
  6
CONTINUOUS
 10
405.596789448
 20
286.1743285229
 11
405.5577004479
 21
287.7892095413
  0
LINE
  5
2F2
100
AcDbEntity
  8
06___PRT_ALL_SURFS
100
AcDbLine
 62
7
  6
CONTINUOUS
 10
393.7072963427
 20
290.9167259755
 11
393.6817049208
 21
292.0890098443
  0
LINE
  5
2F3
100
AcDbEntity
  8
06___PRT_ALL_SURFS
100
AcDbLine
 62
7
  6
CONTINUOUS
 10
393.6706612487
 20
292.7915609184
 11
393.6860803169
 21
291.8566362408
  0
LINE
  5
2F4
100
AcDbEntity
  8
06___PRT_ALL_SURFS
100
AcDbLine
 62
7
  6
CONTINUOUS
 10
405.5577004479
 20
287.7892095413
 11
405.5287658793
 21
289.4599760074
  0
LINE
  5
2F5
100
AcDbEntity
  8
06___PRT_ALL_SURFS
100
AcDbLine
 62
7
  6
CONTINUOUS
 10
393.661339553
 20
293.7147495717
 11
393.6712040847
 21
292.7512746862
  0
LINE
  5
2F6
100
AcDbEntity
  8
06___PRT_ALL_SURFS
100
AcDbLine
 62
7
  6
CONTINUOUS
 10
405.5287658793
 20
289.4599760074
 11
405.5088584794
 21
291.1963243447
  0
LWPOLYLINE
  5
2F7
100
AcDbEntity
  8
06___PRT_ALL_SURFS
100
AcDbPolyline
 62
7
  6
CONTINUOUS
 90
3
 70
0
 10
393.6638739281
 20
293.395996536
 10
393.6596013043
 20
294.020935006
 10
393.6582206187
 20
294.6260833581
  0
LINE
  5
2F8
100
AcDbEntity
  8
06___PRT_ALL_SURFS
100
AcDbLine
 62
7
  6
CONTINUOUS
 10
405.5088584794
 20
291.1963243447
 11
405.4976944985
 21
292.9995932784
  0
LINE
  5
2F9
100
AcDbEntity
  8
06___PRT_ALL_SURFS
100
AcDbLine
 62
7
  6
CONTINUOUS
 10
405.4976944985
 20
292.9995932784
 11
405.4952564284
 21
295.3267355013
  0
LWPOLYLINE
  5
2FA
100
AcDbEntity
  8
03___PRT_ALL_CURVES
100
AcDbPolyline
 62
40
  6
CONTINUOUS
 90
82
 70
0
 10
404.0697220981
 20
294.6260297747
 10
404.079588129
 20
296.903017276
 10
404.1110412804
 20
299.205487331
 10
404.1668699233
 20
301.5410530237
 10
404.2501210799
 20
303.9122564977
 10
404.3648763769
 20
306.3013561364
 10
404.5154760921
 20
308.6855393827
 10
404.6543264458
 20
310.4572431069
 10
404.8162120629
 20
312.2068203538
 10
405.0015643152
 20
313.9277421798
 10
405.2108145746
 20
315.6134796418
 10
405.4440289665
 20
317.2578928272
 10
405.6998126298
 20
318.8563979476
 10
405.976405457
 20
320.4048002452
 10
406.2720473407
 20
321.8989049626
 10
406.5850931206
 20
323.3358011966
 10
406.9143574264
 20
324.7177134618
 10
407.2587698352
 20
326.0481501277
 10
407.6172599239
 20
327.3306195632
 10
407.9888338223
 20
328.5684827851
 10
408.3728038698
 20
329.7645113992
 10
408.7685589586
 20
330.9213296588
 10
409.1754879809
 20
332.0415618173
 10
409.7343276658
 20
333.4822033714
 10
410.3101504562
 20
334.8649366148
 10
410.9011611012
 20
336.192229855
 10
411.50533669
 20
337.4660558211
 10
412.1197436728
 20
338.6864049273
 10
412.7412208404
 20
339.8527720092
 10
413.3666929727
 20
340.964816344
 10
413.9934288077
 20
342.0228549748
 10
414.6187830729
 20
343.0273693865
 10
415.2404324023
 20
343.9792752138
 10
415.8573410569
 20
344.8812246915
 10
416.4687952046
 20
345.7363042044
 10
417.0744603737
 20
346.5477779704
 10
417.6755195345
 20
347.3196215408
 10
418.2735350181
 20
348.0559883003
 10
419.168343948
 20
349.1023689851
 10
420.0655427178
 20
350.0878738578
 10
420.9717029485
 20
351.0220015576
 10
421.8967912702
 20
351.9138376919
 10
422.8502808635
 20
352.7702670326
 10
423.8362761022
 20
353.5897840407
 10
424.8573265174
 20
354.3682245435
 10
425.915131079
 20
355.099180144
 10
427.010292513
 20
355.7758942816
 10
428.1398791345
 20
356.392461965
 10
429.2993516688
 20
356.9445619078
 10
430.4812748937
 20
357.4333560741
 10
431.6808355034
 20
357.8624165892
 10
432.9066038039
 20
358.2394729723
 10
434.1702873515
 20
358.5724206875
 10
435.4827590893
 20
358.8656615845
 10
436.390092932
 20
359.0406183467
 10
437.3269007968
 20
359.1992196884
 10
438.2962333814
 20
359.3411894654
 10
439.3012769427
 20
359.4662303922
 10
440.3457599751
 20
359.5739606178
 10
441.4335465324
 20
359.66397715
 10
442.5683166277
 20
359.7357362085
 10
443.753014112
 20
359.7881308623
 10
444.9903987954
 20
359.8199133926
 10
446.2830322767
 20
359.8299423829
 10
447.6326833088
 20
359.8175016257
 10
449.0409224334
 20
359.781981216
 10
450.1367279509
 20
359.7398011445
 10
451.2684330288
 20
359.683877315
 10
452.4380979959
 20
359.6137913456
 10
453.647783181
 20
359.5291248545
 10
454.8987289168
 20
359.4296009226
 10
456.1888955505
 20
359.3155084832
 10
457.5154234334
 20
359.1872779321
 10
458.8754529165
 20
359.0453396653
 10
460.7362374394
 20
358.8353458513
 10
462.6461634029
 20
358.6017866748
 10
464.5998976672
 20
358.3447008969
 10
466.5912564211
 20
358.0642097617
 10
468.6106531674
 20
357.7607644448
 10
470.6476507374
 20
357.4348986046
 10
473.7209634904
 20
356.9042157223
 10
476.8210459848
 20
356.3200103813
  0
LWPOLYLINE
  5
2FB
100
AcDbEntity
  8
06___PRT_ALL_SURFS
100
AcDbPolyline
 62
7
  6
CONTINUOUS
 90
14
 70
0
 10
394.9373603039
 20
294.6260048446
 10
394.9523707908
 20
297.8758219765
 10
394.9970360487
 20
301.0244416625
 10
395.0707672974
 20
304.0743389423
 10
395.1728561152
 20
307.0250791489
 10
395.3027630428
 20
309.882054249
 10
395.4604021997
 20
312.6558193218
 10
395.6458074491
 20
315.3531905468
 10
395.8584442585
 20
317.9713144836
 10
396.0974362274
 20
320.5064556429
 10
396.3625737846
 20
322.9639742966
 10
396.6532518908
 20
325.3453372462
 10
396.9673316514
 20
327.6421357054
 10
397.3030575174
 20
329.8528011084
  0
LINE
  5
2FC
100
AcDbEntity
  8
06___PRT_ALL_SURFS
100
AcDbLine
 62
7
  6
CONTINUOUS
 10
405.4952564284
 20
295.3267355013
 11
405.5022856333
 21
297.1755357559
  0
LWPOLYLINE
  5
2FD
100
AcDbEntity
  8
06___PRT_ALL_SURFS
100
AcDbPolyline
 62
7
  6
CONTINUOUS
 90
24
 70
0
 10
393.6582205499
 20
294.6260833584
 10
393.6670018508
 20
295.96077945
 10
393.686945206
 20
297.3091956784
 10
393.7178903698
 20
298.6712829156
 10
393.7593855407
 20
300.0392303967
 10
393.8113680792
 20
301.4207451313
 10
393.8747185029
 20
302.8390361332
 10
393.9502996926
 20
304.3062460195
 10
394.037718175
 20
305.8100549294
 10
394.1361812142
 20
307.3369578406
 10
394.24657166
 20
308.8887351633
 10
394.370140011
 20
310.463216612
 10
394.5066116339
 20
312.0409591909
 10
394.6558970701
 20
313.6103956292
 10
394.8199719903
 20
315.1827018096
 10
395.0016657603
 20
316.7725362719
 10
395.204041111
 20
318.3911940136
 10
395.4273557395
 20
320.0267942083
 10
395.669205426
 20
321.659267471
 10
395.9304581583
 20
323.2962737528
 10
396.209557758
 20
324.9297489208
 10
396.4979926052
 20
326.5163710119
 10
396.7911906488
 20
328.041862611
 10
397.0842915696
 20
329.4921161033
  0
LINE
  5
2FE
100
AcDbEntity
  8
06___PRT_ALL_SURFS
100
AcDbLine
 62
7
  6
CONTINUOUS
 10
405.5022856333
 20
297.1755357559
 11
405.5177810917
 21
298.9389872967
  0
LINE
  5
2FF
100
AcDbEntity
  8
06___PRT_ALL_SURFS
100
AcDbLine
 62
7
  6
CONTINUOUS
 10
405.5177810917
 20
298.9389872967
 11
405.5421408396
 21
300.6398645164
  0
LINE
  5
300
100
AcDbEntity
  8
06___PRT_ALL_SURFS
100
AcDbLine
 62
7
  6
CONTINUOUS
 10
405.5421408396
 20
300.6398645164
 11
405.5760260666
 21
302.2824066189
  0
LWPOLYLINE
  5
301
100
AcDbEntity
  8
06___PRT_ALL_SURFS
100
AcDbPolyline
 62
7
  6
CONTINUOUS
 90
55
 70
0
 10
405.5760260666
 20
302.2824066189
 10
405.620612293
 20
303.8684212603
 10
405.6472901381
 20
304.6434504561
 10
405.6769590961
 20
305.4051354774
 10
405.7098382163
 20
306.157127991
 10
405.7460421054
 20
306.8999623594
 10
405.7855539057
 20
307.6321313785
 10
405.8284496525
 20
308.3544562888
 10
405.8747776586
 20
309.0672371561
 10
405.9245049785
 20
309.7697031025
 10
405.9775754855
 20
310.4611321785
 10
406.0339492779
 20
311.1413010531
 10
406.0935781305
 20
311.8100552239
 10
406.1563555708
 20
312.4667811821
 10
406.222190722
 20
313.1112520668
 10
406.2909803431
 20
313.7433797231
 10
406.3625504325
 20
314.3627227208
 10
406.4366969702
 20
314.9687390091
 10
406.513297593
 20
315.5616447495
 10
406.592289546
 20
316.1420735089
 10
406.6734607983
 20
316.7095528394
 10
406.7566763021
 20
317.2642296137
 10
406.8420112126
 20
317.8075653191
 10
406.9292073593
 20
318.3388162879
 10
407.018184992
 20
318.858406871
 10
407.1093676925
 20
319.3694852654
 10
407.2026441534
 20
319.8719148761
 10
407.297886731
 20
320.3655399474
 10
407.3956049646
 20
320.8534429785
 10
407.4956869593
 20
321.3353532567
 10
407.5980701291
 20
321.8112614056
 10
407.7034674259
 20
322.2845835791
 10
407.8119836356
 20
322.7556903198
 10
407.9234654976
 20
323.2238291154
 10
408.0383269981
 20
323.6906008666
 10
408.1569250077
 20
324.1571730167
 10
408.2788931098
 20
324.6218371106
 10
408.403504033
 20
325.0817624025
 10
408.5304765111
 20
325.5360165935
 10
408.6598578758
 20
325.984890606
 10
408.791304912
 20
326.4273348471
 10
408.9245980258
 20
326.8628155779
 10
409.0595967494
 20
327.2911778114
 10
409.1960273159
 20
327.7119069265
 10
409.3340311889
 20
328.1257561246
 10
409.472994682
 20
328.5312058069
 10
409.6113591366
 20
328.924225502
 10
409.7493819544
 20
329.3061355303
 10
409.8860135193
 20
329.6746197032
 10
410.0173484299
 20
330.0201386624
 10
410.1440406749
 20
330.3455868112
 10
410.264146619
 20
330.6471021905
 10
410.3693589149
 20
330.9056298927
 10
410.4587350192
 20
331.1210682781
 10
410.5067508228
 20
331.2351633842
  0
LWPOLYLINE
  5
302
100
AcDbEntity
  8
06___PRT_ALL_SURFS
100
AcDbPolyline
 62
7
  6
CONTINUOUS
 90
19
 70
0
 10
408.6093110373
 20
294.6260112812
 10
408.6515743736
 20
295.8591465789
 10
408.7914223064
 20
297.1121662208
 10
409.0318772944
 20
298.3752881143
 10
409.3753329109
 20
299.6439673389
 10
409.8246780727
 20
300.899402862
 10
410.3803884721
 20
302.1108909174
 10
411.0423147425
 20
303.2660803921
 10
411.8067953379
 20
304.355528582
 10
412.6640156951
 20
305.3577905129
 10
413.6018527356
 20
306.2587641281
 10
414.6223418019
 20
307.0610469536
 10
415.7363260365
 20
307.768400951
 10
416.949994956
 20
308.3764418332
 10
418.2490582828
 20
308.8718613333
 10
419.613804696
 20
309.2450384847
 10
421.0392090133
 20
309.4925680228
 10
422.5186713441
 20
309.6133130081
 10
423.1890090444
 20
309.6260112102
  0
LINE
  5
303
100
AcDbEntity
  8
06___PRT_ALL_SURFS
100
AcDbLine
 62
7
  6
CONTINUOUS
 10
397.3030575174
 20
329.8528011084
 11
397.6602731722
 21
331.9867650681
  0
LINE
  5
304
100
AcDbEntity
  8
06___PRT_ALL_SURFS
100
AcDbLine
 62
7
  6
CONTINUOUS
 10
397.6602731722
 20
331.9867650681
 11
397.7775523264
 21
332.6265079339
  0
LINE
  5
305
100
AcDbEntity
  8
06___PRT_ALL_SURFS
100
AcDbLine
 62
7
  6
CONTINUOUS
 10
397.3931136089
 20
330.9530723412
 11
397.0842915696
 21
329.4921161033
  0
LINE
  5
306
100
AcDbEntity
  8
06___PRT_ALL_SURFS
100
AcDbLine
 62
7
  6
CONTINUOUS
 10
397.3931136089
 20
330.9530723412
 11
397.5113156518
 21
331.484993046
  0
LWPOLYLINE
  5
307
100
AcDbEntity
  8
06___PRT_ALL_SURFS
100
AcDbPolyline
 62
7
  6
CONTINUOUS
 90
82
 70
0
 10
397.4647676782
 20
331.27671393
 10
398.0400439169
 20
333.7512139542
 10
398.5905500166
 20
335.9417036377
 10
399.159766246
 20
338.0563280951
 10
399.7442436549
 20
340.0936537492
 10
400.3413892838
 20
342.0552719918
 10
400.949700285
 20
343.945717278
 10
401.5668923114
 20
345.766369881
 10
402.1900004369
 20
347.5165119919
 10
402.8165863859
 20
349.1976911308
 10
403.4428935114
 20
350.8086082593
 10
404.0668702161
 20
352.3520562318
 10
404.688859431
 20
353.8357634481
 10
405.3052118149
 20
355.2571489845
 10
405.9151782991
 20
356.620131223
 10
406.5244825478
 20
357.9418268867
 10
407.1309857152
 20
359.2209887227
 10
407.7341661965
 20
360.4596965557
 10
408.3434841746
 20
361.6794848845
 10
408.9593883379
 20
362.8824663246
 10
409.580114734
 20
364.0669166146
 10
410.2128950262
 20
365.2480744327
 10
410.8596520834
 20
366.4303077814
 10
411.5176929484
 20
367.60948018
 10
412.1877850897
 20
368.7878250833
 10
412.8716043839
 20
369.9688762309
 10
413.5674008184
 20
371.1489552862
 10
414.2707517993
 20
372.319513489
 10
414.9816274448
 20
373.479713412
 10
415.700706788
 20
374.6299055862
 10
416.4242456996
 20
375.7635547298
 10
417.1472108754
 20
376.8727197264
 10
417.8746223371
 20
377.9651082237
 10
418.6181168405
 20
379.0574341131
 10
419.3761398274
 20
380.1461918652
 10
420.1511783052
 20
381.2337165449
 10
420.9623268931
 20
382.3445088505
 10
421.8164232235
 20
383.4843055758
 10
422.7098172268
 20
384.6444022178
 10
423.6470108079
 20
385.826736491
 10
424.6315936152
 20
387.0314627103
 10
425.6639751065
 20
388.254470206
 10
426.7440831402
 20
389.4910536604
 10
427.8781549126
 20
390.7438012824
 10
429.0633061546
 20
392.0058840236
 10
430.284771771
 20
393.2592449079
 10
431.5512959616
 20
394.510946456
 10
432.8548694632
 20
395.7511589383
 10
434.1523587118
 20
396.9396875772
 10
435.4337244986
 20
398.0707446994
 10
436.7048228527
 20
399.1527540308
 10
437.9433373634
 20
400.1703635417
 10
439.1373017613
 20
401.1184833202
 10
440.2934778467
 20
402.0073846868
 10
441.4172499507
 20
402.845521344
 10
442.5055570126
 20
403.6343420342
 10
443.5577768088
 20
404.376802307
 10
444.5837600858
 20
405.0826321671
 10
445.5835854496
 20
405.7541207598
 10
446.5549513962
 20
406.3917293801
 10
447.5047598534
 20
407.0016318282
 10
448.4335902795
 20
407.5855491353
 10
449.3394958179
 20
408.1435289388
 10
450.2258879169
 20
408.6788230049
 10
451.0929684356
 20
409.1925574764
 10
451.9395300224
 20
409.6849675796
 10
452.7670138852
 20
410.1577722001
 10
453.5750343194
 20
410.6115321748
 10
454.3632478117
 20
411.0467787427
 10
455.1332541742
 20
411.4650607953
 10
455.884778717
 20
411.8668403059
 10
456.6175347545
 20
412.2525490518
 10
457.3331679432
 20
412.6235908924
 10
458.0315563697
 20
412.980394539
 10
458.7123791226
 20
413.3232677041
 10
459.3770336291
 20
413.6533506952
 10
460.0254432529
 20
413.9710064507
 10
460.6573349645
 20
414.2764798099
 10
461.273849356
 20
414.5706703144
 10
461.874864664
 20
414.8538434732
 10
462.4602255473
 20
415.126238377
 10
463.0310500945
 20
415.3886662656
  0
LWPOLYLINE
  5
308
100
AcDbEntity
  8
06___PRT_ALL_SURFS
100
AcDbPolyline
 62
7
  6
CONTINUOUS
 90
55
 70
0
 10
410.6051041044
 20
257.7872229548
 10
410.5818874901
 20
257.8408508988
 10
410.5348852808
 20
257.950571008
 10
410.4644761391
 20
258.1172502607
 10
410.3767341081
 20
258.3284681109
 10
410.2714234019
 20
258.5868711476
 10
410.150270781
 20
258.8906282883
 10
410.0224367176
 20
259.218665455
 10
409.890084928
 20
259.5665652476
 10
409.7523897896
 20
259.9376739051
 10
409.6135220586
 20
260.3217352917
 10
409.4746276419
 20
260.7161172531
 10
409.3353449305
 20
261.1223813385
 10
409.1971754044
 20
261.5366249885
 10
409.0607315725
 20
261.9572956989
 10
408.9258574999
 20
262.3851528384
 10
408.7927512628
 20
262.8198925785
 10
408.661551255
 20
263.2613467673
 10
408.5324685216
 20
263.7089901008
 10
408.4057699686
 20
264.1620291611
 10
408.2814043768
 20
264.6207723028
 10
408.159657609
 20
265.0842747251
 10
408.0412040966
 20
265.5499225725
 10
407.9263954374
 20
266.0160955249
 10
407.8149017315
 20
266.4838791733
 10
407.7063231039
 20
266.9548363059
 10
407.600813498
 20
267.428233628
 10
407.4982768558
 20
267.9044238177
 10
407.3980235513
 20
268.3867277302
 10
407.3001184947
 20
268.8751363375
 10
407.2046761681
 20
269.3693779693
 10
407.1112069398
 20
269.8724372294
 10
407.0198403849
 20
270.3841504802
 10
406.9306867101
 20
270.9043878373
 10
406.843334385
 20
271.4362212354
 10
406.7578675695
 20
271.980037024
 10
406.6745368752
 20
272.5351287097
 10
406.5932605091
 20
273.1029943921
 10
406.5141735172
 20
273.6837763249
 10
406.4374867326
 20
274.2770062712
 10
406.3632563023
 20
274.8833677065
 10
406.291603571
 20
275.5030892817
 10
406.2227346184
 20
276.1356157189
 10
406.1568227569
 20
276.780516848
 10
406.0939717352
 20
277.4377068531
 10
406.034273249
 20
278.106955465
 10
405.9778340037
 20
278.7876514131
 10
405.9247026047
 20
279.4796402878
 10
405.8749193812
 20
280.1826975331
 10
405.8285407276
 20
280.8961013713
 10
405.7855995566
 20
281.6190853813
 10
405.7460480904
 20
282.3519435966
 10
405.7098110933
 20
283.0954817325
 10
405.676905587
 20
283.8481828012
 10
405.6472162492
 20
284.6105882755
  0
LINE
  5
309
100
AcDbEntity
  8
06___PRT_ALL_SURFS
100
AcDbLine
 62
7
  6
CONTINUOUS
 10
400.6558578231
 20
246.2197927676
 11
399.8462473698
 21
248.8283044488
  0
LINE
  5
30A
100
AcDbEntity
  8
06___PRT_ALL_SURFS
100
AcDbLine
 62
7
  6
CONTINUOUS
 10
399.9641677634
 20
248.4360380941
 11
399.2083192403
 21
251.0326337335
  0
LWPOLYLINE
  5
30B
100
AcDbEntity
  8
06___PRT_ALL_SURFS
100
AcDbPolyline
 62
7
  6
CONTINUOUS
 90
6
 70
0
 10
399.3358163001
 20
250.5803453119
 10
398.6066719538
 20
253.2558405184
 10
398.0583073749
 20
255.4282920711
 10
397.5633113946
 20
257.5339231766
 10
397.1147150064
 20
259.5857538858
 10
396.7142231821
 20
261.5569506344
  0
LWPOLYLINE
  5
30C
100
AcDbEntity
  8
06___PRT_ALL_SURFS
100
AcDbPolyline
 62
7
  6
CONTINUOUS
 90
6
 70
0
 10
396.5988566292
 20
262.1530900331
 10
396.9526372282
 20
260.3661528545
 10
397.3426144271
 20
258.5246164701
 10
397.7717473747
 20
256.628744824
 10
398.2449900271
 20
254.6713519177
 10
398.7651393577
 20
252.6552137065
  0
LWPOLYLINE
  5
30D
100
AcDbEntity
  8
06___PRT_ALL_SURFS
100
AcDbPolyline
 62
7
  6
CONTINUOUS
 90
15
 70
0
 10
397.7653589294
 20
256.6744463505
 10
397.7618290884
 20
256.6931585452
 10
397.3598455961
 20
259.0462187815
 10
396.9846476171
 20
261.4902213218
 10
396.6375672553
 20
264.0282774485
 10
396.3212396251
 20
266.6510725641
 10
396.0365186754
 20
269.3586788874
 10
395.7833503629
 20
272.1591979216
 10
395.5623468741
 20
275.0543835399
 10
395.3739858702
 20
278.0460542241
 10
395.2185890666
 20
281.1391619809
 10
395.0965618705
 20
284.3403858746
 10
395.0085435839
 20
287.6540073287
 10
394.9552576694
 20
291.0815638554
 10
394.9373603039
 20
294.6260048446
  0
LINE
  5
30E
100
AcDbEntity
  8
06___PRT_ALL_SURFS
100
AcDbLine
 62
7
  6
CONTINUOUS
 10
396.2786849258
 20
263.8841876233
 11
396.7142231821
 21
261.5569506344
  0
LINE
  5
30F
100
AcDbEntity
  8
06___PRT_ALL_SURFS
100
AcDbLine
 62
7
  6
CONTINUOUS
 10
395.9884604685
 20
265.5654602623
 11
396.3600110067
 21
263.4330808476
  0
LINE
  5
310
100
AcDbEntity
  8
06___PRT_ALL_SURFS
100
AcDbLine
 62
7
  6
CONTINUOUS
 10
395.7260529791
 20
267.1960097545
 11
396.0453602887
 21
265.2264496435
  0
LINE
  5
311
100
AcDbEntity
  8
06___PRT_ALL_SURFS
100
AcDbLine
 62
7
  6
CONTINUOUS
 10
395.4893467039
 20
268.7756506332
 11
395.7643977535
 21
266.9503857107
  0
LINE
  5
312
100
AcDbEntity
  8
06___PRT_ALL_SURFS
100
AcDbLine
 62
7
  6
CONTINUOUS
 10
395.2753673578
 20
270.3116242236
 11
395.514004382
 21
268.60565139
  0
LINE
  5
313
100
AcDbEntity
  8
06___PRT_ALL_SURFS
100
AcDbLine
 62
7
  6
CONTINUOUS
 10
395.0824914246
 20
271.8036329706
 11
395.2917175411
 21
270.1901427165
  0
LINE
  5
314
100
AcDbEntity
  8
06___PRT_ALL_SURFS
100
AcDbLine
 62
7
  6
CONTINUOUS
 10
394.9092052139
 20
273.2511927281
 11
395.0937746194
 21
271.713138371
  0
LINE
  5
315
100
AcDbEntity
  8
06___PRT_ALL_SURFS
100
AcDbLine
 62
7
  6
CONTINUOUS
 10
394.7532674834
 20
274.6613910093
 11
394.9180109294
 21
273.1748214022
  0
LWPOLYLINE
  5
316
100
AcDbEntity
  8
06___PRT_ALL_SURFS
100
AcDbPolyline
 62
7
  6
CONTINUOUS
 90
19
 70
0
 10
423.1887370333
 20
279.6260113217
 10
422.3424224355
 20
279.6462784593
 10
420.9068392666
 20
279.7767491796
 10
419.5195190672
 20
280.0282468039
 10
418.1837568117
 20
280.4016306298
 10
416.9074775318
 20
280.8943415601
 10
415.712381017
 20
281.4972374493
 10
414.6130415659
 20
282.1976422304
 10
413.6029524092
 20
282.9922260957
 10
412.6723654523
 20
283.8853993318
 10
411.8194516051
 20
284.8803128909
 10
411.0564134274
 20
285.963589867
 10
410.3940594377
 20
287.114572012
 10
409.836272471
 20
288.3246657487
 10
409.3836682279
 20
289.5815565107
 10
409.037098462
 20
290.8538644816
 10
408.7942265139
 20
292.1225091378
 10
408.6525633685
 20
293.3831917333
 10
408.6093110373
 20
294.6260112812
  0
LWPOLYLINE
  5
317
100
AcDbEntity
  8
06___PRT_ALL_SURFS
100
AcDbPolyline
 62
7
  6
CONTINUOUS
 90
20
 70
0
 10
442.2882064663
 20
294.6260112812
 10
442.2327584566
 20
293.4526373418
 10
442.0332778188
 20
292.2661721251
 10
441.6877801412
 20
291.0747237686
 10
441.186882852
 20
289.8800757444
 10
440.5364600526
 20
288.6991591198
 10
439.7606004507
 20
287.5617870438
 10
438.8642887256
 20
286.4861958816
 10
437.8479476029
 20
285.468281473
 10
436.7303828054
 20
284.5038834664
 10
435.5073035111
 20
283.5983759688
 10
434.1863493326
 20
282.7648508581
 10
432.8034748821
 20
282.0125560976
 10
431.3607330012
 20
281.3487667218
 10
429.862647628
 20
280.7827169658
 10
428.3500614527
 20
280.324028995
 10
426.8328007841
 20
279.9778954327
 10
425.3107983336
 20
279.747710874
 10
423.8109078649
 20
279.636702769
 10
423.1887370333
 20
279.6260113217
  0
LWPOLYLINE
  5
318
100
AcDbEntity
  8
06___PRT_ALL_SURFS
100
AcDbPolyline
 62
7
  6
CONTINUOUS
 90
20
 70
0
 10
423.1890090444
 20
309.6260112102
 10
424.0293489903
 20
309.6065705456
 10
425.5675030821
 20
309.4735685194
 10
427.1253201192
 20
309.2165450517
 10
428.6740506408
 20
308.8394406873
 10
430.2166325758
 20
308.3452189828
 10
431.7398424724
 20
307.7405806733
 10
433.1921406371
 20
307.0407273482
 10
434.5658514318
 20
306.2588052617
 10
435.8635513566
 20
305.4033167315
 10
437.0512323235
 20
304.4870093689
 10
438.1199233109
 20
303.5259035425
 10
439.077947673
 20
302.5257969903
 10
439.9166909002
 20
301.4818949491
 10
440.6350870072
 20
300.3990016675
 10
441.2322686893
 20
299.2874393801
 10
441.6979798955
 20
298.1478543186
 10
442.0279518354
 20
296.9850611511
 10
442.2247950921
 20
295.8086568074
 10
442.2882064663
 20
294.6260112812
  0
LWPOLYLINE
  5
319
100
AcDbEntity
  8
03___PRT_ALL_CURVES
100
AcDbPolyline
 62
40
  6
CONTINUOUS
 90
62
 70
0
 10
476.8210459848
 20
356.3200103813
 10
480.5685782988
 20
355.546332552
 10
484.3025412427
 20
354.7001103094
 10
488.0241382351
 20
353.7800312211
 10
491.7213550412
 20
352.788309936
 10
495.3798796919
 20
351.7280634204
 10
498.9894269323
 20
350.6024908302
 10
501.3640865171
 20
349.8174450186
 10
503.7106240032
 20
349.0059795739
 10
506.0268088418
 20
348.1692776952
 10
508.3114247272
 20
347.308180018
 10
510.5673123281
 20
346.4221569253
 10
512.7983265567
 20
345.5103362366
 10
516.1055191129
 20
344.0923211914
 10
519.3716874605
 20
342.6113217883
 10
521.5268113354
 20
341.5889285043
 10
523.6525920568
 20
340.5447442986
 10
525.735133974
 20
339.4862945688
 10
527.2604616749
 20
338.6877664625
 10
528.748724001
 20
337.8894854767
 10
530.1949937081
 20
337.0954900529
 10
531.5943435521
 20
336.3098186325
 10
532.9430269329
 20
335.5358874945
 10
534.242019827
 20
334.7746242683
 10
535.4934788547
 20
334.0263344208
 10
536.6995606365
 20
333.291323419
 10
538.2407220873
 20
332.3323385723
 10
539.7096293197
 20
331.3973029212
 10
541.110864783
 20
330.4860157725
 10
542.4490887913
 20
329.5980257495
 10
543.7292731179
 20
328.7318787425
 10
544.9564674011
 20
327.8858699586
 10
546.1355945444
 20
327.0581213997
 10
547.271070512
 20
326.2460622472
 10
548.3671845339
 20
325.4469484777
 10
549.9464794907
 20
324.2661065515
 10
551.458606282
 20
323.0963087255
 10
552.9154627513
 20
321.9242766911
 10
554.3295563332
 20
320.731254741
 10
555.7107042398
 20
319.4986198414
 10
557.0573532036
 20
318.2137570534
 10
557.933162454
 20
317.3232980049
 10
558.7866636039
 20
316.4051117503
 10
559.6128351443
 20
315.459622552
 10
560.4070201779
 20
314.4871996303
 10
561.1660202552
 20
313.4879920392
 10
561.8870015384
 20
312.462093791
 10
562.5673290268
 20
311.4097282811
 10
563.2051630657
 20
310.3316364378
 10
563.7988628375
 20
309.2286885725
 10
564.3467910463
 20
308.1017758302
 10
564.8473244828
 20
306.9518726895
 10
565.29884346
 20
305.7799744623
 10
565.6999711407
 20
304.5873836331
 10
566.0503020885
 20
303.3766313764
 10
566.3496737172
 20
302.1505560388
 10
566.5982284646
 20
300.9120624781
 10
566.7973288645
 20
299.6643215957
 10
566.9486424747
 20
298.410570804
 10
567.0539435303
 20
297.1533268796
 10
567.115432975
 20
295.8922240571
 10
567.1354184301
 20
294.626175935
  0
LINE
  5
31A
100
AcDbEntity
  8
06___PRT_ALL_SURFS
100
AcDbLine
 62
7
  6
CONTINUOUS
 10
482.6149420627
 20
422.6208958244
 11
483.2364813772
 21
422.796503825
  0
LINE
  5
31B
100
AcDbEntity
  8
06___PRT_ALL_SURFS
100
AcDbLine
 62
7
  6
CONTINUOUS
 10
482.278607005
 20
420.0470067977
 11
484.4556675014
 21
420.6529188269
  0
LINE
  5
31C
100
AcDbEntity
  8
06___PRT_ALL_SURFS
100
AcDbLine
 62
7
  6
CONTINUOUS
 10
483.2364813772
 20
422.796503825
 11
483.7669937332
 21
422.9438754525
  0
LWPOLYLINE
  5
31D
100
AcDbEntity
  8
06___PRT_ALL_SURFS
100
AcDbPolyline
 62
7
  6
CONTINUOUS
 90
26
 70
0
 10
484.4556675014
 20
420.6529188269
 10
486.6533728531
 20
421.2358429424
 10
488.8647061063
 20
421.7942326009
 10
491.0952456726
 20
422.3298327758
 10
493.3735800913
 20
422.8492316934
 10
495.6969646753
 20
423.3509956177
 10
498.067398278
 20
423.834778762
 10
500.5213623351
 20
424.3066449237
 10
503.0613848275
 20
424.7650613823
 10
505.6839457933
 20
425.207523917
 10
508.4167474105
 20
425.6365441894
 10
511.265233504
 20
426.0501312416
 10
514.2216428603
 20
426.4443817774
 10
517.2935969146
 20
426.8176751441
 10
520.4791060642
 20
427.1668875329
 10
523.7753941762
 20
427.4887408438
 10
527.1881774481
 20
427.7807342453
 10
530.7123817916
 20
428.0393156744
 10
534.3451230208
 20
428.2611456855
 10
538.0973463935
 20
428.4423286799
 10
541.969491474
 20
428.577357956
 10
545.9607246374
 20
428.6603288084
 10
550.0811934306
 20
428.6851295314
 10
554.3345211949
 20
428.6448900258
 10
558.71794527
 20
428.5324667091
 10
563.2323715114
 20
428.3404492455
  0
LINE
  5
31E
100
AcDbEntity
  8
06___PRT_ALL_SURFS
100
AcDbLine
 62
7
  6
CONTINUOUS
 10
563.3426773269
 20
158.8695466457
 11
563.2323767008
 21
160.9115735831
  0
LWPOLYLINE
  5
31F
100
AcDbEntity
  8
03___PRT_ALL_CURVES
100
AcDbPolyline
 62
40
  6
CONTINUOUS
 90
62
 70
0
 10
567.1354184301
 20
294.626175935
 10
567.1146310696
 20
293.3351625817
 10
567.0506829493
 20
292.0498542647
 10
566.9412182398
 20
290.7692458546
 10
566.783975191
 20
289.4929985096
 10
566.5770683709
 20
288.2234385373
 10
566.318706427
 20
286.9635585327
 10
566.0074155654
 20
285.7163219416
 10
565.6429922273
 20
284.484575612
 10
565.2255504126
 20
283.2711372425
 10
564.7554496509
 20
282.0785332421
 10
564.2340315905
 20
280.9081248608
 10
563.6628834095
 20
279.760982059
 10
563.0436960455
 20
278.6382518228
 10
562.3785754741
 20
277.5413892416
 10
561.6697314305
 20
276.4719264308
 10
560.9195203774
 20
275.4310908752
 10
560.1308856888
 20
274.4188915371
 10
559.306917466
 20
273.4350327485
 10
558.4509757356
 20
272.4792218567
 10
557.5675002233
 20
271.551178271
 10
556.6612005797
 20
270.650624416
 10
555.2661868254
 20
269.3481345379
 10
553.8278821385
 20
268.0903643248
 10
552.3415062417
 20
266.8599462737
 10
550.7932911531
 20
265.6360736083
 10
549.7189095597
 20
264.8135545236
 10
548.6053339992
 20
263.9806506882
 10
547.4479723264
 20
263.133697889
 10
546.2420036215
 20
262.2691050375
 10
544.9816918649
 20
261.3835735445
 10
543.6610722624
 20
260.4738779457
 10
542.6274348609
 20
259.7739603438
 10
541.5539578272
 20
259.0581880263
 10
540.438079889
 20
258.3261129109
 10
539.2772397742
 20
257.5772869152
 10
538.0686696705
 20
256.8112600162
 10
536.8087756044
 20
256.0275744285
 10
535.4937570624
 20
255.2257704262
 10
534.1198135308
 20
254.4053882831
 10
532.6842499998
 20
253.5666760546
 10
531.1887934743
 20
252.7127129209
 10
529.636276463
 20
251.8472858435
 10
528.0295314745
 20
250.9741817839
 10
526.3727060887
 20
250.0975817909
 10
524.6752081708
 20
249.2232432629
 10
522.9477606572
 20
248.3573176854
 10
521.2010864844
 20
247.5059565441
 10
518.8571932697
 20
246.4017868884
 10
516.5018817487
 20
245.3351701106
 10
514.1388513445
 20
244.306830783
 10
511.7702419316
 20
243.3169693003
 10
509.3919551911
 20
242.3636893474
 10
506.9983332556
 20
241.4445704318
 10
503.3700400439
 20
240.1260319947
 10
499.6950357413
 20
238.8790375357
 10
495.9744331127
 20
237.7038421184
 10
492.2117027846
 20
236.6012100513
 10
488.4110363044
 20
235.5720276988
 10
484.577151041
 20
234.6171604035
 10
480.7138866339
 20
233.7372433587
 10
476.821045985
 20
232.9320121811
  0
LINE
  5
320
100
AcDbEntity
  8
06___PRT_ALL_SURFS
100
AcDbLine
 62
7
  6
CONTINUOUS
 10
483.7669937332
 20
422.9438754525
 11
484.2783600626
 21
423.0836975295
  0
LINE
  5
321
100
AcDbEntity
  8
06___PRT_ALL_SURFS
100
AcDbLine
 62
7
  6
CONTINUOUS
 10
484.2783600626
 20
423.0836975295
 11
485.959179187
 21
423.5278012247
  0
LWPOLYLINE
  5
322
100
AcDbEntity
  8
06___PRT_ALL_SURFS
100
AcDbPolyline
 62
7
  6
CONTINUOUS
 90
3
 70
0
 10
487.6582375155
 20
423.9533184874
 10
489.3752163067
 20
424.3603400874
 10
491.0955326453
 20
424.7458765249
  0
LWPOLYLINE
  5
323
100
AcDbEntity
  8
06___PRT_ALL_SURFS
100
AcDbPolyline
 62
7
  6
CONTINUOUS
 90
3
 70
0
 10
490.5121322729
 20
424.6175764183
 10
488.3708565761
 20
424.1250025972
 10
485.959179187
 20
423.5278012247
  0
LINE
  5
324
100
AcDbEntity
  8
06___PRT_ALL_SURFS
100
AcDbLine
 62
7
  6
CONTINUOUS
 10
490.5121322729
 20
424.6175764183
 11
492.8330024282
 21
425.1135019299
  0
LINE
  5
325
100
AcDbEntity
  8
06___PRT_ALL_SURFS
100
AcDbLine
 62
7
  6
CONTINUOUS
 10
492.5845306337
 20
425.0622358518
 11
494.6302052958
 21
425.4716653277
  0
LINE
  5
326
100
AcDbEntity
  8
06___PRT_ALL_SURFS
100
AcDbLine
 62
7
  6
CONTINUOUS
 10
496.5359915539
 20
425.8279120259
 11
494.5897290819
 21
425.4638397139
  0
LINE
  5
327
100
AcDbEntity
  8
06___PRT_ALL_SURFS
100
AcDbLine
 62
7
  6
CONTINUOUS
 10
496.5006014779
 20
425.8215114379
 11
498.4304753213
 21
426.1590242653
  0
LINE
  5
328
100
AcDbEntity
  8
06___PRT_ALL_SURFS
100
AcDbLine
 62
7
  6
CONTINUOUS
 10
498.4223596809
 20
426.1576532933
 11
500.4220293192
 21
426.4835385528
  0
LINE
  5
329
100
AcDbEntity
  8
06___PRT_ALL_SURFS
100
AcDbLine
 62
7
  6
CONTINUOUS
 10
500.2479646447
 20
426.4561064913
 11
502.4736714552
 21
426.7939334554
  0
LINE
  5
32A
100
AcDbEntity
  8
06___PRT_ALL_SURFS
100
AcDbLine
 62
7
  6
CONTINUOUS
 10
502.0215363819
 20
426.7275441203
 11
504.586877221
 21
427.0897230246
  0
LINE
  5
32B
100
AcDbEntity
  8
06___PRT_ALL_SURFS
100
AcDbLine
 62
7
  6
CONTINUOUS
 10
505.4107215111
 20
427.1987792008
 11
503.7425983411
 21
426.9743653969
  0
LINE
  5
32C
100
AcDbEntity
  8
06___PRT_ALL_SURFS
100
AcDbLine
 62
7
  6
CONTINUOUS
 10
507.0348620157
 20
427.40395884
 11
504.586877221
 21
427.0897230246
  0
LINE
  5
32D
100
AcDbEntity
  8
06___PRT_ALL_SURFS
100
AcDbLine
 62
7
  6
CONTINUOUS
 10
506.7685324526
 20
427.3711856839
 11
509.0181423429
 21
427.6376535329
  0
LWPOLYLINE
  5
32E
100
AcDbEntity
  8
06___PRT_ALL_SURFS
100
AcDbPolyline
 62
7
  6
CONTINUOUS
 90
3
 70
0
 10
508.6146195629
 20
427.5915557346
 10
511.335780766
 20
427.8887456264
 10
513.7291878775
 20
428.125130232
  0
LINE
  5
32F
100
AcDbEntity
  8
06___PRT_ALL_SURFS
100
AcDbLine
 62
7
  6
CONTINUOUS
 10
511.6497647413
 20
427.9210340506
 11
510.1497986153
 21
427.7631150372
  0
LINE
  5
330
100
AcDbEntity
  8
06___PRT_ALL_SURFS
100
AcDbLine
 62
7
  6
CONTINUOUS
 10
513.1138566482
 20
428.0664494325
 11
516.2014313915
 21
428.3474282403
  0
LINE
  5
331
100
AcDbEntity
  8
06___PRT_ALL_SURFS
100
AcDbLine
 62
7
  6
CONTINUOUS
 10
515.9464159519
 20
428.3254468316
 11
514.5424232733
 21
428.2005759954
  0
LINE
  5
332
100
AcDbEntity
  8
06___PRT_ALL_SURFS
100
AcDbLine
 62
7
  6
CONTINUOUS
 10
515.9464159519
 20
428.3254468316
 11
518.7491484893
 21
428.5561303168
  0
LINE
  5
333
100
AcDbEntity
  8
06___PRT_ALL_SURFS
100
AcDbLine
 62
7
  6
CONTINUOUS
 10
518.6713588701
 20
428.5500356023
 11
521.3705136609
 21
428.7523836901
  0
LINE
  5
334
100
AcDbEntity
  8
06___PRT_ALL_SURFS
100
AcDbLine
 62
7
  6
CONTINUOUS
 10
521.3685705385
 20
428.7522443705
 11
524.0730350554
 21
428.9384701648
  0
LINE
  5
335
100
AcDbEntity
  8
06___PRT_ALL_SURFS
100
AcDbLine
 62
7
  6
CONTINUOUS
 10
526.9386470606
 20
429.1215243715
 11
524.0926624595
 21
428.9397698127
  0
LINE
  5
336
100
AcDbEntity
  8
06___PRT_ALL_SURFS
100
AcDbLine
 62
7
  6
CONTINUOUS
 10
526.8486050474
 20
429.1159686895
 11
532.5469714646
 21
429.4436058974
  0
LINE
  5
337
100
AcDbEntity
  8
06___PRT_ALL_SURFS
100
AcDbLine
 62
7
  6
CONTINUOUS
 10
531.6133151261
 20
429.3931847278
 11
535.469758351
 21
429.5935304682
  0
LINE
  5
338
100
AcDbEntity
  8
06___PRT_ALL_SURFS
100
AcDbLine
 62
7
  6
CONTINUOUS
 10
538.7584675023
 20
429.7483924809
 11
535.0531329551
 21
429.5728803515
  0
LINE
  5
339
100
AcDbEntity
  8
06___PRT_ALL_SURFS
100
AcDbLine
 62
7
  6
CONTINUOUS
 10
538.4049620234
 20
429.7324273851
 11
544.3050321533
 21
429.9772441794
  0
LINE
  5
33A
100
AcDbEntity
  8
06___PRT_ALL_SURFS
100
AcDbLine
 62
7
  6
CONTINUOUS
 10
542.7074186591
 20
429.9156534748
 11
547.249240761
 21
430.080849422
  0
LINE
  5
33B
100
AcDbEntity
  8
06___PRT_ALL_SURFS
100
AcDbLine
 62
7
  6
CONTINUOUS
 10
551.404729301
 20
430.2035909909
 11
546.9187261477
 21
430.0698816366
  0
LINE
  5
33C
100
AcDbEntity
  8
06___PRT_ALL_SURFS
100
AcDbLine
 62
7
  6
CONTINUOUS
 10
553.7592280038
 20
430.2600027212
 11
550.1615540423
 21
430.1698896369
  0
LINE
  5
33D
100
AcDbEntity
  8
06___PRT_ALL_SURFS
100
AcDbLine
 62
7
  6
CONTINUOUS
 10
556.188401808
 20
430.3076766127
 11
553.0617593
 21
430.2443254061
  0
LINE
  5
33E
100
AcDbEntity
  8
06___PRT_ALL_SURFS
100
AcDbLine
 62
7
  6
CONTINUOUS
 10
555.9850337115
 20
430.304099474
 11
558.9249808201
 21
430.3484204699
  0
LINE
  5
33F
100
AcDbEntity
  8
06___PRT_ALL_SURFS
100
AcDbLine
 62
7
  6
CONTINUOUS
 10
558.7014736488
 20
430.3456099324
 11
561.887925063
 21
430.3769445178
  0
LINE
  5
340
100
AcDbEntity
  8
06___PRT_ALL_SURFS
100
AcDbLine
 62
7
  6
CONTINUOUS
 10
561.2976375739
 20
430.3725602951
 11
564.9281489843
 21
430.3892413235
  0
LINE
  5
341
100
AcDbEntity
  8
06___PRT_ALL_SURFS
100
AcDbLine
 62
7
  6
CONTINUOUS
 10
563.9776809195
 20
430.3872516624
 11
568.0576101135
 21
430.3838089519
  0
LINE
  5
342
100
AcDbEntity
  8
06___PRT_ALL_SURFS
100
AcDbLine
 62
7
  6
CONTINUOUS
 10
566.7532140258
 20
430.388312694
 11
571.2642513345
 21
430.3589893002
  0
LINE
  5
343
100
AcDbEntity
  8
06___PRT_ALL_SURFS
100
AcDbLine
 62
7
  6
CONTINUOUS
 10
569.6241537388
 20
430.3741433979
 11
574.5662401805
 21
430.31258479
  0
LINE
  5
344
100
AcDbEntity
  8
06___PRT_ALL_SURFS
100
AcDbLine
 62
7
  6
CONTINUOUS
 10
572.5904603428
 20
430.3429237064
 11
577.9670478444
 21
430.2420961269
  0
LINE
  5
345
100
AcDbEntity
  8
06___PRT_ALL_SURFS
100
AcDbLine
 62
7
  6
CONTINUOUS
 10
578.8438621928
 20
430.220113871
 11
575.6637635298
 21
430.292382199
  0
LINE
  5
346
100
AcDbEntity
  8
06___PRT_ALL_SURFS
100
AcDbLine
 62
7
  6
CONTINUOUS
 10
582.1304979122
 20
430.1235485916
 11
577.9670478444
 21
430.2420961269
  0
LINE
  5
347
100
AcDbEntity
  8
06___PRT_ALL_SURFS
100
AcDbLine
 62
7
  6
CONTINUOUS
 10
585.5351432296
 20
429.9994705988
 11
581.4626703815
 21
430.1449970939
  0
LINE
  5
348
100
AcDbEntity
  8
06___PRT_ALL_SURFS
100
AcDbLine
 62
7
  6
CONTINUOUS
 10
589.0613629136
 20
429.8444945702
 11
585.0599761023
 21
430.0182798714
  0
LINE
  5
349
100
AcDbEntity
  8
06___PRT_ALL_SURFS
100
AcDbLine
 62
7
  6
CONTINUOUS
 10
592.6306525091
 20
429.6591739522
 11
588.7609765969
 21
429.8587632749
  0
LWPOLYLINE
  5
34A
100
AcDbEntity
  8
06___PRT_ALL_SURFS
100
AcDbPolyline
 62
7
  6
CONTINUOUS
 90
16
 70
0
 10
204.0744349104
 20
469.8170656878
 10
204.9132468495
 20
469.7703152701
 10
205.7286548053
 20
469.6404185854
 10
206.520658778
 20
469.4273756335
 10
207.2983257292
 20
469.1273939281
 10
208.0525886971
 20
468.7442659555
 10
208.7562467966
 20
468.2893691758
 10
209.4073127559
 20
467.7594230471
 10
210.0077738468
 20
467.1577081112
 10
210.5363909989
 20
466.5054434532
 10
210.9898886926
 20
465.8006552741
 10
211.3715424475
 20
465.0453173729
 10
211.6699397519
 20
464.2665702314
 10
211.8812764352
 20
463.4734606768
 10
212.009356668
 20
462.656941882
 10
212.0541804503
 20
461.8170138469
  0
LINE
  5
34B
100
AcDbEntity
  8
06___PRT_ALL_SURFS
100
AcDbLine
 62
7
  6
CONTINUOUS
 10
592.5628282971
 20
429.6632578299
 11
596.4650297185
 21
429.4282958213
  0
LWPOLYLINE
  5
34C
100
AcDbEntity
  8
06___PRT_ALL_SURFS
100
AcDbPolyline
 62
7
  6
CONTINUOUS
 90
58
 70
0
 10
563.2323717462
 20
428.3404476261
 10
568.2235082377
 20
428.0359349104
 10
573.2161054244
 20
427.6319763002
 10
578.2111707191
 20
427.127827458
 10
583.1856425248
 20
426.5259107642
 10
588.1646822406
 20
425.8232645902
 10
593.221437459
 20
425.006664979
 10
598.4067725121
 20
424.0610888688
 10
603.6666534302
 20
422.9884547226
 10
608.916884256
 20
421.8015666869
 10
614.1501988059
 20
420.5006230777
 10
619.3660899919
 20
419.0842356993
 10
624.4916875939
 20
417.5726133435
 10
629.5026442964
 20
415.9755427856
 10
634.4086133191
 20
414.2908584159
 10
639.1887664878
 20
412.526169761
 10
643.8190645427
 20
410.6922243996
 10
648.3097408522
 20
408.7870504919
 10
652.6914124226
 20
406.7974949993
 10
656.9535270014
 20
404.7271731534
 10
661.0977742453
 20
402.5753017109
 10
665.1693822758
 20
400.3160352615
 10
669.1848802475
 20
397.9332996814
 10
673.1148628373
 20
395.437159041
 10
676.9341314736
 20
392.8389824053
 10
680.6444222399
 20
390.1339263386
 10
684.2334154624
 20
387.3297054869
 10
687.6601103477
 20
384.4613941538
 10
690.9179051178
 20
381.5409274062
 10
694.010803827
 20
378.571014727
 10
696.9202486646
 20
375.5771712858
 10
699.646967935
 20
372.568550623
 10
702.1946859795
 20
369.5508464708
 10
704.5542970259
 20
366.546078137
 10
706.7305225769
 20
363.562029368
 10
708.7302245073
 20
360.6036979223
 10
710.5548266862
 20
357.6876427599
 10
712.2134407666
 20
354.8229620291
 10
713.7219834435
 20
352.0065155742
 10
715.093847025
 20
349.2361128103
 10
716.3355868193
 20
346.5222921782
 10
717.4598435851
 20
343.8616088588
 10
718.4853608857
 20
341.2296029522
 10
719.4132616929
 20
338.6432448999
 10
720.2551731209
 20
336.0909679904
 10
721.0380474482
 20
333.5008249957
 10
721.7634743127
 20
330.8685890575
 10
722.4310803877
 20
328.1966947886
 10
723.0556920591
 20
325.4165114761
 10
723.6379856161
 20
322.5010663591
 10
724.1686879063
 20
319.4682148965
 10
724.6433830291
 20
316.3130435404
 10
725.0580815961
 20
313.0282483208
 10
725.407860994
 20
309.6118939333
 10
725.6872479704
 20
306.0672919085
 10
725.8918974199
 20
302.3926618037
 10
726.0180190849
 20
298.580605279
 10
726.0613781689
 20
294.6262139153
  0
LWPOLYLINE
  5
34D
100
AcDbEntity
  8
06___PRT_ALL_SURFS
100
AcDbPolyline
 62
7
  6
CONTINUOUS
 90
3
 70
0
 10
596.4650297185
 20
429.4282958213
 10
598.3821304106
 20
429.2997760993
 10
598.620951483
 20
429.2831430462
  0
LWPOLYLINE
  5
34E
100
AcDbEntity
  8
06___PRT_ALL_SURFS
100
AcDbPolyline
 62
7
  6
CONTINUOUS
 90
72
 70
0
 10
598.620951483
 20
429.2831430462
 10
602.4810832257
 20
428.9944869988
 10
606.3477502937
 20
428.6662347589
 10
610.2200072082
 20
428.2957645036
 10
614.0519198127
 20
427.8855037634
 10
617.8876281083
 20
427.4287805363
 10
621.8606640596
 20
426.9043178003
 10
625.9929833683
 20
426.3001567996
 10
630.2584152501
 20
425.6094068778
 10
634.7159845378
 20
424.8067424608
 10
639.3966939147
 20
423.8648459174
 10
644.2578806855
 20
422.7669539824
 10
649.2445805346
 20
421.4982944946
 10
654.3915552076
 20
420.0181392539
 10
659.6378511152
 20
418.3074741305
 10
664.7851293357
 20
416.4028359541
 10
669.8125214904
 20
414.2943597856
 10
674.7126504632
 20
411.9710240996
 10
679.3228037786
 20
409.5155024753
 10
683.5819781317
 20
406.986551887
 10
687.5577796198
 20
404.3797743123
 10
691.2935872888
 20
401.7037972508
 10
694.80307832
 20
398.9808368502
 10
698.0904316803
 20
396.2370704243
 10
701.1812765563
 20
393.4765841345
 10
704.0838144374
 20
390.7147103669
 10
706.8059448724
 20
387.9655579352
 10
709.3701106909
 20
385.2257174575
 10
711.7857822605
 20
382.5019390608
 10
714.0565652451
 20
379.806433334
 10
716.1942086844
 20
377.140720472
 10
718.2043882919
 20
374.5120714798
 10
720.09292503
 20
371.9266635271
 10
721.8705980797
 20
369.3826276132
 10
723.5402194755
 20
366.8881839705
 10
725.1086840918
 20
364.4448327876
 10
726.5908130718
 20
362.0387160399
 10
727.9926206076
 20
359.6673509052
 10
729.3137488473
 20
357.3386855688
 10
730.5581547446
 20
355.0533749477
 10
731.7307578435
 20
352.8097124678
 10
732.8315479468
 20
350.6137148217
 10
733.8568290852
 20
348.4774068253
 10
734.8049535758
 20
346.410557913
 10
735.6820248472
 20
344.4070224584
 10
736.4961010172
 20
342.4548115897
 10
737.2459783645
 20
340.5635485123
 10
737.9373077558
 20
338.7264321964
 10
738.5859655329
 20
336.9060003451
 10
739.1915426038
 20
335.1058026624
 10
739.7554226441
 20
333.324401162
 10
740.2917217236
 20
331.5154593251
 10
740.7980060333
 20
329.6806207183
 10
741.2725979274
 20
327.8186677665
 10
741.7249415821
 20
325.8774504752
 10
742.1511009354
 20
323.8494639167
 10
742.5464232856
 20
321.7417849832
 10
742.9142917866
 20
319.5232195494
 10
743.2535456213
 20
317.1811193981
 10
743.5597732638
 20
314.7289863211
 10
743.8309898346
 20
312.1750680145
 10
744.0686568353
 20
309.5022177683
 10
744.2692683542
 20
306.730091354
 10
744.4264437798
 20
303.9222464143
 10
744.5403645513
 20
301.0652282535
 10
744.6099714488
 20
298.1733588823
 10
744.6350405634
 20
295.3521694291
 10
744.6197948737
 20
292.6016972726
 10
744.5675941453
 20
289.9231680437
 10
744.4858020713
 20
287.4238205339
 10
744.3832137408
 20
285.1394615715
 10
744.265220574
 20
283.0345953081
  0
LINE
  5
34F
100
AcDbEntity
  8
0
100
AcDbLine
 62
7
  6
CONTINUOUS
 10
250.7271979317
 20
481.886526613
 11
250.3879173316
 21
481.8771550283
  0
LWPOLYLINE
  5
350
100
AcDbEntity
  8
0
100
AcDbPolyline
 62
7
  6
CONTINUOUS
 90
10
 70
0
 10
263.47918274
 20
482.3662409563
 10
262.0401833283
 20
482.3660088423
 10
260.7114114589
 20
482.35388182
 10
259.4379644907
 20
482.3304445556
 10
258.2650824425
 20
482.2976835932
 10
257.2063960665
 20
482.2574999519
 10
256.248274676
 20
482.2121993398
 10
255.3950661555
 20
482.1657063809
 10
254.657822824
 20
482.120398577
 10
252.5848078616
 20
481.9787655926
  0
LINE
  5
351
100
AcDbEntity
  8
06___PRT_ALL_SURFS
100
AcDbLine
 62
7
  6
CONTINUOUS
 10
204.0744349104
 20
469.8170656878
 11
93.6617762758
 21
470.0966233865
  0
LINE
  5
352
100
AcDbEntity
  8
06___PRT_ALL_SURFS
100
AcDbLine
 62
7
  6
CONTINUOUS
 10
239.9173965722
 20
480.6846013097
 11
235.0617084931
 21
480.6967774711
  0
LINE
  5
353
100
AcDbEntity
  8
06___PRT_ALL_SURFS
100
AcDbLine
 62
7
  6
CONTINUOUS
 10
204.1968948971
 20
482.5686739069
 11
89.661751993
 21
482.7681589038
  0
LINE
  5
354
100
AcDbEntity
  8
06___PRT_ALL_SURFS
100
AcDbLine
 62
7
  6
CONTINUOUS
 10
263.4794489743
 20
482.3662398762
 11
204.1968948971
 21
482.5686739069
  0
LINE
  5
355
100
AcDbEntity
  8
0
100
AcDbLine
 62
7
  6
CONTINUOUS
 10
263.5536204727
 20
482.3659242846
 11
263.47918274
 21
482.3662409563
  0
LINE
  5
356
100
AcDbEntity
  8
06___PRT_ALL_SURFS
100
AcDbLine
 62
7
  6
CONTINUOUS
 10
233.3287826676
 20
480.7480646758
 11
89.6792950052
 21
481.1183996254
  0
LINE
  5
357
100
AcDbEntity
  8
06___PRT_ALL_SURFS
100
AcDbLine
 62
7
  6
CONTINUOUS
 10
448.7672180025
 20
480.1477267671
 11
326.0966355267
 21
480.9619404119
  0
LINE
  5
358
100
AcDbEntity
  8
06___PRT_ALL_SURFS
100
AcDbLine
 62
7
  6
CONTINUOUS
 10
234.4276402412
 20
480.7386420887
 11
233.3287826676
 21
480.7480646758
  0
LINE
  5
359
100
AcDbEntity
  8
06___PRT_ALL_SURFS
100
AcDbLine
 62
7
  6
CONTINUOUS
 10
326.0966355267
 20
480.9619404119
 11
308.9401716083
 21
481.1265177664
  0
LWPOLYLINE
  5
35A
100
AcDbEntity
  8
06___PRT_ALL_SURFS
100
AcDbPolyline
 62
7
  6
CONTINUOUS
 90
6
 70
0
 10
308.9401716083
 20
481.1265177664
 10
298.9047216304
 20
481.2927691171
 10
294.2707463571
 20
481.3993118613
 10
289.88308097
 20
481.5247704949
 10
285.7881551312
 20
481.6674314307
 10
271.7814532423
 20
482.1935479745
  0
LWPOLYLINE
  5
35B
100
AcDbEntity
  8
06___PRT_ALL_SURFS
100
AcDbPolyline
 62
7
  6
CONTINUOUS
 90
4
 70
0
 10
271.7814532423
 20
482.1935479745
 10
268.6011956924
 20
482.2863606768
 10
265.6225305011
 20
482.3460507208
 10
263.5553257798
 20
482.365660168
  0
LWPOLYLINE
  5
35C
100
AcDbEntity
  8
06___PRT_ALL_SURFS
100
AcDbPolyline
 62
7
  6
CONTINUOUS
 90
6
 70
0
 10
235.061753924
 20
480.7254473067
 10
235.0397796
 20
480.7274169836
 10
234.9942443914
 20
480.7293604423
 10
234.9251482983
 20
480.7312775542
 10
234.8297198874
 20
480.7331751446
 10
234.4276402412
 20
480.7386420887
  0
LWPOLYLINE
  5
35D
100
AcDbEntity
  8
0
100
AcDbPolyline
 62
7
  6
CONTINUOUS
 90
3
 70
0
 10
249.5015255004
 20
481.812041426
 10
249.4733434849
 20
481.8081066511
 10
249.1508889144
 20
481.7617030226
  0
LINE
  5
35E
100
AcDbEntity
  8
0
100
AcDbLine
 62
7
  6
CONTINUOUS
 10
249.1508889144
 20
481.7617030226
 11
249.0274486765
 21
481.7446040392
  0
LINE
  5
35F
100
AcDbEntity
  8
0
100
AcDbLine
 62
7
  6
CONTINUOUS
 10
249.5596983107
 20
481.8198881883
 11
249.5303126305
 21
481.8159705551
  0
LINE
  5
360
100
AcDbEntity
  8
0
100
AcDbLine
 62
7
  6
CONTINUOUS
 10
249.0274486765
 20
481.7446040392
 11
248.9360815063
 21
481.7324968919
  0
LINE
  5
361
100
AcDbEntity
  8
0
100
AcDbLine
 62
7
  6
CONTINUOUS
 10
246.7501323252
 20
481.4984164001
 11
245.7414989657
 21
481.3647277772
  0
LINE
  5
362
100
AcDbEntity
  8
0
100
AcDbLine
 62
7
  6
CONTINUOUS
 10
248.9360815063
 20
481.7324968919
 11
248.8370855241
 21
481.7199858281
  0
LINE
  5
363
100
AcDbEntity
  8
0
100
AcDbLine
 62
7
  6
CONTINUOUS
 10
246.9889547583
 20
481.5286707711
 11
246.7501323252
 21
481.4984164001
  0
LINE
  5
364
100
AcDbEntity
  8
0
100
AcDbLine
 62
7
  6
CONTINUOUS
 10
245.7414989657
 20
481.3647277772
 11
245.3580929112
 21
481.3161838901
  0
LINE
  5
365
100
AcDbEntity
  8
0
100
AcDbLine
 62
7
  6
CONTINUOUS
 10
245.3580929112
 20
481.3161838901
 11
245.0878984229
 21
481.2834312802
  0
LINE
  5
366
100
AcDbEntity
  8
0
100
AcDbLine
 62
7
  6
CONTINUOUS
 10
247.1366236464
 20
481.5465294508
 11
246.9889547583
 21
481.5286707711
  0
LINE
  5
367
100
AcDbEntity
  8
0
100
AcDbLine
 62
7
  6
CONTINUOUS
 10
242.3920225172
 20
480.9820761128
 11
240.2286790408
 21
480.7210571769
  0
LINE
  5
368
100
AcDbEntity
  8
0
100
AcDbLine
 62
7
  6
CONTINUOUS
 10
248.8370855241
 20
481.7199858281
 11
248.7310713789
 21
481.7073200137
  0
LINE
  5
369
100
AcDbEntity
  8
0
100
AcDbLine
 62
7
  6
CONTINUOUS
 10
240.2286790408
 20
480.7210571769
 11
239.9173965722
 21
480.6846013097
  0
LINE
  5
36A
100
AcDbEntity
  8
0
100
AcDbLine
 62
7
  6
CONTINUOUS
 10
247.2757856657
 20
481.5626467727
 11
247.1366236464
 21
481.5465294508
  0
LINE
  5
36B
100
AcDbEntity
  8
0
100
AcDbLine
 62
7
  6
CONTINUOUS
 10
245.0878984229
 20
481.2834312802
 11
244.6737954421
 21
481.2354617525
  0
LINE
  5
36C
100
AcDbEntity
  8
0
100
AcDbLine
 62
7
  6
CONTINUOUS
 10
243.0228331055
 20
481.0546431615
 11
242.3920225172
 21
480.9820761128
  0
LINE
  5
36D
100
AcDbEntity
  8
0
100
AcDbLine
 62
7
  6
CONTINUOUS
 10
248.7310713789
 20
481.7073200137
 11
248.6201204621
 21
481.6948591063
  0
LINE
  5
36E
100
AcDbEntity
  8
0
100
AcDbLine
 62
7
  6
CONTINUOUS
 10
247.4068483488
 20
481.577143387
 11
247.2757856657
 21
481.5626467727
  0
LINE
  5
36F
100
AcDbEntity
  8
0
100
AcDbLine
 62
7
  6
CONTINUOUS
 10
244.6737954421
 20
481.2354617525
 11
243.0228331055
 21
481.0546431615
  0
LINE
  5
370
100
AcDbEntity
  8
0
100
AcDbLine
 62
7
  6
CONTINUOUS
 10
247.5305105673
 20
481.5902033247
 11
247.4068483488
 21
481.577143387
  0
LINE
  5
371
100
AcDbEntity
  8
0
100
AcDbLine
 62
7
  6
CONTINUOUS
 10
248.6201204621
 20
481.6948591063
 11
248.506899582
 21
481.6829110231
  0
LINE
  5
372
100
AcDbEntity
  8
0
100
AcDbLine
 62
7
  6
CONTINUOUS
 10
248.506899582
 20
481.6829110231
 11
248.3924978557
 21
481.6715071901
  0
LINE
  5
373
100
AcDbEntity
  8
0
100
AcDbLine
 62
7
  6
CONTINUOUS
 10
247.705736865
 20
481.6077343737
 11
247.5305105673
 21
481.5902033247
  0
LINE
  5
374
100
AcDbEntity
  8
0
100
AcDbLine
 62
7
  6
CONTINUOUS
 10
248.3924978557
 20
481.6715071901
 11
248.2202833042
 21
481.6552608698
  0
LINE
  5
375
100
AcDbEntity
  8
0
100
AcDbLine
 62
7
  6
CONTINUOUS
 10
247.9331334444
 20
481.629114066
 11
247.705736865
 21
481.6077343737
  0
LINE
  5
376
100
AcDbEntity
  8
0
100
AcDbLine
 62
7
  6
CONTINUOUS
 10
248.2202833042
 20
481.6552608698
 11
247.9331334444
 21
481.629114066
  0
LINE
  5
377
100
AcDbEntity
  8
0
100
AcDbLine
 62
7
  6
CONTINUOUS
 10
252.5848078616
 20
481.9787655926
 11
252.2284013993
 21
481.9558873319
  0
LINE
  5
378
100
AcDbEntity
  8
06___PRT_ALL_SURFS
100
AcDbLine
 62
7
  6
CONTINUOUS
 10
234.6694794954
 20
480.7006890488
 11
235.061753924
 21
480.7254473067
  0
LWPOLYLINE
  5
379
100
AcDbEntity
  8
0
100
AcDbPolyline
 62
7
  6
CONTINUOUS
 90
3
 70
0
 10
252.2284013993
 20
481.9558873319
 10
251.652315477
 20
481.9229415205
 10
251.4174723027
 20
481.9115667907
  0
LWPOLYLINE
  5
37A
100
AcDbEntity
  8
06___PRT_ALL_SURFS
100
AcDbPolyline
 62
7
  6
CONTINUOUS
 90
22
 70
0
 10
89.6792950475
 20
481.1184166783
 10
88.7967271689
 20
481.0816189234
 10
87.9254374913
 20
480.9678866517
 10
87.071994837
 20
480.7793123876
 10
86.2381548195
 20
480.5168913079
 10
85.4346410322
 20
480.184617869
 10
84.6795239482
 20
479.7932807423
 10
83.9767017311
 20
479.3504675811
 10
83.3277792514
 20
478.8629001541
 10
82.7428985589
 20
478.3457613251
 10
82.2248223909
 20
477.8120644453
 10
81.7668589251
 20
477.2658060218
 10
81.3629648049
 20
476.7091177531
 10
81.013695363
 20
476.1525179768
 10
80.7129349924
 20
475.5966143561
 10
80.4488056262
 20
475.0249712856
 10
80.222366275
 20
474.4412091062
 10
80.0335414045
 20
473.846667011
 10
79.8770612889
 20
473.2179327011
 10
79.7568628755
 20
472.547793091
 10
79.6807554523
 20
471.8469746637
 10
79.6541804503
 20
471.1184163212
  0
LWPOLYLINE
  5
37B
100
AcDbEntity
  8
0
100
AcDbPolyline
 62
7
  6
CONTINUOUS
 90
14
 70
0
 10
250.215744907
 20
481.8715076812
 10
250.1405637385
 20
481.8685263255
 10
250.0730301502
 20
481.8653834027
 10
250.0106303419
 20
481.8620686956
 10
249.9530334961
 20
481.8585843624
 10
249.9005704328
 20
481.8549482084
 10
249.851719808
 20
481.8511911273
 10
249.8063550734
 20
481.8473490456
 10
249.7646027795
 20
481.843447742
 10
249.7253212301
 20
481.8395048055
 10
249.6884602894
 20
481.8355604762
 10
249.6540700949
 20
481.831632565
 10
249.6211593601
 20
481.8276959263
 10
249.5896891051
 20
481.8237771375
  0
LINE
  5
37C
100
AcDbEntity
  8
0
100
AcDbLine
 62
7
  6
CONTINUOUS
 10
251.4174723027
 20
481.9115667907
 11
251.0306414285
 21
481.8959911565
  0
LINE
  5
37D
100
AcDbEntity
  8
0
100
AcDbLine
 62
7
  6
CONTINUOUS
 10
250.3879173316
 20
481.8771550283
 11
250.215744907
 21
481.8715076812
  0
LINE
  5
37E
100
AcDbEntity
  8
0
100
AcDbLine
 62
7
  6
CONTINUOUS
 10
251.0306414285
 20
481.8959911565
 11
250.7271979317
 21
481.886526613
  0
LWPOLYLINE
  5
37F
100
AcDbEntity
  8
06___PRT_ALL_SURFS
100
AcDbPolyline
 62
7
  6
CONTINUOUS
 90
38
 70
0
 10
650.8448160363
 20
421.0381024178
 10
656.1321122358
 20
418.4851695338
 10
662.1862831237
 20
415.3196172037
 10
668.0539410321
 20
412.0199051993
 10
673.6030759965
 20
408.6583511385
 10
678.7832469948
 20
405.2495492194
 10
683.6448950491
 20
401.778905244
 10
688.2073332605
 20
398.2749542362
 10
692.4653119542
 20
394.7385505617
 10
696.424080805
 20
391.1688398548
 10
700.1187019382
 20
387.5917940421
 10
703.5505604691
 20
384.0058808889
 10
706.7182712826
 20
380.41263263
 10
709.6527411585
 20
376.8426178965
 10
712.3516559075
 20
373.2994738968
 10
714.817329719
 20
369.7795634227
 10
717.0876119411
 20
366.3025434801
 10
719.16313992
 20
362.8696357008
 10
721.0432763096
 20
359.4796184532
 10
722.7639584197
 20
356.1484838486
 10
724.3196378458
 20
352.8999438514
 10
725.7158629924
 20
349.7102864973
 10
727.0052163838
 20
346.5243680048
 10
728.1960167037
 20
343.3445542124
 10
729.2799452682
 20
340.1684792817
 10
730.28462855
 20
336.9339019154
 10
731.2184208415
 20
333.634022735
 10
732.0729678503
 20
330.2756411192
 10
732.8508331711
 20
326.8169139071
 10
733.558379887
 20
323.2156366344
 10
734.189244915
 20
319.5140137654
 10
734.7269026016
 20
315.7968155326
 10
735.1627996779
 20
312.0445235942
 10
735.5054894127
 20
308.2766562921
 10
735.7641059588
 20
304.636538884
 10
735.9416940336
 20
301.1719464558
 10
736.0352089197
 20
297.8351039215
 10
736.044650617
 20
294.6260112812
  0
LWPOLYLINE
  5
380
100
AcDbEntity
  8
06___PRT_ALL_SURFS
100
AcDbPolyline
 62
7
  6
CONTINUOUS
 90
79
 70
0
 10
726.0613781955
 20
294.6262139153
 10
726.0519921094
 20
292.7682964663
 10
726.0224167255
 20
290.8624066787
 10
725.9706178384
 20
288.9102771428
 10
725.8948189458
 20
286.9206027977
 10
725.7926802748
 20
284.8881117705
 10
725.6604862023
 20
282.7942907887
 10
725.495210022
 20
280.6423063726
 10
725.2935918533
 20
278.4341215976
 10
725.0497517146
 20
276.1509447333
 10
724.759347037
 20
273.796873417
 10
724.4176797467
 20
271.3749477457
 10
724.0160346996
 20
268.8666415873
 10
723.5482137602
 20
266.2769442926
 10
723.007670569
 20
263.6104941812
 10
722.382192766
 20
260.8503300746
 10
721.6613768481
 20
257.9974573928
 10
720.8366772281
 20
255.0626399413
 10
719.8957636325
 20
252.044824029
 10
718.8206979202
 20
248.9325095671
 10
717.6047338338
 20
245.7498315344
 10
716.2549379081
 20
242.5465942168
 10
714.7623169071
 20
239.3258499658
 10
713.117165177
 20
236.0897315681
 10
711.3330769859
 20
232.8808095144
 10
709.4113918846
 20
229.7107095914
 10
707.3383799324
 20
226.5655189808
 10
705.1100326109
 20
223.4470368443
 10
702.7256060557
 20
220.3584007051
 10
700.1853145856
 20
217.3033760211
 10
697.4910778733
 20
214.287458892
 10
694.6400407501
 20
211.3111373374
 10
691.6376063325
 20
208.3841093239
 10
688.5003459411
 20
205.5249010735
 10
685.2139602593
 20
202.7231107314
 10
681.7991891331
 20
199.9992814093
 10
678.333886252
 20
197.4115664074
 10
674.8271936271
 20
194.9575734637
 10
671.2892356
 20
192.6340524599
 10
667.8110278398
 20
190.4853935329
 10
664.4359756261
 20
188.5178741107
 10
661.1460669741
 20
186.7025188462
 10
657.9438772848
 20
185.026137296
 10
654.8472741165
 20
183.4844647075
 10
651.8557218248
 20
182.064632029
 10
648.9413112268
 20
180.7434844092
 10
646.104954649
 20
179.5132985977
 10
643.3575315534
 20
178.3711657405
 10
640.6839015633
 20
177.304162754
 10
638.0808036838
 20
176.3055548093
 10
635.5590373906
 20
175.3744779488
 10
633.1233631781
 20
174.5078523409
 10
630.7865932699
 20
173.7055428489
 10
628.5412129901
 20
172.960641356
 10
626.3606634351
 20
172.2609748685
 10
624.2538817585
 20
171.6065954294
 10
622.2148843465
 20
170.9930161075
 10
620.1936497087
 20
170.4036252594
 10
618.196609481
 20
169.8395241136
 10
616.218058688
 20
169.2983150021
 10
614.1888159195
 20
168.7613020376
 10
612.0966933573
 20
168.2266332597
 10
609.953907255
 20
167.6988002133
 10
607.7274661636
 20
167.1713183508
 10
605.407608552
 20
166.6442499075
 10
603.0041297375
 20
166.1222360078
 10
600.5133142067
 20
165.6067799564
 10
597.9354793951
 20
165.1004751926
 10
595.270752765
 20
164.6059342913
 10
592.5152290659
 20
164.1250626757
 10
589.670763712
 20
163.6610829148
 10
586.7354400039
 20
163.2167685303
 10
583.6996548251
 20
162.79396102
 10
580.5634689841
 20
162.3963507513
 10
577.3259321648
 20
162.0275734043
 10
573.975796262
 20
161.6903129091
 10
570.5088551379
 20
161.3886311374
 10
566.9279744615
 20
161.1274952885
 10
563.2323717465
 20
160.9115749359
  0
LWPOLYLINE
  5
381
100
AcDbEntity
  8
06___PRT_ALL_SURFS
100
AcDbPolyline
 62
7
  6
CONTINUOUS
 90
37
 70
0
 10
736.044650617
 20
294.6260112812
 10
736.0114326661
 20
291.0477532094
 10
735.9057851706
 20
287.5059060634
 10
735.7277081307
 20
284.0004698432
 10
735.4789903366
 20
280.5368143051
 10
735.157842998
 20
277.1095696928
 10
734.7588997439
 20
273.7026267372
 10
734.2784833003
 20
270.2978278437
 10
733.7202709411
 20
266.9133306068
 10
733.0899281168
 20
263.5874985412
 10
732.3959195922
 20
260.3546027021
 10
731.6297806024
 20
257.1803720342
 10
730.7717823037
 20
254.0003568863
 10
729.8318261017
 20
250.8173254686
 10
728.8000105909
 20
247.6285095709
 10
727.6269027107
 20
244.3611549112
 10
726.3109214465
 20
240.9895634504
 10
724.8536478129
 20
237.5394332275
 10
723.2103917934
 20
234.0151040779
 10
721.3828594884
 20
230.4122805587
 10
719.3693447974
 20
226.7352581126
 10
717.1200394017
 20
223.0012629036
 10
714.6338560672
 20
219.2054735725
 10
711.911882028
 20
215.3527114785
 10
708.9075706669
 20
211.4746668618
 10
705.6207559742
 20
207.5699551199
 10
702.0516039595
 20
203.6399608554
 10
698.1540660344
 20
199.7205281168
 10
693.9126805108
 20
195.8027795833
 10
689.3429090767
 20
191.8955925757
 10
684.4450882073
 20
188.0614431041
 10
679.1661856991
 20
184.2876886111
 10
673.5592337556
 20
180.5869716542
 10
667.783665463
 20
177.0596959152
 10
661.8146197952
 20
173.7225020606
 10
655.6769577783
 20
170.5587494241
 10
650.8245262528
 20
168.2094894589
  0
LINE
  5
382
100
AcDbEntity
  8
06___PRT_ALL_SURFS
100
AcDbLine
 62
7
  6
CONTINUOUS
 10
744.265220574
 20
283.0345953081
 11
744.1376136547
 21
281.1091586874
  0
LINE
  5
383
100
AcDbEntity
  8
06___PRT_ALL_SURFS
100
AcDbLine
 62
7
  6
CONTINUOUS
 10
744.1376136547
 20
281.1091586874
 11
744.0616564795
 21
280.0797655065
  0
LINE
  5
384
100
AcDbEntity
  8
06___PRT_ALL_SURFS
100
AcDbLine
 62
7
  6
CONTINUOUS
 10
744.0616564795
 20
280.0797655065
 11
743.9928459237
 21
279.2074811108
  0
LWPOLYLINE
  5
385
100
AcDbEntity
  8
06___PRT_ALL_SURFS
100
AcDbPolyline
 62
7
  6
CONTINUOUS
 90
95
 70
0
 10
743.9928459237
 20
279.2074811108
 10
743.9182372965
 20
278.3183648186
 10
743.8378150198
 20
277.4179863665
 10
743.7505831002
 20
276.5009501153
 10
743.6542357808
 20
275.5509261141
 10
743.5472174466
 20
274.5627997495
 10
743.4289770858
 20
273.542010666
 10
743.2982667566
 20
272.4881203349
 10
743.1539480699
 20
271.4024438114
 10
742.9944879255
 20
270.2841244221
 10
742.8178258889
 20
269.1295318069
 10
742.622492042
 20
267.9386974951
 10
742.4070931144
 20
266.7123669265
 10
742.1695463583
 20
265.4481039351
 10
741.9082305178
 20
264.1468780847
 10
741.6212621411
 20
262.8088499808
 10
741.3057548491
 20
261.4305149851
 10
740.9597911314
 20
260.0137205709
 10
740.580895676
 20
258.5582286694
 10
740.165131776
 20
257.0575611899
 10
739.7103389631
 20
255.5122059963
 10
739.2146348858
 20
253.9236938616
 10
738.6740561725
 20
252.2873836959
 10
738.086287097
 20
250.6045024282
 10
737.4491179163
 20
248.8766256953
 10
736.75848734
 20
247.0997354389
 10
736.0129715346
 20
245.2754603443
 10
735.2109352843
 20
243.4042357741
 10
734.348039353
 20
241.4801589351
 10
733.4224135999
 20
239.5030437146
 10
732.4334067164
 20
237.4755145963
 10
731.3771599672
 20
235.3965883266
 10
730.2495230525
 20
233.2660575368
 10
729.0487977344
 20
231.0886249164
 10
727.7745547666
 20
228.8709609855
 10
726.4196343388
 20
226.6082046409
 10
724.9856091429
 20
224.3105302514
 10
723.4868524725
 20
222.0063732971
 10
721.9217336282
 20
219.6970369261
 10
720.2893852565
 20
217.3854751831
 10
718.6082414372
 20
215.1008005354
 10
716.8833439213
 20
212.8508366029
 10
715.1098976263
 20
210.6303166951
 10
713.2935619689
 20
208.4473012076
 10
711.437079798
 20
206.305494436
 10
709.5386276176
 20
204.2032189788
 10
707.5973467869
 20
202.1402277293
 10
705.6230359682
 20
200.12724416
 10
703.6071024762
 20
198.155890002
 10
701.5192235184
 20
196.1993631534
 10
699.3518789978
 20
194.2557333176
 10
697.1095329979
 20
192.3342207088
 10
694.7772361805
 20
190.4277712216
 10
692.3304413982
 20
188.524330621
 10
689.788771232
 20
186.6474349186
 10
687.206109093
 20
184.8408924588
 10
684.589722716
 20
183.1103957134
 10
681.9356731444
 20
181.4539828398
 10
679.2860326376
 20
179.8966956722
 10
676.6745974071
 20
178.4534374155
 10
674.0749007288
 20
177.1046555548
 10
671.4388270058
 20
175.8229378717
 10
668.7780741573
 20
174.6109854824
 10
666.0860177709
 20
173.4626386524
 10
663.2834068824
 20
172.3447661578
 10
660.3539075438
 20
171.2553256683
 10
657.3148280696
 20
170.2048695867
 10
654.1347931092
 20
169.18687473
 10
650.8059267154
 20
168.2039977826
 10
647.3368656282
 20
167.2627513085
 10
643.7208534263
 20
166.3642825461
 10
639.9577869568
 20
165.5108696802
 10
636.0498540358
 20
164.7042550835
 10
631.9943401315
 20
163.9441287254
 10
627.783526107
 20
163.2302086816
 10
623.4269312346
 20
162.5663660057
 10
618.9479835869
 20
161.9569901722
 10
614.304954533
 20
161.3969107565
 10
609.5419150385
 20
160.8912345777
 10
604.8115320412
 20
160.4530344115
 10
600.1327515503
 20
160.0788356828
 10
595.4887210733
 20
159.7623161534
 10
590.9787206029
 20
159.504199801
 10
586.6302671042
 20
159.2987547745
 10
582.4174484363
 20
159.1389556736
 10
578.3594774822
 20
159.0204875096
 10
574.4617791932
 20
158.9385284991
 10
570.7196928901
 20
158.88837333
 10
567.1372150243
 20
158.8658428795
 10
563.723277988
 20
158.8670491206
 10
560.4692780467
 20
158.8884020692
 10
557.3528214713
 20
158.9269958583
 10
554.3731278419
 20
158.9801988243
 10
551.5310982266
 20
159.045536139
 10
548.8068346503
 20
159.1213159391
  0
ARC
  5
386
100
AcDbEntity
  8
06___PRT_ALL_SURFS
100
AcDbCircle
 62
7
  6
CONTINUOUS
 10
134.2657149376
 20
294.6260112812
 40
69.0
100
AcDbArc
 50
329.7386132379
 51
30.2613867621
  0
ARC
  5
387
100
AcDbEntity
  8
06___PRT_ALL_SURFS
100
AcDbCircle
 62
7
  6
CONTINUOUS
 10
181.3484132067
 20
321.809219801
 40
69.0
100
AcDbArc
 50
209.7386132379
 51
270.2613867621
  0
ARC
  5
388
100
AcDbEntity
  8
06___PRT_ALL_SURFS
100
AcDbCircle
 62
7
  6
CONTINUOUS
 10
181.3484132067
 20
267.4428027614
 40
69.0
100
AcDbArc
 50
89.7386132379
 51
150.2613867621
  0
ARC
  5
389
100
AcDbEntity
  8
06___PRT_ALL_SURFS
100
AcDbCircle
 62
7
  6
CONTINUOUS
 10
165.6541804503
 20
294.6260112812
 40
53.5
100
AcDbArc
 50
29.8399545632
 51
330.1600454368
  0
ARC
  5
38A
100
AcDbEntity
  8
06___PRT_ALL_SURFS
100
AcDbCircle
 62
7
  6
CONTINUOUS
 10
181.5984132067
 20
267.0097900595
 40
14.2
100
AcDbArc
 50
270.2613867621
 51
329.7386132379
  0
ARC
  5
38B
100
AcDbEntity
  8
06___PRT_ALL_SURFS
100
AcDbCircle
 62
7
  6
CONTINUOUS
 10
133.7657149376
 20
294.6260112812
 40
14.2
100
AcDbArc
 50
150.2613867621
 51
209.7386132379
  0
ARC
  5
38C
100
AcDbEntity
  8
06___PRT_ALL_SURFS
100
AcDbCircle
 62
7
  6
CONTINUOUS
 10
181.5984132067
 20
322.2422325029
 40
14.2
100
AcDbArc
 50
30.2613867621
 51
89.7386132379
  0
CIRCLE
  5
38D
100
AcDbEntity
  8
06___PRT_ALL_SURFS
100
AcDbCircle
 62
7
  6
CONTINUOUS
 10
130.6541804503
 20
199.6260112812
 40
14.0
  0
ARC
  5
38E
100
AcDbEntity
  8
06___PRT_ALL_SURFS
100
AcDbCircle
 62
7
  6
CONTINUOUS
 10
89.6541804503
 20
472.7681583329
 40
10.0
100
AcDbArc
 50
89.9566180304
 51
179.9999999812
  0
ARC
  5
38F
100
AcDbEntity
  8
06___PRT_ALL_SURFS
100
AcDbCircle
 62
7
  6
CONTINUOUS
 10
89.6541804503
 20
116.483882911
 40
10.0
100
AcDbArc
 50
179.9999999946
 51
270.0433817636
  0
CIRCLE
  5
390
100
AcDbEntity
  8
06___PRT_ALL_SURFS
100
AcDbCircle
 62
7
  6
CONTINUOUS
 10
336.6311643368
 20
224.6257838031
 40
7.5
  0
CIRCLE
  5
391
100
AcDbEntity
  8
06___PRT_ALL_SURFS
100
AcDbCircle
 62
7
  6
CONTINUOUS
 10
336.6311643368
 20
364.6262387593
 40
7.5
  0
ENDSEC
  0
SECTION
  2
OBJECTS
  0
DICTIONARY
  5
C
100
AcDbDictionary
280
0
281
1
  3
ACAD_GROUP
350
D
  3
ACAD_MLINESTYLE
350
17
  3
ACAD_LAYOUT
350
1A
  3
ACAD_PLOTSETTINGS
350
19
  3
ACAD_PLOTSTYLENAME
350
E
  0
DICTIONARY
  5
D
102
{ACAD_REACTORS
330
C
102
}
100
AcDbDictionary
280
0
281
1
  0
ACDBDICTIONARYWDFLT
  5
E
102
{ACAD_REACTORS
330
C
102
}
100
AcDbDictionary
281
1
  3
Normal
350
F
100
AcDbDictionaryWithDefault
340
F
  0
DICTIONARY
  5
17
102
{ACAD_REACTORS
330
C
102
}
100
AcDbDictionary
280
0
281
1
  3
Standard
350
18
  0
DICTIONARY
  5
19
102
{ACAD_REACTORS
330
C
102
}
100
AcDbDictionary
281
1
  0
DICTIONARY
  5
1A
102
{ACAD_REACTORS
330
C
102
}
100
AcDbDictionary
281
1
  3
Model
350
392
  3
Layout1
350
393
  0
ACDBPLACEHOLDER
  5
F
102
{ACAD_REACTORS
330
E
102
}
  0
MLINESTYLE
  5
18
102
{ACAD_REACTORS
330
17
102
}
100
AcDbMlineStyle
  2
STANDARD
 70
0
  3

 62
256
 51
90.0
 52
90.0
 71
2
 49
0.5
 62
256
  6
BYLAYER
 49
-0.5
 62
256
  6
BYLAYER
  0
LAYOUT
  5
392
102
{ACAD_REACTORS
330
1A
102
}
100
AcDbPlotSettings
  1

  2
none_device
  4
ISO_A1_(594.00_x_841.00_MM)
  6

 40
0.0
 41
0.0
 42
0.0
 43
0.0
 44
841.0
 45
594.0
 46
0.0
 47
0.0
 48
0.0
 49
0.0
140
0.0
141
0.0
142
1.0
143
1.0
 70
1024
 72
1
 73
0
 74
0
  7

 75
0
147
1.0
148
0.0
149
0.0
100
AcDbLayout
  1
Model
 70
0
 71
0
 10
0.0
 20
0.0
 11
841.0
 21
594.0
 12
0.0
 22
0.0
 32
0.0
 14
0.0
 24
0.0
 34
0.0
 15
0.0
 25
0.0
 35
0.0
146
0.0
 13
0.0
 23
0.0
 33
0.0
 16
1.0
 26
0.0
 36
0.0
 17
0.0
 27
1.0
 37
0.0
 76
0
330
20C
345
0
346
0
  0
LAYOUT
  5
393
102
{ACAD_REACTORS
330
1A
102
}
100
AcDbPlotSettings
  1

  2
none_device
  4
ISO_A1_(594.00_x_841.00_MM)
  6

 40
0.0
 41
0.0
 42
0.0
 43
0.0
 44
841.0
 45
594.0
 46
0.0
 47
0.0
 48
0.0
 49
0.0
140
0.0
141
0.0
142
1.0
143
1.0
 70
0
 72
1
 73
0
 74
0
  7

 75
0
147
1.0
148
0.0
149
0.0
100
AcDbLayout
  1
Layout1
 70
0
 71
1
 10
0.0
 20
0.0
 11
841.0
 21
594.0
 12
0.0
 22
0.0
 32
0.0
 14
0.0
 24
0.0
 34
0.0
 15
0.0
 25
0.0
 35
0.0
146
0.0
 13
0.0
 23
0.0
 33
0.0
 16
1.0
 26
0.0
 36
0.0
 17
0.0
 27
1.0
 37
0.0
 76
0
330
20D
345
0
346
0
  0
ENDSEC
  0
EOF
