999
DXF file: C:\Chris\99-other\3D\148000\stp\f14800-side.dxf
999
Pro/ENGINEER 2019030 by Parametric Technology Corporation
  0
SECTION
  2
HEADER
  9
$ACADVER
  1
AC1032
  9
$DWGCODEPAGE
  3
ANSI_1252
  9
$EXTMAX
 10
23.3858267717
 20
16.5354330709
 30
0.0
  9
$EXTMIN
 10
0.0
 20
0.0
 30
0.0
  9
$LIMMIN
 10
0.0
 20
0.0
  9
$LIMMAX
 10
23.3858267717
 20
16.5354330709
  9
$VIEWCTR
 10
11.6929133858
 20
8.2677165354
  9
$VIEWSIZE
 40
16.5354330709
  9
$CLAYER
  8
0
  9
$LTSCALE
 40
1.2862204724
  9
$CELTYPE
  6
BYLAYER
  9
$DIMSCALE
 40
1.0
  9
$DIMASZ
 40
0.1875
  9
$DIMEXO
 40
0.0625
  9
$DIMDLI
 40
0.8886614173
  9
$DIMEXE
 40
0.125
  9
$DIMCEN
 40
0.2104724409
  9
$DIMLFAC
 40
1.0
  9
$DIMBLK
  1
_FILLED
  9
$DIMALT
 70
1
  9
$DIMALTD
 70
2
  9
$DIMALTTD
 70
2
  9
$DIMALTF
 40
25.4
  9
$DIMTXT
 40
0.15625
  9
$DIMTOL
 70
1
  9
$DIMLIM
 70
0
  9
$DIMTFAC
 40
1.0
  9
$DIMTP
 40
0.01
  9
$DIMTM
 40
0.01
  9
$DIMGAP
 40
0.09
  9
$DIMDSEP
 70
46
  9
$AUNITS
 70
0
  9
$PDMODE
 70
3
  9
$PDSIZE
 40
0.3125
  9
$HANDSEED
  5
24D
  9
$TILEMODE
 70
1
  9
$MEASUREMENT
 70
0
  9
$INSUNITS
 70
1
  0
ENDSEC
  0
SECTION
  2
CLASSES
  0
CLASS
  1
ACDBDICTIONARYWDFLT
  2
AcDbDictionaryWithDefault
  3
AutoCAD 2000
 90
0
 91
1
280
0
281
0
  0
CLASS
  1
ACDBPLACEHOLDER
  2
AcDbPlaceHolder
  3
AutoCAD 2000
 90
0
 91
1
280
0
281
0
  0
CLASS
  1
LAYOUT
  2
AcDbLayout
  3
AutoCAD 2000
 90
0
 91
0
280
0
281
0
  0
ENDSEC
  0
SECTION
  2
TABLES
  0
TABLE
  2
VPORT
  5
8
100
AcDbSymbolTable
 70
2
  0
VPORT
  5
1F4
100
AcDbSymbolTableRecord
100
AcDbViewportTableRecord
  2
*ACTIVE
 70
0
 10
0.0
 20
0.0
 11
1.0
 21
1.0
 12
11.6929133858
 22
8.2677165354
 13
0.0
 23
0.0
 14
1.0
 24
1.0
 15
0.0
 25
0.0
 16
0.0
 26
0.0
 36
1.0
 17
0.0
 27
0.0
 37
0.0
 40
16.5354330709
 41
1.4142857143
 42
50.0
 43
0.0
 44
0.0
 50
0.0
 51
0.0
 71
0
 72
100
 73
1
 74
1
 75
0
 76
0
 77
0
 78
0
  0
ENDTAB
  0
TABLE
  2
LTYPE
  5
5
100
AcDbSymbolTable
 70
6
  0
LTYPE
  5
14
100
AcDbSymbolTableRecord
100
AcDbLinetypeTableRecord
  2
BYBLOCK
 70
0
  3

 72
65
 73
0
 40
0.0
  0
LTYPE
  5
15
100
AcDbSymbolTableRecord
100
AcDbLinetypeTableRecord
  2
BYLAYER
 70
0
  3

 72
65
 73
0
 40
0.0
  0
LTYPE
  5
16
100
AcDbSymbolTableRecord
100
AcDbLinetypeTableRecord
  2
CONTINUOUS
 70
64
  3
Solid line
 72
65
 73
0
 40
0.0
  0
LTYPE
  5
1F5
100
AcDbSymbolTableRecord
100
AcDbLinetypeTableRecord
  2
CENTER
 70
64
  3
____ _ ____ _ ____ _ ____ _ ____ _ ____ _ ____
 72
65
 73
4
 40
0.6
 49
0.375
 74
0
 49
-0.075
 74
0
 49
0.075
 74
0
 49
-0.075
 74
0
  0
LTYPE
  5
1F6
100
AcDbSymbolTableRecord
100
AcDbLinetypeTableRecord
  2
HIDDEN
 70
64
  3
- - - - - - - - - - - - - - - - - - - -
 72
65
 73
2
 40
0.2
 49
0.1
 74
0
 49
-0.1
 74
0
  0
LTYPE
  5
1F7
100
AcDbSymbolTableRecord
100
AcDbLinetypeTableRecord
  2
PHANTOM
 70
64
  3
_____ _ _ _____ _ _ _____ _ _ _____
 72
65
 73
6
 40
0.8
 49
0.45
 74
0
 49
-0.05
 74
0
 49
0.1
 74
0
 49
-0.05
 74
0
 49
0.1
 74
0
 49
-0.05
 74
0
  0
LTYPE
  5
1F8
100
AcDbSymbolTableRecord
100
AcDbLinetypeTableRecord
  2
DOT
 70
64
  3
. . . . . . . . . . . . . . . . . . . .
 72
65
 73
2
 40
0.2
 49
0.1
 74
0
 49
-0.1
 74
0
  0
LTYPE
  5
1F9
100
AcDbSymbolTableRecord
100
AcDbLinetypeTableRecord
  2
DASHED
 70
64
  3
- - - - - - - - - - - - - - - - - - - -
 72
65
 73
2
 40
0.2
 49
0.1
 74
0
 49
-0.1
 74
0
  0
ENDTAB
  0
TABLE
  2
LAYER
  5
2
100
AcDbSymbolTable
 70
36
  0
LAYER
  5
10
100
AcDbSymbolTableRecord
100
AcDbLayerTableRecord
  2
0
 70
0
 62
7
  6
CONTINUOUS
370
-3
390
F
  0
LAYER
  5
1FA
100
AcDbSymbolTableRecord
100
AcDbLayerTableRecord
  2
DEFAULT_1
 70
0
 62
7
  6
CENTER
370
-3
390
F
  0
LAYER
  5
1FB
100
AcDbSymbolTableRecord
100
AcDbLayerTableRecord
  2
DEFAULT_2
 70
0
 62
8
  6
HIDDEN
370
-3
390
F
  0
LAYER
  5
1FC
100
AcDbSymbolTableRecord
100
AcDbLayerTableRecord
  2
DEFAULT_3
 70
0
 62
7
  6
PHANTOM
370
-3
390
F
  0
LAYER
  5
1FD
100
AcDbSymbolTableRecord
100
AcDbLayerTableRecord
  2
DATUMS
 70
0
 62
7
  6
CONTINUOUS
370
-3
390
F
  0
LAYER
  5
1FE
100
AcDbSymbolTableRecord
100
AcDbLayerTableRecord
  2
DATUM_AXIS
 70
0
 62
7
  6
CONTINUOUS
370
-3
390
F
  0
LAYER
  5
1FF
100
AcDbSymbolTableRecord
100
AcDbLayerTableRecord
  2
DATUM_CSYS
 70
0
 62
7
  6
CONTINUOUS
370
-3
390
F
  0
LAYER
  5
200
100
AcDbSymbolTableRecord
100
AcDbLayerTableRecord
  2
DATUM_PLANE
 70
0
 62
7
  6
CONTINUOUS
370
-3
390
F
  0
LAYER
  5
201
100
AcDbSymbolTableRecord
100
AcDbLayerTableRecord
  2
DATUM_POINT
 70
0
 62
7
  6
CONTINUOUS
370
-3
390
F
  0
LAYER
  5
202
100
AcDbSymbolTableRecord
100
AcDbLayerTableRecord
  2
INTF_1
 70
0
 62
7
  6
CONTINUOUS
370
-3
390
F
  0
LAYER
  5
203
100
AcDbSymbolTableRecord
100
AcDbLayerTableRecord
  2
INTF_2
 70
0
 62
7
  6
CONTINUOUS
370
-3
390
F
  0
LAYER
  5
204
100
AcDbSymbolTableRecord
100
AcDbLayerTableRecord
  2
RGB( 127_ 255_   0 )
 70
0
 62
7
  6
CONTINUOUS
370
-3
390
F
  0
LAYER
  5
205
100
AcDbSymbolTableRecord
100
AcDbLayerTableRecord
  2
RGB__255__255__220__
 70
0
 62
7
  6
CONTINUOUS
370
-3
390
F
  0
LAYER
  5
206
100
AcDbSymbolTableRecord
100
AcDbLayerTableRecord
  2
_CURVE
 70
0
 62
7
  6
CONTINUOUS
370
-3
390
F
  0
LAYER
  5
207
100
AcDbSymbolTableRecord
100
AcDbLayerTableRecord
  2
_SURFACE
 70
0
 62
7
  6
CONTINUOUS
370
-3
390
F
  0
LAYER
  5
208
100
AcDbSymbolTableRecord
100
AcDbLayerTableRecord
  2
__REF_CURVE
 70
0
 62
7
  6
CONTINUOUS
370
-3
390
F
  0
LAYER
  5
209
100
AcDbSymbolTableRecord
100
AcDbLayerTableRecord
  2
__REF_SURFACE
 70
0
 62
7
  6
CONTINUOUS
370
-3
390
F
  0
ENDTAB
  0
TABLE
  2
STYLE
  5
3
100
AcDbSymbolTable
 70
1
  0
STYLE
  5
11
100
AcDbSymbolTableRecord
100
AcDbTextStyleTableRecord
  2
STANDARD
 70
0
 40
0.0
 41
0.8
 50
0.0
 71
0
 42
0.2
  3
txt
  4

  0
STYLE
  5
20A
100
AcDbSymbolTableRecord
100
AcDbTextStyleTableRecord
  2
TEXTSTYLE_1
 70
0
 40
0.0
 41
0.8
 50
0.0
 71
0
 42
0.2
  3
gdt
  4

  0
ENDTAB
  0
TABLE
  2
VIEW
  5
6
100
AcDbSymbolTable
 70
0
  0
ENDTAB
  0
TABLE
  2
UCS
  5
7
100
AcDbSymbolTable
 70
0
  0
ENDTAB
  0
TABLE
  2
APPID
  5
9
100
AcDbSymbolTable
 70
1
  0
APPID
  5
20B
100
AcDbSymbolTableRecord
100
AcDbRegAppTableRecord
  2
ACAD
 70
0
  0
ENDTAB
  0
TABLE
  2
BLOCK_RECORD
  5
1
100
AcDbSymbolTable
 70
0
  0
BLOCK_RECORD
  5
20C
100
AcDbSymbolTableRecord
100
AcDbBlockTableRecord
  2
*Model_Space
  0
BLOCK_RECORD
  5
20D
100
AcDbSymbolTableRecord
100
AcDbBlockTableRecord
  2
*Paper_Space
  0
BLOCK_RECORD
  5
20E
100
AcDbSymbolTableRecord
100
AcDbBlockTableRecord
  2
_FILLED
  0
ENDTAB
  0
TABLE
  2
DIMSTYLE
  5
A
100
AcDbSymbolTable
 70
1
100
AcDbDimStyleTable
 71
0
  0
DIMSTYLE
105
20F
100
AcDbSymbolTableRecord
100
AcDbDimStyleTableRecord
  2
STANDARD
 70
0
  3

  4

 40
1.0
 41
0.1875
 42
0.0625
 43
0.38
 44
0.125
 45
0.0
 46
0.0
 47
0.01
 48
0.01
140
0.15625
141
0.09
142
0.0
143
25.4
144
1.0
145
0.0
146
1.0
147
0.09
 71
1.0
 72
0.0
 73
1
 74
1
 75
0
 76
0
 77
0
 78
4
 79
1
170
1
171
2
172
0
173
0
174
0
175
0
176
0
177
0
178
0
270
2
179
3
271
3
272
3
273
2
274
2
275
0
280
0
281
0
282
0
283
1
284
4
285
0
286
0
287
3
288
0
340
11
278
46
341
20E
342
20E
343
20E
344
20E
  0
ENDTAB
  0
ENDSEC
  0
SECTION
  2
BLOCKS
  0
BLOCK
  5
20
100
AcDbEntity
  8
0
100
AcDbBlockBegin
  2
*Model_Space
 70
0
 10
0.0
 20
0.0
 30
0.0
  3
*Model_Space
  1

  0
ENDBLK
  5
21
100
AcDbEntity
  8
0
100
AcDbBlockEnd
  0
BLOCK
  5
1C
100
AcDbEntity
  8
0
100
AcDbBlockBegin
  2
*Paper_Space
 70
0
 10
0.0
 20
0.0
 30
0.0
  3
*Paper_Space
  1

  0
ENDBLK
  5
1D
100
AcDbEntity
  8
0
100
AcDbBlockEnd
  0
BLOCK
  5
210
100
AcDbEntity
  8
0
100
AcDbBlockBegin
  2
_FILLED
 70
64
 10
0.0
 20
0.0
  3
_FILLED
  1

  0
SOLID
  5
211
100
AcDbEntity
  8
0
  6
BYBLOCK
 62
0
100
AcDbTrace
 10
0.0
 20
0.0
 11
-1.0
 21
0.1666666667
 12
-1.0
 22
-0.1666666667
 13
-1.0
 23
-0.1666666667
  0
ENDBLK
  5
212
100
AcDbEntity
  8
0
  6
BYBLOCK
 62
0
100
AcDbBlockEnd
  0
ENDSEC
  0
SECTION
  2
ENTITIES
  0
LINE
  5
213
100
AcDbEntity
  8
0
100
AcDbLine
 62
7
  6
CONTINUOUS
 10
0.0
 20
0.0
 11
0.0
 21
16.5354330709
  0
LINE
  5
214
100
AcDbEntity
  8
0
100
AcDbLine
 62
7
  6
CONTINUOUS
 10
0.0
 20
0.0
 11
23.3858267717
 21
0.0
  0
LINE
  5
215
100
AcDbEntity
  8
0
100
AcDbLine
 62
7
  6
CONTINUOUS
 10
0.0
 20
16.5354330709
 11
23.3858267717
 21
16.5354330709
  0
LINE
  5
216
100
AcDbEntity
  8
0
100
AcDbLine
 62
7
  6
CONTINUOUS
 10
23.3858267717
 20
0.0
 11
23.3858267717
 21
16.5354330709
  0
LINE
  5
217
100
AcDbEntity
  8
0
100
AcDbLine
 62
7
  6
CONTINUOUS
 10
3.5210686534
 20
6.0812861187
 11
3.4043607193
 21
10.9962047876
  0
LINE
  5
218
100
AcDbEntity
  8
0
100
AcDbLine
 62
7
  6
CONTINUOUS
 10
3.5815260736
 20
6.0812861187
 11
3.5815260736
 21
6.0222310005
  0
LINE
  5
219
100
AcDbEntity
  8
0
100
AcDbLine
 62
7
  6
CONTINUOUS
 10
10.5397054094
 20
3.3450656462
 11
12.8044491
 21
3.3450656462
  0
LINE
  5
21A
100
AcDbEntity
  8
0
100
AcDbLine
 62
7
  6
CONTINUOUS
 10
10.5941541807
 20
3.5943160786
 11
10.3756352772
 21
3.5943160786
  0
LINE
  5
21B
100
AcDbEntity
  8
0
100
AcDbLine
 62
7
  6
CONTINUOUS
 10
10.2774012214
 20
3.7027911126
 11
10.5124777479
 21
3.7027911126
  0
LINE
  5
21C
100
AcDbEntity
  8
0
100
AcDbLine
 62
7
  6
CONTINUOUS
 10
13.0462592531
 20
4.7398910109
 11
10.8433185935
 21
4.7398910109
  0
LINE
  5
21D
100
AcDbEntity
  8
0
100
AcDbLine
 62
7
  6
CONTINUOUS
 10
4.2003424606
 20
6.0209640316
 11
5.7179819391
 21
5.7968655709
  0
LINE
  5
21E
100
AcDbEntity
  8
0
100
AcDbLine
 62
7
  6
CONTINUOUS
 10
10.3825864558
 20
3.4918836899
 11
10.3756352772
 21
3.5943160786
  0
LINE
  5
21F
100
AcDbEntity
  8
0
100
AcDbLine
 62
7
  6
CONTINUOUS
 10
6.1078357539
 20
5.622146483
 11
6.2449946662
 21
5.6221451359
  0
LINE
  5
220
100
AcDbEntity
  8
0
100
AcDbLine
 62
7
  6
CONTINUOUS
 10
5.7179819391
 20
5.7968655709
 11
5.8477435366
 21
5.7968658416
  0
LINE
  5
221
100
AcDbEntity
  8
0
100
AcDbLine
 62
7
  6
CONTINUOUS
 10
4.3053755169
 20
6.0209640316
 11
4.2003425591
 21
6.020964017
  0
LINE
  5
222
100
AcDbEntity
  8
0
100
AcDbLine
 62
7
  6
CONTINUOUS
 10
19.7626274013
 20
6.0222310005
 11
3.5815271081
 21
6.0222310005
  0
LINE
  5
223
100
AcDbEntity
  8
0
100
AcDbLine
 62
7
  6
CONTINUOUS
 10
3.5210696957
 20
6.0812861187
 11
19.8230848137
 21
6.0812861187
  0
LINE
  5
224
100
AcDbEntity
  8
0
100
AcDbLine
 62
7
  6
CONTINUOUS
 10
12.9615680536
 20
3.4918836899
 11
13.0462592531
 21
4.7398910109
  0
LINE
  5
225
100
AcDbEntity
  8
0
100
AcDbLine
 62
7
  6
CONTINUOUS
 10
19.7708702043
 20
11.352420699
 11
3.5732843051
 21
11.352420699
  0
LINE
  5
226
100
AcDbEntity
  8
0
100
AcDbLine
 62
7
  6
CONTINUOUS
 10
19.7626284358
 20
6.0812861187
 11
19.7626284358
 21
6.0222310005
  0
LINE
  5
227
100
AcDbEntity
  8
0
100
AcDbLine
 62
7
  6
CONTINUOUS
 10
19.823085856
 20
6.0812861187
 11
19.9397937901
 21
10.9962047876
  0
ARC
  5
228
100
AcDbEntity
  8
0
100
AcDbCircle
 62
7
  6
CONTINUOUS
 10
364.5233244146
 20
3.5757315801
 40
353.8459555431
100
AcDbArc
 50
179.80253068
 51
179.9475997083
  0
ARC
  5
229
100
AcDbEntity
  8
0
100
AcDbCircle
 62
7
  6
CONTINUOUS
 10
347.2426836986
 20
5.8116499763
 40
336.4010723978
100
AcDbArc
 50
180.1825421329
 51
180.3293431502
  0
ARC
  5
22A
100
AcDbEntity
  8
0
100
AcDbCircle
 62
7
  6
CONTINUOUS
 10
11.7338489082
 20
12.3553600161
 40
8.7742913386
100
AcDbArc
 50
230.1191726471
 51
260.4452292857
  0
ARC
  5
22B
100
AcDbEntity
  8
0
100
AcDbCircle
 62
7
  6
CONTINUOUS
 10
5.6029594685
 20
5.0179104559
 40
0.7874015748
100
AcDbArc
 50
50.1191726471
 51
81.600260105
  0
ARC
  5
22C
100
AcDbEntity
  8
0
100
AcDbCircle
 62
7
  6
CONTINUOUS
 10
13.2819376835
 20
4.7238976039
 40
0.2362204724
100
AcDbArc
 50
101.8295202289
 51
176.1177951414
  0
ARC
  5
22D
100
AcDbEntity
  8
0
100
AcDbCircle
 62
7
  6
CONTINUOUS
 10
10.5397054094
 20
3.5025459612
 40
0.157480315
100
AcDbArc
 50
183.8822048586
 51
270.0
  0
ARC
  5
22E
100
AcDbEntity
  8
0
100
AcDbCircle
 62
7
  6
CONTINUOUS
 10
12.8044491
 20
3.5025459612
 40
0.157480315
100
AcDbArc
 50
270.0
 51
356.1177951414
  0
ARC
  5
22F
100
AcDbEntity
  8
0
100
AcDbCircle
 62
7
  6
CONTINUOUS
 10
4.18308909
 20
5.9041207643
 40
0.1181102362
100
AcDbArc
 50
81.600260105
 51
90.0
  0
ARC
  5
230
100
AcDbEntity
  8
0
100
AcDbCircle
 62
7
  6
CONTINUOUS
 10
10.257796062
 20
3.5863193751
 40
0.1181102362
100
AcDbArc
 50
3.8822048586
 51
80.4452292857
  0
ARC
  5
231
100
AcDbEntity
  8
0
100
AcDbCircle
 62
7
  6
CONTINUOUS
 10
4.2883518144
 20
5.907224455
 40
0.1150065463
100
AcDbArc
 50
81.4874636744
 51
89.9934720119
  0
SPLINE
  5
232
100
AcDbEntity
  8
0
100
AcDbSpline
 62
7
  6
CONTINUOUS
 70
0
 71
3
 72
11
 73
7
 74
0
 42
0.0000001
 43
0.0000001
 44
0.0000000001
 40
0.0
 40
0.0
 40
0.0
 40
0.0
 40
0.2524260936
 40
0.5027672896
 40
0.7518302616
 40
1.0
 40
1.0
 40
1.0
 40
1.0
 10
13.2335124012
 20
4.9551012017
 30
0.0
 10
13.464906661
 20
5.0035664179
 30
0.0
 10
13.9215400545
 20
5.1218192116
 30
0.0
 10
14.5846360434
 20
5.3616081131
 30
0.0
 10
15.2191584281
 20
5.6598212334
 30
0.0
 10
15.6215195464
 20
5.8957687508
 30
0.0
 10
15.8165353744
 20
6.022228288
 30
0.0
  0
SPLINE
  5
233
100
AcDbEntity
  8
0
100
AcDbSpline
 62
7
  6
CONTINUOUS
 70
0
 71
3
 72
17
 73
13
 74
0
 42
0.0000001
 43
0.0000001
 44
0.0000000001
 40
0.0
 40
0.0
 40
0.0
 40
0.0
 40
0.2500809874
 40
0.3751208129
 40
0.500127938
 40
0.6250631997
 40
0.6875929988
 40
0.7501089213
 40
0.8126035673
 40
0.8750751064
 40
0.9375343799
 40
1.0
 40
1.0
 40
1.0
 40
1.0
 10
3.4043607193
 20
10.9962047876
 30
0.0
 10
3.4043607193
 20
11.0326496006
 30
0.0
 10
3.4044496589
 20
11.0873986751
 30
0.0
 10
3.4122305025
 20
11.1599667957
 30
0.0
 10
3.4237857573
 20
11.2135052137
 30
0.0
 10
3.4401830882
 20
11.2563163162
 30
0.0
 10
3.4587733865
 20
11.2877487356
 30
0.0
 10
3.4758235362
 20
11.3092417193
 30
0.0
 10
3.4962099083
 20
11.3276525515
 30
0.0
 10
3.519806255
 20
11.3418011589
 30
0.0
 10
3.5459079759
 20
11.3505437722
 30
0.0
 10
3.5641810627
 20
11.352420699
 30
0.0
 10
3.5732843051
 20
11.352420699
 30
0.0
  0
SPLINE
  5
234
100
AcDbEntity
  8
0
100
AcDbSpline
 62
7
  6
CONTINUOUS
 70
0
 71
3
 72
17
 73
13
 74
0
 42
0.0000001
 43
0.0000001
 44
0.0000000001
 40
0.0
 40
0.0
 40
0.0
 40
0.0
 40
0.2500809874
 40
0.3751208129
 40
0.500127938
 40
0.6250631997
 40
0.6875929988
 40
0.7501089213
 40
0.8126035673
 40
0.8750751064
 40
0.9375343799
 40
1.0
 40
1.0
 40
1.0
 40
1.0
 10
19.9397937901
 20
10.9962047876
 30
0.0
 10
19.9397937901
 20
11.0326496006
 30
0.0
 10
19.9397048505
 20
11.0873986751
 30
0.0
 10
19.9319240069
 20
11.1599667957
 30
0.0
 10
19.9203687521
 20
11.2135052137
 30
0.0
 10
19.9039714212
 20
11.2563163162
 30
0.0
 10
19.8853811229
 20
11.2877487356
 30
0.0
 10
19.8683309732
 20
11.3092417193
 30
0.0
 10
19.8479446011
 20
11.3276525515
 30
0.0
 10
19.8243482544
 20
11.3418011589
 30
0.0
 10
19.7982465335
 20
11.3505437722
 30
0.0
 10
19.7799734467
 20
11.352420699
 30
0.0
 10
19.7708702043
 20
11.352420699
 30
0.0
  0
SPLINE
  5
235
100
AcDbEntity
  8
0
100
AcDbSpline
 62
7
  6
CONTINUOUS
 70
0
 71
3
 72
11
 73
7
 74
0
 42
0.0000001
 43
0.0000001
 44
0.0000000001
 40
0.0
 40
0.0
 40
0.0
 40
0.0
 40
0.2502075249
 40
0.5002549511
 40
0.7501725022
 40
1.0
 40
1.0
 40
1.0
 40
1.0
 10
6.2449946662
 20
5.6221451359
 30
0.0
 10
6.5481077023
 20
5.3690954701
 30
0.0
 10
7.189486259
 20
4.9038583632
 30
0.0
 10
8.2366130877
 20
4.3439641152
 30
0.0
 10
9.3496455026
 20
3.9320324136
 30
0.0
 10
10.1225688858
 20
3.7611870038
 30
0.0
 10
10.5124769692
 20
3.7027911126
 30
0.0
  0
SPLINE
  5
236
100
AcDbEntity
  8
0
100
AcDbSpline
 62
7
  6
CONTINUOUS
 70
0
 71
3
 72
11
 73
7
 74
0
 42
0.0000001
 43
0.0000001
 44
0.0000000001
 40
0.0
 40
0.0
 40
0.0
 40
0.0
 40
0.2857202686
 40
0.5463031572
 40
0.782970137
 40
1.0
 40
1.0
 40
1.0
 40
1.0
 10
10.7302432263
 20
3.665444454
 30
0.0
 10
10.7201166149
 20
3.6543676301
 30
0.0
 10
10.6990708601
 20
3.6346358041
 30
0.0
 10
10.6644959709
 20
3.6119517237
 30
0.0
 10
10.6294544917
 20
3.5978033737
 30
0.0
 10
10.6055541935
 20
3.5943162552
 30
0.0
 10
10.5941541807
 20
3.5943160786
 30
0.0
  0
SPLINE
  5
237
100
AcDbEntity
  8
0
100
AcDbSpline
 62
7
  6
CONTINUOUS
 70
0
 71
3
 72
10
 73
6
 74
0
 42
0.0000001
 43
0.0000001
 44
0.0000000001
 40
0.0
 40
0.0
 40
0.0
 40
0.0
 40
0.5214832983
 40
0.7680714949
 40
1.0
 40
1.0
 40
1.0
 40
1.0
 10
10.8471687844
 20
3.8779861053
 30
0.0
 10
10.8329073504
 20
3.8380469853
 30
0.0
 10
10.8089511724
 20
3.7799933328
 30
0.0
 10
10.7669769423
 20
3.7101790914
 30
0.0
 10
10.7429696518
 20
3.6793651818
 30
0.0
 10
10.7302432263
 20
3.665444454
 30
0.0
  0
SPLINE
  5
238
100
AcDbEntity
  8
0
100
AcDbSpline
 62
7
  6
CONTINUOUS
 70
0
 71
3
 72
15
 73
11
 74
0
 42
0.0000001
 43
0.0000001
 44
0.0000000001
 40
0.0
 40
0.0
 40
0.0
 40
0.0
 40
0.0202654539
 40
0.047237457
 40
0.1214399593
 40
0.2215652268
 40
0.3451613623
 40
0.488947409
 40
0.6490113149
 40
1.0
 40
1.0
 40
1.0
 40
1.0
 10
10.6638544055
 20
4.9551012029
 30
0.0
 10
10.6631984952
 20
4.9543700318
 30
0.0
 10
10.6618969675
 20
4.9524682604
 30
0.0
 10
10.6591628997
 20
4.9472523788
 30
0.0
 10
10.6556394443
 20
4.9381266642
 30
0.0
 10
10.651310212
 20
4.9243514041
 30
0.0
 10
10.646719592
 20
4.9071334821
 30
0.0
 10
10.641993279
 20
4.8869600276
 30
0.0
 10
10.635505348
 20
4.8558879867
 30
0.0
 10
10.6311908218
 20
4.8314884126
 30
0.0
 10
10.6285032537
 20
4.8146897823
 30
0.0
  0
SPLINE
  5
239
100
AcDbEntity
  8
0
100
AcDbSpline
 62
7
  6
CONTINUOUS
 70
0
 71
3
 72
9
 73
5
 74
0
 42
0.0000001
 43
0.0000001
 44
0.0000000001
 40
0.0
 40
0.0
 40
0.0
 40
0.0
 40
0.7500587201
 40
1.0
 40
1.0
 40
1.0
 40
1.0
 10
4.3053755169
 20
6.0209640316
 30
0.0
 10
4.6910231732
 20
5.9651106053
 30
0.0
 10
5.2051390789
 20
5.8903642552
 30
0.0
 10
5.7192469643
 20
5.8155631782
 30
0.0
 10
5.8477435366
 20
5.7968658416
 30
0.0
  0
SPLINE
  5
23A
100
AcDbEntity
  8
0
100
AcDbSpline
 62
7
  6
CONTINUOUS
 70
0
 71
3
 72
12
 73
8
 74
0
 42
0.0000001
 43
0.0000001
 44
0.0000000001
 40
0.0
 40
0.0
 40
0.0
 40
0.0
 40
0.2498871454
 40
0.4998166945
 40
0.7498163961
 40
0.8748958489
 40
1.0
 40
1.0
 40
1.0
 40
1.0
 10
10.6284989198
 20
4.8146906279
 30
0.0
 10
10.3532750891
 20
4.8566570702
 30
0.0
 10
9.806937501
 20
4.9712191104
 30
0.0
 10
9.0118819683
 20
5.2328047414
 30
0.0
 10
8.3770950244
 20
5.5228014352
 30
0.0
 10
7.8906869472
 20
5.7951760461
 30
0.0
 10
7.6551400294
 20
5.9445224618
 30
0.0
 10
7.5394266941
 20
6.022224448
 30
0.0
  0
SPLINE
  5
23B
100
AcDbEntity
  8
0
100
AcDbSpline
 62
7
  6
CONTINUOUS
 70
0
 71
3
 72
9
 73
5
 74
0
 42
0.0000001
 43
0.0000001
 44
0.0000000001
 40
0.0
 40
0.0
 40
0.0
 40
0.0
 40
0.2504608104
 40
1.0
 40
1.0
 40
1.0
 40
1.0
 10
10.6794704123
 20
4.7952556444
 30
0.0
 10
10.6757167158
 20
4.7978761802
 30
0.0
 10
10.6599749977
 20
4.8072525056
 30
0.0
 10
10.6420424558
 20
4.8126253506
 30
0.0
 10
10.6284989198
 20
4.8146906279
 30
0.0
  0
SPLINE
  5
23C
100
AcDbEntity
  8
0
100
AcDbSpline
 62
7
  6
CONTINUOUS
 70
0
 71
3
 72
11
 73
7
 74
0
 42
0.0000001
 43
0.0000001
 44
0.0000000001
 40
0.0
 40
0.0
 40
0.0
 40
0.0
 40
0.2499213641
 40
0.4998798554
 40
0.749899476
 40
1.0
 40
1.0
 40
1.0
 40
1.0
 10
10.663854451
 20
4.9551012017
 30
0.0
 10
10.4112463139
 20
4.9935530731
 30
0.0
 10
9.9095853364
 20
5.0966893401
 30
0.0
 10
9.1773791088
 20
5.3284813367
 30
0.0
 10
8.4728448298
 20
5.6346490289
 30
0.0
 10
8.0262585482
 20
5.8857878264
 30
0.0
 10
7.8099994674
 20
6.0222248751
 30
0.0
  0
SPLINE
  5
23D
100
AcDbEntity
  8
0
100
AcDbSpline
 62
7
  6
CONTINUOUS
 70
0
 71
3
 72
11
 73
7
 74
0
 42
0.0000001
 43
0.0000001
 44
0.0000000001
 40
0.0
 40
0.0
 40
0.0
 40
0.0
 40
0.2500963816
 40
0.5001787187
 40
0.75016977
 40
1.0
 40
1.0
 40
1.0
 40
1.0
 10
5.847743517
 20
5.7968658416
 30
0.0
 10
5.8839771527
 20
5.7916499239
 30
0.0
 10
5.9558405564
 20
5.7763680549
 30
0.0
 10
6.0594987771
 20
5.7391668058
 30
0.0
 10
6.1570832321
 20
5.6881815836
 30
0.0
 10
6.2168249393
 20
5.6454624479
 30
0.0
 10
6.2449946822
 20
5.6221451359
 30
0.0
  0
SPLINE
  5
23E
100
AcDbEntity
  8
0
100
AcDbSpline
 62
7
  6
CONTINUOUS
 70
0
 71
3
 72
14
 73
10
 74
0
 42
0.0000001
 43
0.0000001
 44
0.0000000001
 40
0.0
 40
0.0
 40
0.0
 40
0.0
 40
0.05765776
 40
0.1273659428
 40
0.2161182318
 40
0.3269943274
 40
0.461038882
 40
0.6183197275
 40
1.0
 40
1.0
 40
1.0
 40
1.0
 10
4.8406258582
 20
6.0222310004
 30
0.0
 10
4.8412334591
 20
6.0222310125
 30
0.0
 10
4.8425822295
 20
6.0218494101
 30
0.0
 10
4.8443636331
 20
6.0203730332
 30
0.0
 10
4.8460701692
 20
6.0180867334
 30
0.0
 10
4.8477278146
 20
6.0149755885
 30
0.0
 10
4.8493375179
 20
6.0110496018
 30
0.0
 10
4.8515471598
 20
6.0043060094
 30
0.0
 10
4.8528583376
 20
5.99876928
 30
0.0
 10
4.853673045
 20
5.9948304855
 30
0.0
  0
SPLINE
  5
23F
100
AcDbEntity
  8
0
100
AcDbSpline
 62
7
  6
CONTINUOUS
 70
0
 71
3
 72
10
 73
6
 74
0
 42
0.0000001
 43
0.0000001
 44
0.0000000001
 40
0.0
 40
0.0
 40
0.0
 40
0.0
 40
0.5291615804
 40
0.7770437926
 40
1.0
 40
1.0
 40
1.0
 40
1.0
 10
10.6775168527
 20
3.8993441287
 30
0.0
 10
10.7066767663
 20
3.8911904485
 30
0.0
 10
10.7503943372
 20
3.8819878944
 30
0.0
 10
10.8074361209
 20
3.8769198068
 30
0.0
 10
10.8344433334
 20
3.8770802767
 30
0.0
 10
10.8471688001
 20
3.8779833475
 30
0.0
  0
SPLINE
  5
240
100
AcDbEntity
  8
0
100
AcDbSpline
 62
7
  6
CONTINUOUS
 70
0
 71
3
 72
11
 73
7
 74
0
 42
0.0000001
 43
0.0000001
 44
0.0000000001
 40
0.0
 40
0.0
 40
0.0
 40
0.0
 40
0.2302394601
 40
0.4736529771
 40
0.7317624964
 40
1.0
 40
1.0
 40
1.0
 40
1.0
 10
10.5124777479
 20
3.7027911126
 30
0.0
 10
10.5233986491
 20
3.7005801897
 30
0.0
 10
10.5451043199
 20
3.6913252631
 30
0.0
 10
10.5709796817
 20
3.6661799838
 30
0.0
 10
10.588474278
 20
3.6326656476
 30
0.0
 10
10.5934228965
 20
3.6072768352
 30
0.0
 10
10.5941541807
 20
3.5943160786
 30
0.0
  0
SPLINE
  5
241
100
AcDbEntity
  8
0
100
AcDbSpline
 62
7
  6
CONTINUOUS
 70
0
 71
3
 72
10
 73
6
 74
0
 42
0.0000001
 43
0.0000001
 44
0.0000000001
 40
0.0
 40
0.0
 40
0.0
 40
0.0
 40
0.230977398
 40
0.4793323083
 40
1.0
 40
1.0
 40
1.0
 40
1.0
 10
10.8433187074
 20
4.7398910099
 30
0.0
 10
10.8312723154
 20
4.7456138493
 30
0.0
 10
10.8058187843
 20
4.756540892
 30
0.0
 10
10.7516074261
 20
4.7764563958
 30
0.0
 10
10.7087730291
 20
4.7885434113
 30
0.0
 10
10.6794687554
 20
4.7952566707
 30
0.0
  0
SPLINE
  5
242
100
AcDbEntity
  8
0
100
AcDbSpline
 62
7
  6
CONTINUOUS
 70
0
 71
3
 72
10
 73
6
 74
0
 42
0.0000001
 43
0.0000001
 44
0.0000000001
 40
0.0
 40
0.0
 40
0.0
 40
0.0
 40
0.2388080667
 40
0.4883190955
 40
1.0
 40
1.0
 40
1.0
 40
1.0
 10
10.7614915357
 20
4.8968016623
 30
0.0
 10
10.7710543375
 20
4.8863042788
 30
0.0
 10
10.789008022
 20
4.8633376051
 30
0.0
 10
10.8194149737
 20
4.8121209844
 30
0.0
 10
10.8355643423
 20
4.7693120018
 30
0.0
 10
10.8433187077
 20
4.7398910109
 30
0.0
  0
SPLINE
  5
243
100
AcDbEntity
  8
0
100
AcDbSpline
 62
7
  6
CONTINUOUS
 70
0
 71
3
 72
9
 73
5
 74
0
 42
0.0000001
 43
0.0000001
 44
0.0000000001
 40
0.0
 40
0.0
 40
0.0
 40
0.0
 40
0.4922938172
 40
1.0
 40
1.0
 40
1.0
 40
1.0
 10
10.6638572785
 20
4.9551005185
 30
0.0
 10
10.6822231018
 20
4.9507500939
 30
0.0
 10
10.7183734393
 20
4.9360564865
 30
0.0
 10
10.7483785972
 20
4.911186891
 30
0.0
 10
10.7614915357
 20
4.8968016623
 30
0.0
  0
SPLINE
  5
244
100
AcDbEntity
  8
0
100
AcDbSpline
 62
7
  6
CONTINUOUS
 70
0
 71
3
 72
11
 73
7
 74
0
 42
0.0000001
 43
0.0000001
 44
0.0000000001
 40
0.0
 40
0.0
 40
0.0
 40
0.0
 40
0.1906669601
 40
0.4306235835
 40
0.7058546302
 40
1.0
 40
1.0
 40
1.0
 40
1.0
 10
10.7614915394
 20
4.8968016687
 30
0.0
 10
10.7555029447
 20
4.8910465197
 30
0.0
 10
10.7426964192
 20
4.8773086978
 30
0.0
 10
10.7229373009
 20
4.8537433512
 30
0.0
 10
10.7013584129
 20
4.8258519838
 30
0.0
 10
10.686819855
 20
4.8057516363
 30
0.0
 10
10.6794687344
 20
4.7952566898
 30
0.0
  0
SPLINE
  5
245
100
AcDbEntity
  8
0
100
AcDbSpline
 62
7
  6
CONTINUOUS
 70
0
 71
3
 72
11
 73
7
 74
0
 42
0.0000001
 43
0.0000001
 44
0.0000000001
 40
0.0
 40
0.0
 40
0.0
 40
0.0
 40
0.2439721141
 40
0.4982717807
 40
0.7534673048
 40
1.0
 40
1.0
 40
1.0
 40
1.0
 10
10.6485081579
 20
3.74494204
 30
0.0
 10
10.6570577967
 20
3.740972847
 30
0.0
 10
10.673767213
 20
3.7311801466
 30
0.0
 10
10.6962402818
 20
3.7124950504
 30
0.0
 10
10.7156004316
 20
3.6904697129
 30
0.0
 10
10.7259535379
 20
3.6739488021
 30
0.0
 10
10.7302432675
 20
3.6654444579
 30
0.0
  0
SPLINE
  5
246
100
AcDbEntity
  8
0
100
AcDbSpline
 62
7
  6
CONTINUOUS
 70
0
 71
3
 72
11
 73
7
 74
0
 42
0.0000001
 43
0.0000001
 44
0.0000000001
 40
0.0
 40
0.0
 40
0.0
 40
0.0
 40
0.2412973374
 40
0.4941392582
 40
0.7499389634
 40
1.0
 40
1.0
 40
1.0
 40
1.0
 10
10.8471657813
 20
3.8779831604
 30
0.0
 10
10.8321098592
 20
3.8660020718
 30
0.0
 10
10.8001935443
 20
3.8428450829
 30
0.0
 10
10.7507098441
 20
3.8092715566
 30
0.0
 10
10.7002270368
 20
3.7759313864
 30
0.0
 10
10.6658843085
 20
3.7547235188
 30
0.0
 10
10.6485081236
 20
3.7449420841
 30
0.0
  0
SPLINE
  5
247
100
AcDbEntity
  8
0
100
AcDbSpline
 62
7
  6
CONTINUOUS
 70
0
 71
3
 72
10
 73
6
 74
0
 42
0.0000001
 43
0.0000001
 44
0.0000000001
 40
0.0
 40
0.0
 40
0.0
 40
0.0
 40
0.5457872766
 40
0.788691349
 40
1.0
 40
1.0
 40
1.0
 40
1.0
 10
10.6775175084
 20
3.8993439571
 30
0.0
 10
10.6734428208
 20
3.8710439209
 30
0.0
 10
10.6668177233
 20
3.8302441626
 30
0.0
 10
10.6565682759
 20
3.7788662859
 30
0.0
 10
10.6512304568
 20
3.7556717311
 30
0.0
 10
10.6485081009
 20
3.7449419884
 30
0.0
  0
SPLINE
  5
248
100
AcDbEntity
  8
0
100
AcDbSpline
 62
7
  6
CONTINUOUS
 70
0
 71
3
 72
10
 73
6
 74
0
 42
0.0000001
 43
0.0000001
 44
0.0000000001
 40
0.0
 40
0.0
 40
0.0
 40
0.0
 40
0.2685016944
 40
0.524321319
 40
1.0
 40
1.0
 40
1.0
 40
1.0
 10
10.6485081009
 20
3.7449419884
 30
0.0
 10
10.6379354558
 20
3.7374941155
 30
0.0
 10
10.616004971
 20
3.7246683529
 30
0.0
 10
10.5710787697
 20
3.7070753768
 30
0.0
 10
10.5353677775
 20
3.7018271283
 30
0.0
 10
10.5124766564
 20
3.7027911594
 30
0.0
  0
SPLINE
  5
249
100
AcDbEntity
  8
0
100
AcDbSpline
 62
7
  6
CONTINUOUS
 70
0
 71
3
 72
11
 73
7
 74
0
 42
0.0000001
 43
0.0000001
 44
0.0000000001
 40
0.0
 40
0.0
 40
0.0
 40
0.0
 40
0.2448962036
 40
0.4924064007
 40
0.7441623546
 40
1.0
 40
1.0
 40
1.0
 40
1.0
 10
5.0257779088
 20
6.0222203996
 30
0.0
 10
5.0126680342
 20
6.0163879984
 30
0.0
 10
4.9853809869
 20
6.0066517581
 30
0.0
 10
4.9425820973
 20
5.9977590568
 30
0.0
 10
4.8984279157
 20
5.9938741968
 30
0.0
 10
4.8686459919
 20
5.9941201191
 30
0.0
 10
4.853673045
 20
5.9948304853
 30
0.0
  0
LINE
  5
24A
100
AcDbEntity
  8
0
100
AcDbLine
 62
7
  6
CONTINUOUS
 10
4.853673045
 20
5.9948304853
 11
4.3053752301
 21
6.020964073
  0
ENDSEC
  0
SECTION
  2
OBJECTS
  0
DICTIONARY
  5
C
100
AcDbDictionary
280
0
281
1
  3
ACAD_GROUP
350
D
  3
ACAD_MLINESTYLE
350
17
  3
ACAD_LAYOUT
350
1A
  3
ACAD_PLOTSETTINGS
350
19
  3
ACAD_PLOTSTYLENAME
350
E
  0
DICTIONARY
  5
D
102
{ACAD_REACTORS
330
C
102
}
100
AcDbDictionary
280
0
281
1
  0
ACDBDICTIONARYWDFLT
  5
E
102
{ACAD_REACTORS
330
C
102
}
100
AcDbDictionary
281
1
  3
Normal
350
F
100
AcDbDictionaryWithDefault
340
F
  0
DICTIONARY
  5
17
102
{ACAD_REACTORS
330
C
102
}
100
AcDbDictionary
280
0
281
1
  3
Standard
350
18
  0
DICTIONARY
  5
19
102
{ACAD_REACTORS
330
C
102
}
100
AcDbDictionary
281
1
  0
DICTIONARY
  5
1A
102
{ACAD_REACTORS
330
C
102
}
100
AcDbDictionary
281
1
  3
Model
350
24B
  3
Layout1
350
24C
  0
ACDBPLACEHOLDER
  5
F
102
{ACAD_REACTORS
330
E
102
}
  0
MLINESTYLE
  5
18
102
{ACAD_REACTORS
330
17
102
}
100
AcDbMlineStyle
  2
STANDARD
 70
0
  3

 62
256
 51
90.0
 52
90.0
 71
2
 49
0.5
 62
256
  6
BYLAYER
 49
-0.5
 62
256
  6
BYLAYER
  0
LAYOUT
  5
24B
102
{ACAD_REACTORS
330
1A
102
}
100
AcDbPlotSettings
  1

  2
none_device
  4
ISO_A2_(594.00_x_420.00_MM)
  6

 40
0.0
 41
0.0
 42
0.0
 43
0.0
 44
594.0
 45
420.0
 46
0.0
 47
0.0
 48
0.0
 49
0.0
140
0.0
141
0.0
142
1.0
143
1.0
 70
1024
 72
0
 73
0
 74
0
  7

 75
0
147
1.0
148
0.0
149
0.0
100
AcDbLayout
  1
Model
 70
0
 71
0
 10
0.0
 20
0.0
 11
23.3858267717
 21
16.5354330709
 12
0.0
 22
0.0
 32
0.0
 14
0.0
 24
0.0
 34
0.0
 15
0.0
 25
0.0
 35
0.0
146
0.0
 13
0.0
 23
0.0
 33
0.0
 16
1.0
 26
0.0
 36
0.0
 17
0.0
 27
1.0
 37
0.0
 76
0
330
20C
345
0
346
0
  0
LAYOUT
  5
24C
102
{ACAD_REACTORS
330
1A
102
}
100
AcDbPlotSettings
  1

  2
none_device
  4
ISO_A2_(594.00_x_420.00_MM)
  6

 40
0.0
 41
0.0
 42
0.0
 43
0.0
 44
594.0
 45
420.0
 46
0.0
 47
0.0
 48
0.0
 49
0.0
140
0.0
141
0.0
142
1.0
143
1.0
 70
0
 72
0
 73
0
 74
0
  7

 75
0
147
1.0
148
0.0
149
0.0
100
AcDbLayout
  1
Layout1
 70
0
 71
1
 10
0.0
 20
0.0
 11
23.3858267717
 21
16.5354330709
 12
0.0
 22
0.0
 32
0.0
 14
0.0
 24
0.0
 34
0.0
 15
0.0
 25
0.0
 35
0.0
146
0.0
 13
0.0
 23
0.0
 33
0.0
 16
1.0
 26
0.0
 36
0.0
 17
0.0
 27
1.0
 37
0.0
 76
0
330
20D
345
0
346
0
  0
ENDSEC
  0
EOF
