  0
SECTION
  2
HEADER
  9
$ACADVER
  1
AC1009
  9
$INSBASE
 10
2836.5931617755741172
 20
232.9800793675603074
 30
0.0
  9
$EXTMIN
 10
2804.8872775671629825
 20
217.9176785215196048
 30
-0.0000000000000058
  9
$EXTMAX
 10
2868.1294117020811427
 20
248.1545701902961127
 30
0.0000000000000104
  9
$LIMMIN
 10
0.0
 20
0.0
  9
$LIMMAX
 10
11.6929133858000007
 20
8.2677165353999982
  9
$ORTHOMODE
 70
     0
  9
$REGENMODE
 70
     1
  9
$FILLMODE
 70
     1
  9
$QTEXTMODE
 70
     0
  9
$MIRRTEXT
 70
     0
  9
$DRAGMODE
 70
     2
  9
$LTSCALE
 40
0.6431102362
  9
$OSMODE
 70
   575
  9
$ATTMODE
 70
     1
  9
$TEXTSIZE
 40
0.2
  9
$TRACEWID
 40
0.05
  9
$TEXTSTYLE
  7
STANDARD
  9
$CLAYER
  8
0
  9
$CELTYPE
  6
BYLAYER
  9
$CECOLOR
 62
   256
  9
$DIMSCALE
 40
1.0
  9
$DIMASZ
 40
0.1875
  9
$DIMEXO
 40
0.0625
  9
$DIMDLI
 40
0.4443307087
  9
$DIMRND
 40
0.0
  9
$DIMDLE
 40
0.0
  9
$DIMEXE
 40
0.125
  9
$DIMTP
 40
0.01
  9
$DIMTM
 40
0.01
  9
$DIMTXT
 40
2.0
  9
$DIMCEN
 40
0.1052362205
  9
$DIMTSZ
 40
0.0
  9
$DIMTOL
 70
     1
  9
$DIMLIM
 70
     0
  9
$DIMTIH
 70
     1
  9
$DIMTOH
 70
     1
  9
$DIMSE1
 70
     0
  9
$DIMSE2
 70
     0
  9
$DIMTAD
 70
     0
  9
$DIMZIN
 70
     0
  9
$DIMBLK
  1

  9
$DIMASO
 70
     1
  9
$DIMSHO
 70
     1
  9
$DIMPOST
  1
\X
  9
$DIMAPOST
  1

  9
$DIMALT
 70
     1
  9
$DIMALTD
 70
     2
  9
$DIMALTF
 40
25.3999999999999986
  9
$DIMLFAC
 40
1.0
  9
$DIMTOFL
 70
     0
  9
$DIMTVP
 40
0.0
  9
$DIMTIX
 70
     0
  9
$DIMSOXD
 70
     0
  9
$DIMSAH
 70
     0
  9
$DIMBLK1
  1

  9
$DIMBLK2
  1

  9
$DIMSTYLE
  2
STANDARD
  9
$DIMCLRD
 70
     0
  9
$DIMCLRE
 70
     0
  9
$DIMCLRT
 70
     0
  9
$DIMTFAC
 40
1.0
  9
$DIMGAP
 40
0.09
  9
$LUNITS
 70
     2
  9
$LUPREC
 70
     4
  9
$SKETCHINC
 40
0.1
  9
$FILLETRAD
 40
0.0
  9
$AUNITS
 70
     0
  9
$AUPREC
 70
     0
  9
$MENU
  1
.
  9
$ELEVATION
 40
0.0
  9
$PELEVATION
 40
0.0
  9
$THICKNESS
 40
0.0
  9
$LIMCHECK
 70
     0
  9
$BLIPMODE
 70
     0
  9
$CHAMFERA
 40
0.0
  9
$CHAMFERB
 40
0.0
  9
$SKPOLY
 70
     0
  9
$TDCREATE
 40
2458060.468368056230247
  9
$TDUPDATE
 40
2459668.6995370369404554
  9
$TDINDWG
 40
1.0783172454000001
  9
$TDUSRTIMER
 40
1.0783172454000001
  9
$USRTIMER
 70
     1
  9
$ANGBASE
 50
0.0
  9
$ANGDIR
 70
     0
  9
$PDMODE
 70
     0
  9
$PDSIZE
 40
0.3125
  9
$PLINEWID
 40
0.0
  9
$COORDS
 70
     1
  9
$SPLFRAME
 70
     0
  9
$SPLINETYPE
 70
     6
  9
$SPLINESEGS
 70
     8
  9
$ATTDIA
 70
     1
  9
$ATTREQ
 70
     1
  9
$HANDLING
 70
     1
  9
$HANDSEED
  5
994F
  9
$SURFTAB1
 70
     6
  9
$SURFTAB2
 70
     6
  9
$SURFTYPE
 70
     6
  9
$SURFU
 70
     6
  9
$SURFV
 70
     6
  9
$UCSNAME
  2

  9
$UCSORG
 10
0.0
 20
0.0
 30
0.0
  9
$UCSXDIR
 10
1.0
 20
0.0
 30
0.0
  9
$UCSYDIR
 10
0.0
 20
1.0
 30
0.0
  9
$PUCSNAME
  2

  9
$PUCSORG
 10
0.0
 20
0.0
 30
0.0
  9
$PUCSXDIR
 10
1.0
 20
0.0
 30
0.0
  9
$PUCSYDIR
 10
0.0
 20
1.0
 30
0.0
  9
$USERI1
 70
     0
  9
$USERI2
 70
     0
  9
$USERI3
 70
     0
  9
$USERI4
 70
     0
  9
$USERI5
 70
     0
  9
$USERR1
 40
0.0
  9
$USERR2
 40
0.0
  9
$USERR3
 40
0.0
  9
$USERR4
 40
0.0
  9
$USERR5
 40
0.0
  9
$WORLDVIEW
 70
     1
  9
$SHADEDGE
 70
     3
  9
$SHADEDIF
 70
    70
  9
$TILEMODE
 70
     1
  9
$MAXACTVP
 70
    64
  9
$PLIMCHECK
 70
     0
  9
$PEXTMIN
 10
1.0000000000000000E+20
 20
1.0000000000000000E+20
 30
1.0000000000000000E+20
  9
$PEXTMAX
 10
-1.0000000000000000E+20
 20
-1.0000000000000000E+20
 30
-1.0000000000000000E+20
  9
$PLIMMIN
 10
0.0
 20
0.0
  9
$PLIMMAX
 10
12.0
 20
9.0
  9
$UNITMODE
 70
     0
  9
$VISRETAIN
 70
     1
  9
$PLINEGEN
 70
     0
  9
$PSLTSCALE
 70
     1
  0
ENDSEC
  0
SECTION
  2
TABLES
  0
TABLE
  2
VPORT
 70
     1
  0
VPORT
  2
*ACTIVE
 70
     0
 10
0.0
 20
0.0
 11
1.0
 21
1.0
 12
526.9300383091713229
 22
87.051670261681636
 13
0.0
 23
0.0
 14
1.0
 24
1.0
 15
0.0
 25
0.0
 16
0.0
 26
0.0
 36
14.15189873613655
 17
2311.2252197265629547
 27
137.8012416672862912
 37
0.0
 40
121.1070581324234041
 41
2.2661764705882348
 42
50.0
 43
0.0
 44
0.0
 50
0.0
 51
0.0
 71
     0
 72
   100
 73
     1
 74
     1
 75
     0
 76
     0
 77
     0
 78
     0
  0
ENDTAB
  0
TABLE
  2
LTYPE
 70
     2
  0
LTYPE
  2
CONTINUOUS
 70
     0
  3
Solid line
 72
    65
 73
     0
 40
0.0
  0
LTYPE
  2
PHANTOM2
 70
     0
  3
___ _ _ ___ _ _ ___ _ _ ___ _ _
 72
    65
 73
     6
 40
1.25
 49
0.625
 49
-0.125
 49
0.125
 49
-0.125
 49
0.125
 49
-0.125
  0
ENDTAB
  0
TABLE
  2
LAYER
 70
     2
  0
LAYER
  2
0
 70
     0
 62
   255
  6
CONTINUOUS
  0
LAYER
  2
DEFPOINTS
 70
     0
 62
     7
  6
CONTINUOUS
  0
ENDTAB
  0
TABLE
  2
STYLE
 70
     1
  0
STYLE
  2
STANDARD
 70
     0
 40
0.0
 41
0.8
 50
0.0
 71
     0
 42
0.2
  3
txt
  4

  0
ENDTAB
  0
TABLE
  2
VIEW
 70
     0
  0
ENDTAB
  0
TABLE
  2
UCS
 70
     0
  0
ENDTAB
  0
TABLE
  2
APPID
 70
    10
  0
APPID
  2
ACAD
 70
     0
  0
APPID
  2
ACAD_MLEADERVER
 70
     0
  0
APPID
  2
ACAD_EXEMPT_FROM_CAD_STANDARDS
 70
     0
  0
APPID
  2
ACAD_NAV_VCDISPLAY
 70
     0
  0
APPID
  2
ACAECLAYERSTANDARD
 70
     0
  0
APPID
  2
ACCMTRANSPARENCY
 70
     0
  0
APPID
  2
ACAD_DSTYLE_DIMJAG
 70
     0
  0
APPID
  2
ACAD_DSTYLE_DIMTALN
 70
     0
  0
APPID
  2
ACDBATTR
 70
     0
  0
APPID
  2
DCO15
 70
     0
  0
ENDTAB
  0
TABLE
  2
DIMSTYLE
 70
     1
  0
DIMSTYLE
  2
STANDARD
 70
     0
  3

  4

  5

  6

  7

 40
1.0
 41
0.1875
 42
0.0625
 43
0.38
 44
0.125
 45
0.0
 46
0.0
 47
0.01
 48
0.01
140
0.15625
141
0.09
142
0.0
143
25.3999999999999986
144
1.0
145
0.0
146
1.0
147
0.09
 71
     1
 72
     0
 73
     1
 74
     1
 75
     0
 76
     0
 77
     0
 78
     4
170
     0
171
     2
172
     0
173
     0
174
     0
175
     0
176
     0
177
     0
178
     0
  0
ENDTAB
  0
ENDSEC
  0
SECTION
  2
BLOCKS
  0
BLOCK
  8
0
  2
$MODEL_SPACE
 70
     0
 10
0.0
 20
0.0
 30
0.0
  3
$MODEL_SPACE
  1

  0
ENDBLK
  5
21
  8
0
  0
BLOCK
 67
     1
  8
0
  2
$PAPER_SPACE
 70
     0
 10
0.0
 20
0.0
 30
0.0
  3
$PAPER_SPACE
  1

  0
ENDBLK
  5
1D
 67
     1
  8
0
  0
ENDSEC
  0
SECTION
  2
ENTITIES
  0
ATTDEF
  5
3930
  8
DEFPOINTS
 10
2836.593176035857141
 20
232.9789922174072103
 30
0.0
 40
0.001
  1
K-EX31161T-MAT
  3

  2
MODELNUMBER
 70
     0
1001
ACDBATTR
1070
     0
1070
     1
  0
ATTDEF
  5
3931
  8
DEFPOINTS
 10
2836.593176035857141
 20
232.9773255507404883
 30
0.0
 40
0.001
  1

  3

  2
TRADENAME
 70
     0
1001
ACDBATTR
1070
     0
1070
     1
  0
ATTDEF
  5
3932
  8
DEFPOINTS
 10
2836.593176035857141
 20
232.9756588840739084
 30
0.0
 40
0.001
  1
BATH
  3

  2
PRODUCT
 70
     0
1001
ACDBATTR
1070
     0
1070
     1
  0
LINE
  5
97B7
  8
0
 10
2827.7750845507671329
 20
218.7553033814598109
 30
0.0
 11
2827.7750845492669214
 21
218.8299903903597112
 31
0.0
  0
CIRCLE
  5
97B8
  8
0
 10
2836.601461484966876
 20
232.9334858175596992
 30
0.0
 40
1.617528934199999
  0
CIRCLE
  5
97B9
  8
0
 10
2836.601461484966876
 20
232.9334847175597076
 30
0.0
 40
0.9842519684999999
  0
ARC
  5
97BA
  8
0
 10
2836.1923514451709707
 20
356.6801984265543979
 30
0.0
 40
138.7563503242267871
 50
264.9766965633173186
 51
270.1655042972914202
  0
ARC
  5
97BB
  8
0
 10
2829.779178299180785
 20
271.0215432313352153
 30
0.0
 40
52.8768423427419094
 50
251.7378816647598967
 51
263.7718849924469282
  0
ARC
  5
97BC
  8
0
 10
2818.3555657373731265
 20
233.8738889313223126
 30
0.0
 40
14.0428336421225293
 50
217.7820028710710858
 51
248.5026061378609086
  0
ARC
  5
97BD
  8
0
 10
2816.3161647817350968
 20
231.6928081364360992
 30
0.0
 40
11.1048756747848199
 50
191.1582480059593081
 51
215.3338172914288009
  0
ARC
  5
97BE
  8
0
 10
2821.7904007395782173
 20
232.9540411194456908
 30
0.0
 40
16.7206498858313495
 50
174.0137857749957107
 51
191.7682712254664921
  0
ARC
  5
97BF
  8
0
 10
2817.4610798054359293
 20
233.6938886313674004
 30
0.0
 40
12.3410539890267898
 50
149.1239387957043903
 51
175.3338764291627001
  0
ARC
  5
97C0
  8
0
 10
2816.6766580629969212
 20
233.7377936178943116
 30
0.0
 40
11.6509843157887794
 50
124.7123475694991015
 51
147.3293378160527141
  0
ARC
  5
97C1
  8
0
 10
2820.0776533959788139
 20
228.9060322716968017
 30
0.0
 40
17.5595704407693383
 50
111.9726750731994969
 51
124.8566084791803945
  0
ARC
  5
97C2
  8
0
 10
2825.5355898608158896
 20
214.8511934149570948
 30
0.0
 40
32.6362615157876021
 50
99.5171978142908245
 51
111.6262346215637962
  0
ARC
  5
97C3
  8
0
 10
2835.5067467096400833
 20
141.734374887923309
 30
0.0
 40
106.4192732144041997
 50
89.4150676143631529
 51
98.3027602844284019
  0
ARC
  5
97C4
  8
0
 10
2835.6255864861041118
 20
350.9294139171688016
 30
0.0
 40
130.7717441023181948
 50
265.1866829640180754
 51
270.4239332178548807
  0
ARC
  5
97C5
  8
0
 10
2827.7697378177140308
 20
254.2031640491591986
 30
0.0
 40
33.7286611494677331
 50
251.9751140889208898
 51
264.6972695459887746
  0
ARC
  5
97C6
  8
0
 10
2821.4514778595062126
 20
235.1988014075232059
 30
0.0
 40
13.7025258057608905
 50
226.6311261364890868
 51
252.5088898424000945
  0
ARC
  5
97C7
  8
0
 10
2818.2431933423740702
 20
231.5066259101284913
 30
0.0
 40
8.8177414282128161
 50
201.2347003911762897
 51
225.3110853339645985
  0
ARC
  5
97C8
  8
0
 10
2822.0378051884049455
 20
232.782980054883609
 30
0.0
 40
12.8183286140447503
 50
179.3103912544945899
 51
200.4092204908668862
  0
ARC
  5
97C9
  8
0
 10
2822.864535097362932
 20
233.0057978105795087
 30
0.0
 40
13.6443022325696504
 50
164.9695266711042052
 51
180.2878209056812864
  0
ARC
  5
97CA
  8
0
 10
2818.3819997983241592
 20
234.2662391574941125
 30
0.0
 40
8.9884169256689432
 50
141.1422933085302986
 51
165.3191710420173024
  0
ARC
  5
97CB
  8
0
 10
2819.6466438015718268
 20
233.0536027118930917
 30
0.0
 40
10.7350576001521407
 50
120.317050526619596
 51
140.3370620977057968
  0
ARC
  5
97CC
  8
0
 10
2823.4407236482061307
 20
226.4036662468776058
 30
0.0
 40
18.3909581781145803
 50
105.0260816468203018
 51
120.0629449737342043
  0
ARC
  5
97CD
  8
0
 10
2828.1007366519997959
 20
209.2866008646379044
 30
0.0
 40
36.1309591023433399
 50
96.0562554056803179
 51
105.1258732769550051
  0
ARC
  5
97CE
  8
0
 10
2836.1483826164321727
 20
112.123676763146193
 30
0.0
 40
133.6195806311602041
 50
89.8092793318580078
 51
95.0920872743434558
  0
ARC
  5
97CF
  8
0
 10
2826.8726417087291338
 20
233.0096506726301016
 30
0.0
 40
20.4105916448299389
 50
180.2019659508945892
 51
186.9537491316266937
  0
ARC
  5
97D0
  8
0
 10
2819.725466971493006
 20
232.8844373457768882
 30
0.0
 40
13.32145572527795
 50
179.7710919369179123
 51
190.1424578090559123
  0
ARC
  5
97D1
  8
0
 10
2835.0877512051361009
 20
377.8543231398558078
 30
0.0
 40
159.1923789006316952
 50
267.3671325805893275
 51
270.5418284362947929
  0
ARC
  5
97D2
  8
0
 10
2835.0171140031429786
 20
402.3018160514670853
 30
0.0
 40
183.6893282254312965
 50
267.7405040562923091
 51
270.4916017414190037
  0
ARC
  5
97D3
  8
0
 10
2826.8735479347287765
 20
232.8647407780856895
 30
0.0
 40
20.4115014742378094
 50
173.046202430374791
 51
179.7951890867821874
  0
ARC
  5
97D4
  8
0
 10
2819.7250828872129205
 20
232.9901040018364995
 30
0.0
 40
13.3210685631431005
 50
169.8573431147962935
 51
180.2255735461841084
  0
ARC
  5
97D5
  8
0
 10
2832.0446496922209008
 20
-13.8134542322487395
 30
0.0
 40
262.0010422538329067
 50
86.671234980039884
 51
89.0052572463443141
  0
ARC
  5
97D6
  8
0
 10
2844.4703453339297994
 20
201.1086152847925064
 30
0.0
 40
46.7201500978467621
 50
74.1150380015222083
 51
86.5795413539311909
  0
ARC
  5
97D7
  8
0
 10
2852.3529099527609105
 20
227.816122829969288
 30
0.0
 40
18.8769588290969708
 50
54.009202982323032
 51
74.939215783208283
  0
ARC
  5
97D8
  8
0
 10
2857.0828556288302025
 20
234.267380853692714
 30
0.0
 40
10.8776541728287004
 50
26.3684502168222501
 51
54.1984939232674279
  0
ARC
  5
97D9
  8
0
 10
2853.3109025174499038
 20
233.0643293466486909
 30
0.0
 40
14.8035445413744196
 50
0.1579391349572442
 51
24.0556371605042898
  0
ARC
  5
97DA
  8
0
 10
2852.5055977810161494
 20
232.8441421738843928
 30
0.0
 40
15.6109749163850502
 50
344.3004755332453897
 51
0.9579509645563744
  0
ARC
  5
97DB
  8
0
 10
2857.3563592176660677
 20
231.4427625928614987
 30
0.0
 40
10.5620364188177795
 50
312.5120991033679729
 51
344.498587000489124
  0
ARC
  5
97DC
  8
0
 10
2854.0780798538471572
 20
235.2130888061118981
 30
0.0
 40
15.5571119775030908
 50
293.0214325345227735
 51
312.0287119735471038
  0
ARC
  5
97DD
  8
0
 10
2851.8849276194077902
 20
239.1657408408053982
 30
0.0
 40
20.0582280685003802
 50
280.411302791710682
 51
294.3718163852605016
  0
ARC
  5
97DE
  8
0
 10
2844.8843052133302081
 20
266.583700899377277
 30
0.0
 40
48.3284548991167
 50
274.0355612000334986
 51
282.7007061395448204
  0
ARC
  5
97DF
  8
0
 10
2836.4305950881880563
 20
374.0493196052290159
 30
0.0
 40
156.1249772502719964
 50
270.0596598118095812
 51
274.3547646620971818
  0
ARC
  5
97E0
  8
0
 10
2835.8572813957848666
 20
350.085012774295592
 30
0.0
 40
129.9258473579822066
 50
270.3245163781890028
 51
273.7323025421457032
  0
ARC
  5
97E1
  8
0
 10
2842.2609665493528155
 20
248.3474164492361922
 30
0.0
 40
27.9881469958036
 50
274.2082611056276278
 51
286.805439618422497
  0
ARC
  5
97E2
  8
0
 10
2846.4569267784031581
 20
234.6919978411580132
 30
0.0
 40
13.7029480624147499
 50
286.5183182063041158
 51
308.7081148333115266
  0
ARC
  5
97E3
  8
0
 10
2848.8594328348331146
 20
231.5551276127540063
 30
0.0
 40
9.7530890795671752
 50
309.2184844985620771
 51
350.113913033233473
  0
ARC
  5
97E4
  8
0
 10
2842.8212655398169773
 20
232.8868735123953968
 30
0.0
 40
15.9326214704400098
 50
349.1239260056524927
 51
0.1826605268712407
  0
ARC
  5
97E5
  8
0
 10
2844.2886175727280715
 20
233.1021584083426887
 30
0.0
 40
14.4661237008503498
 50
359.3484873268704973
 51
17.8222362441845306
  0
ARC
  5
97E6
  8
0
 10
2849.0399878855419047
 20
234.4671238773130142
 30
0.0
 40
9.5262577852076689
 50
18.7531159172271309
 51
50.9303516694873295
  0
ARC
  5
97E7
  8
0
 10
2846.3913975440318609
 20
231.0253550224445007
 30
0.0
 40
13.8681520720912808
 50
51.3968468242057881
 51
72.3804204382295922
  0
ARC
  5
97E8
  8
0
 10
2842.3978837515110172
 20
218.2793878927788001
 30
0.0
 40
27.2250399617302001
 50
72.489815856598824
 51
85.5532336739557593
  0
ARC
  5
97E9
  8
0
 10
2834.0463675901778515
 20
84.7058185143307014
 30
0.0
 40
161.056836116713697
 50
86.2754084992011627
 51
89.0939432091831947
  0
ARC
  5
97EA
  8
0
 10
2834.5217080916190753
 20
350.9502693881307778
 30
0.0
 40
132.4110258107214975
 50
266.1722645527810869
 51
270.8963784889215276
  0
ARC
  5
97EB
  8
0
 10
2828.2533023045521077
 20
263.8095345698725964
 30
0.0
 40
45.0483404665272218
 50
254.9275482356306952
 51
266.728307096243725
  0
ARC
  5
97EC
  8
0
 10
2821.772879772755914
 20
239.534698490744006
 30
0.0
 40
19.9235177863891906
 50
238.946399709811601
 51
254.7695137324454038
  0
ARC
  5
97ED
  8
0
 10
2817.1367899431161277
 20
231.9918249372416028
 30
0.0
 40
11.0704655661499807
 50
210.7750095937832953
 51
239.3643564686474861
  0
ARC
  5
97EE
  8
0
 10
2818.3470307494349072
 20
232.2142433949616986
 30
0.0
 40
12.2315839937220492
 50
186.9195949186874088
 51
208.7690692422891914
  0
ARC
  5
97EF
  8
0
 10
2822.6834207629758566
 20
232.9302171811133064
 30
0.0
 40
16.6237132957763905
 50
179.9757261435256055
 51
187.5686998773421124
  0
ARC
  5
97F0
  8
0
 10
2821.0939987328238203
 20
233.050052035538414
 30
0.0
 40
15.0347128689954399
 50
161.3815923689064959
 51
180.4298432871021873
  0
ARC
  5
97F1
  8
0
 10
2816.6495654585528428
 20
234.3301655131351993
 30
0.0
 40
10.4162149782300393
 50
123.6476775281572031
 51
160.2493413648709009
  0
ARC
  5
97F2
  8
0
 10
2822.3533263818731029
 20
225.3356475161752996
 30
0.0
 40
21.0654779957693101
 50
101.8202934934026018
 51
123.0069473999422058
  0
ARC
  5
97F3
  8
0
 10
2829.3006535877061651
 20
194.4192392323828926
 30
0.0
 40
52.7514774574831335
 50
92.8437829445560538
 51
102.3275371919691992
  0
ARC
  5
97F4
  8
0
 10
2837.2837704031749126
 20
17.2317969600231891
 30
0.0
 40
230.1182349036403139
 50
90.1719508194267405
 51
92.6402343424723256
  0
ARC
  5
97F5
  8
0
 10
2836.2003429894771216
 20
505.9711105809109881
 30
0.0
 40
287.4159314172161999
 50
270.0783076479316946
 51
271.4702525943033038
  0
ARC
  5
97F6
  8
0
 10
2842.1268766945909192
 20
281.1013348841510151
 30
0.0
 40
62.4683165310330324
 50
271.3281886170323105
 51
279.9875063242591864
  0
ARC
  5
97F7
  8
0
 10
2849.1730988527128829
 20
241.896996712606807
 30
0.0
 40
22.6364798528975797
 50
279.6328984137521729
 51
298.63222462991871
  0
ARC
  5
97F8
  8
0
 10
2854.5360012703308712
 20
232.0565199743066103
 30
0.0
 40
11.4295370222051798
 50
298.6739432092434186
 51
326.4185281222347044
  0
ARC
  5
97F9
  8
0
 10
2854.3555693404500744
 20
231.783475764548399
 30
0.0
 40
11.4335130071460807
 50
328.058792555435673
 51
353.9153079745149739
  0
ARC
  5
97FA
  8
0
 10
2847.8673991687128364
 20
232.9350899772919092
 30
0.0
 40
18.0130080669736685
 50
352.4602832599176168
 51
8.1122981764366742
  0
ARC
  5
97FB
  8
0
 10
2854.0902269882622022
 20
234.0290947901559093
 30
0.0
 40
11.6998654404033005
 50
7.1086723888041634
 51
29.2229735352994311
  0
ARC
  5
97FC
  8
0
 10
2854.5980318108909159
 20
233.9124107643353909
 30
0.0
 40
11.3190617745439894
 50
30.9936414260616999
 51
61.6808290554330583
  0
ARC
  5
97FD
  8
0
 10
2849.7111745174588577
 20
225.1103974036172133
 30
0.0
 40
21.3862534446701105
 50
61.3420071331086731
 51
76.3807959377222687
  0
ARC
  5
97FE
  8
0
 10
2844.6619627051341013
 20
204.1321139638635032
 30
0.0
 40
42.963611742162847
 50
76.4241016974661562
 51
84.9922675011349753
  0
ARC
  5
97FF
  8
0
 10
2840.9141312339229444
 20
163.5894289863935001
 30
0.0
 40
83.6789173792407439
 50
84.8590589871181749
 51
88.6796483631893153
  0
ARC
  5
9800
  8
0
 10
2878.9629498096651332
 20
2631.4319578217841809
 30
0.0
 40
2384.4594292731972018
 50
268.9818498182876851
 51
269.1320296596139769
  0
LINE
  5
9801
  8
0
 10
2845.5535122519681863
 20
218.7806497435597919
 30
0.0
 11
2845.5535122247670188
 21
218.9072589629597019
 31
0.0
  0
ARC
  5
9802
  8
0
 10
2835.3573882944151592
 20
433.8076446007156051
 30
0.0
 40
215.142131370076612
 50
270.3291079892422886
 51
272.7164078677685097
  0
ARC
  5
9803
  8
0
 10
2838.2276027781740595
 20
376.684367046666182
 30
0.0
 40
158.0735679604833877
 50
269.4075654694588025
 51
272.6563207419512196
  0
ENDSEC
  0
EOF
