  0
SECTION
  2
HEADER
  9
$ACADVER
  1
AC1009
  9
$INSBASE
 10
2829.3031467909559069
 20
161.8110017247203132
 30
0.0
  9
$EXTMIN
 10
2821.5396873945010157
 20
161.8004627132528981
 30
-0.0015258207003583
  9
$EXTMAX
 10
2830.9894881879258719
 20
175.6108763436733113
 30
0.0000000349246037
  9
$LIMMIN
 10
0.0
 20
0.0
  9
$LIMMAX
 10
11.6929133858000007
 20
8.2677165353999982
  9
$ORTHOMODE
 70
     0
  9
$REGENMODE
 70
     1
  9
$FILLMODE
 70
     1
  9
$QTEXTMODE
 70
     0
  9
$MIRRTEXT
 70
     0
  9
$DRAGMODE
 70
     2
  9
$LTSCALE
 40
0.6431102362
  9
$OSMODE
 70
   575
  9
$ATTMODE
 70
     1
  9
$TEXTSIZE
 40
0.2
  9
$TRACEWID
 40
0.05
  9
$TEXTSTYLE
  7
STANDARD
  9
$CLAYER
  8
0
  9
$CELTYPE
  6
BYLAYER
  9
$CECOLOR
 62
   256
  9
$DIMSCALE
 40
1.0
  9
$DIMASZ
 40
0.1875
  9
$DIMEXO
 40
0.0625
  9
$DIMDLI
 40
0.4443307087
  9
$DIMRND
 40
0.0
  9
$DIMDLE
 40
0.0
  9
$DIMEXE
 40
0.125
  9
$DIMTP
 40
0.01
  9
$DIMTM
 40
0.01
  9
$DIMTXT
 40
2.0
  9
$DIMCEN
 40
0.1052362205
  9
$DIMTSZ
 40
0.0
  9
$DIMTOL
 70
     1
  9
$DIMLIM
 70
     0
  9
$DIMTIH
 70
     1
  9
$DIMTOH
 70
     1
  9
$DIMSE1
 70
     0
  9
$DIMSE2
 70
     0
  9
$DIMTAD
 70
     0
  9
$DIMZIN
 70
     0
  9
$DIMBLK
  1

  9
$DIMASO
 70
     1
  9
$DIMSHO
 70
     1
  9
$DIMPOST
  1
\X
  9
$DIMAPOST
  1

  9
$DIMALT
 70
     1
  9
$DIMALTD
 70
     2
  9
$DIMALTF
 40
25.3999999999999986
  9
$DIMLFAC
 40
1.0
  9
$DIMTOFL
 70
     0
  9
$DIMTVP
 40
0.0
  9
$DIMTIX
 70
     0
  9
$DIMSOXD
 70
     0
  9
$DIMSAH
 70
     0
  9
$DIMBLK1
  1

  9
$DIMBLK2
  1

  9
$DIMSTYLE
  2
STANDARD
  9
$DIMCLRD
 70
     0
  9
$DIMCLRE
 70
     0
  9
$DIMCLRT
 70
     0
  9
$DIMTFAC
 40
1.0
  9
$DIMGAP
 40
0.09
  9
$LUNITS
 70
     2
  9
$LUPREC
 70
     4
  9
$SKETCHINC
 40
0.1
  9
$FILLETRAD
 40
0.0
  9
$AUNITS
 70
     0
  9
$AUPREC
 70
     0
  9
$MENU
  1
.
  9
$ELEVATION
 40
0.0
  9
$PELEVATION
 40
0.0
  9
$THICKNESS
 40
0.0
  9
$LIMCHECK
 70
     0
  9
$BLIPMODE
 70
     0
  9
$CHAMFERA
 40
0.0
  9
$CHAMFERB
 40
0.0
  9
$SKPOLY
 70
     0
  9
$TDCREATE
 40
2458060.468368056230247
  9
$TDUPDATE
 40
2459667.7717245370149612
  9
$TDINDWG
 40
1.0818820602000001
  9
$TDUSRTIMER
 40
1.0818820602000001
  9
$USRTIMER
 70
     1
  9
$ANGBASE
 50
0.0
  9
$ANGDIR
 70
     0
  9
$PDMODE
 70
     0
  9
$PDSIZE
 40
0.3125
  9
$PLINEWID
 40
0.0
  9
$COORDS
 70
     1
  9
$SPLFRAME
 70
     0
  9
$SPLINETYPE
 70
     6
  9
$SPLINESEGS
 70
     8
  9
$ATTDIA
 70
     1
  9
$ATTREQ
 70
     1
  9
$HANDLING
 70
     1
  9
$HANDSEED
  5
BB10
  9
$SURFTAB1
 70
     6
  9
$SURFTAB2
 70
     6
  9
$SURFTYPE
 70
     6
  9
$SURFU
 70
     6
  9
$SURFV
 70
     6
  9
$UCSNAME
  2

  9
$UCSORG
 10
0.0
 20
0.0
 30
0.0
  9
$UCSXDIR
 10
1.0
 20
0.0
 30
0.0
  9
$UCSYDIR
 10
0.0
 20
1.0
 30
0.0
  9
$PUCSNAME
  2

  9
$PUCSORG
 10
0.0
 20
0.0
 30
0.0
  9
$PUCSXDIR
 10
1.0
 20
0.0
 30
0.0
  9
$PUCSYDIR
 10
0.0
 20
1.0
 30
0.0
  9
$USERI1
 70
     0
  9
$USERI2
 70
     0
  9
$USERI3
 70
     0
  9
$USERI4
 70
     0
  9
$USERI5
 70
     0
  9
$USERR1
 40
0.0
  9
$USERR2
 40
0.0
  9
$USERR3
 40
0.0
  9
$USERR4
 40
0.0
  9
$USERR5
 40
0.0
  9
$WORLDVIEW
 70
     1
  9
$SHADEDGE
 70
     3
  9
$SHADEDIF
 70
    70
  9
$TILEMODE
 70
     1
  9
$MAXACTVP
 70
    64
  9
$PLIMCHECK
 70
     0
  9
$PEXTMIN
 10
1.0000000000000000E+20
 20
1.0000000000000000E+20
 30
1.0000000000000000E+20
  9
$PEXTMAX
 10
-1.0000000000000000E+20
 20
-1.0000000000000000E+20
 30
-1.0000000000000000E+20
  9
$PLIMMIN
 10
0.0
 20
0.0
  9
$PLIMMAX
 10
12.0
 20
9.0
  9
$UNITMODE
 70
     0
  9
$VISRETAIN
 70
     1
  9
$PLINEGEN
 70
     0
  9
$PSLTSCALE
 70
     1
  0
ENDSEC
  0
SECTION
  2
TABLES
  0
TABLE
  2
VPORT
 70
     1
  0
VPORT
  2
*ACTIVE
 70
     0
 10
0.0
 20
0.0
 11
1.0
 21
1.0
 12
517.4565825233370333
 22
29.4095714230171303
 13
0.0
 23
0.0
 14
1.0
 24
1.0
 15
0.0
 25
0.0
 16
0.0
 26
0.0
 36
14.15189873613655
 17
2311.2252197265629547
 27
137.8012416672862912
 37
0.0
 40
22.0093753186591812
 41
2.2268786127167619
 42
50.0
 43
0.0
 44
0.0
 50
0.0
 51
0.0
 71
     0
 72
   100
 73
     1
 74
     1
 75
     0
 76
     0
 77
     0
 78
     0
  0
ENDTAB
  0
TABLE
  2
LTYPE
 70
     2
  0
LTYPE
  2
CONTINUOUS
 70
     0
  3
Solid line
 72
    65
 73
     0
 40
0.0
  0
LTYPE
  2
PHANTOM2
 70
     0
  3
___ _ _ ___ _ _ ___ _ _ ___ _ _
 72
    65
 73
     6
 40
1.25
 49
0.625
 49
-0.125
 49
0.125
 49
-0.125
 49
0.125
 49
-0.125
  0
ENDTAB
  0
TABLE
  2
LAYER
 70
     2
  0
LAYER
  2
0
 70
     0
 62
   255
  6
CONTINUOUS
  0
LAYER
  2
DEFPOINTS
 70
     0
 62
     7
  6
CONTINUOUS
  0
ENDTAB
  0
TABLE
  2
STYLE
 70
     1
  0
STYLE
  2
STANDARD
 70
     0
 40
0.0
 41
0.8
 50
0.0
 71
     0
 42
0.2
  3
txt
  4

  0
ENDTAB
  0
TABLE
  2
VIEW
 70
     0
  0
ENDTAB
  0
TABLE
  2
UCS
 70
     0
  0
ENDTAB
  0
TABLE
  2
APPID
 70
    10
  0
APPID
  2
ACAD
 70
     0
  0
APPID
  2
ACAD_MLEADERVER
 70
     0
  0
APPID
  2
ACAD_EXEMPT_FROM_CAD_STANDARDS
 70
     0
  0
APPID
  2
ACAD_NAV_VCDISPLAY
 70
     0
  0
APPID
  2
ACAECLAYERSTANDARD
 70
     0
  0
APPID
  2
ACCMTRANSPARENCY
 70
     0
  0
APPID
  2
ACAD_DSTYLE_DIMJAG
 70
     0
  0
APPID
  2
ACAD_DSTYLE_DIMTALN
 70
     0
  0
APPID
  2
ACDBATTR
 70
     0
  0
APPID
  2
DCO15
 70
     0
  0
ENDTAB
  0
TABLE
  2
DIMSTYLE
 70
     1
  0
DIMSTYLE
  2
STANDARD
 70
     0
  3

  4

  5

  6

  7

 40
1.0
 41
0.1875
 42
0.0625
 43
0.38
 44
0.125
 45
0.0
 46
0.0
 47
0.01
 48
0.01
140
0.15625
141
0.09
142
0.0
143
25.3999999999999986
144
1.0
145
0.0
146
1.0
147
0.09
 71
     1
 72
     0
 73
     1
 74
     1
 75
     0
 76
     0
 77
     0
 78
     4
170
     0
171
     2
172
     0
173
     0
174
     0
175
     0
176
     0
177
     0
178
     0
  0
ENDTAB
  0
ENDSEC
  0
SECTION
  2
BLOCKS
  0
BLOCK
  8
0
  2
$MODEL_SPACE
 70
     0
 10
0.0
 20
0.0
 30
0.0
  3
$MODEL_SPACE
  1

  0
ENDBLK
  5
21
  8
0
  0
BLOCK
 67
     1
  8
0
  2
$PAPER_SPACE
 70
     0
 10
0.0
 20
0.0
 30
0.0
  3
$PAPER_SPACE
  1

  0
ENDBLK
  5
1D
 67
     1
  8
0
  0
ENDSEC
  0
SECTION
  2
ENTITIES
  0
ATTDEF
  5
3930
  8
DEFPOINTS
 10
2829.3031608286428309
 20
161.8144106296275879
 30
0.0
 40
0.001
  1
K-EX28098K-4
  3

  2
MODELNUMBER
 70
     0
1001
ACDBATTR
1070
     0
1070
     1
  0
ATTDEF
  5
3931
  8
DEFPOINTS
 10
2829.3031608286428309
 20
161.8127439629608944
 30
0.0
 40
0.001
  1
COMPONENTS
  3

  2
TRADENAME
 70
     0
1001
ACDBATTR
1070
     0
1070
     1
  0
ATTDEF
  5
3932
  8
DEFPOINTS
 10
2829.3031608286428309
 20
161.811077296294286
 30
0.0
 40
0.001
  1
BATHROOM SINK FAUCET
  3

  2
PRODUCT
 70
     0
1001
ACDBATTR
1070
     0
1070
     1
  0
LINE
  5
BA08
  8
0
 10
2828.3582649012059846
 20
161.8110017247203132
 30
0.0
 11
2830.2480286807049197
 21
161.8110017247203132
 31
0.0
  0
LINE
  5
BA09
  8
0
 10
2828.3665751467060545
 20
161.963187065720291
 30
0.0
 11
2830.2397184353058037
 21
161.963187065720291
 31
0.0
  0
LINE
  5
BA0A
  8
0
 10
2830.1338554524058964
 20
161.9960410948202139
 30
0.0
 11
2828.4724381296059619
 21
161.9960410948202139
 31
0.0
  0
LINE
  5
BA0B
  8
0
 10
2821.7118026556058794
 20
172.4285253900202122
 30
0.0
 11
2822.1649300889062033
 21
172.8661054659202136
 31
0.0
  0
LINE
  5
BA0C
  8
0
 10
2821.7118026556058794
 20
172.4285253900202122
 30
0.0
 11
2822.0126389578058479
 21
172.1170002796202141
 31
0.0
  0
LINE
  5
BA0D
  8
0
 10
2822.4657663911061718
 20
172.5545803555201871
 30
0.0
 11
2822.0126389578058479
 21
172.1170002796202141
 31
0.0
  0
LINE
  5
BA0E
  8
0
 10
2830.2397184353058037
 20
161.963187065720291
 30
0.0
 11
2830.1338554524058964
 21
161.9960410948202139
 31
0.0
  0
LINE
  5
BA0F
  8
0
 10
2826.4881861611052045
 20
175.3936788901202135
 30
0.0
 11
2826.4881861611052045
 21
175.5905292838203025
 31
0.0
  0
LINE
  5
BA10
  8
0
 10
2830.3589497939560715
 20
164.4328403746702918
 30
0.0
 11
2830.5908880247548041
 21
164.3343884367702117
 31
0.0
  0
LINE
  5
BA11
  8
0
 10
2828.7507586652059217
 20
172.9881670790202861
 30
0.0
 11
2824.1653704130058031
 21
172.9881670790202861
 31
0.0
  0
LINE
  5
BA12
  8
0
 10
2830.5666218532560379
 20
164.9220850790703139
 30
0.0
 11
2830.798560078455921
 21
164.8236331435701914
 31
0.0
  0
LINE
  5
BA13
  8
0
 10
2828.3582649012059846
 20
161.8110017247203132
 30
0.0
 11
2828.3582649012059846
 21
161.9519067806201917
 31
0.0
  0
LINE
  5
BA14
  8
0
 10
2828.476375137406194
 20
174.8306867641202018
 30
0.0
 11
2828.476375137406194
 21
173.4212379452202129
 31
0.0
  0
LINE
  5
BA15
  8
0
 10
2828.476375137406194
 20
172.9881670790202861
 30
0.0
 11
2828.476375137406194
 21
161.9960410948202139
 31
0.0
  0
LINE
  5
BA16
  8
0
 10
2828.476375137406194
 20
174.9409229846201868
 30
0.0
 11
2828.476375137406194
 21
175.2952536932203031
 31
0.0
  0
LINE
  5
BA17
  8
0
 10
2828.4980286807049197
 20
174.8635520487202939
 30
0.0
 11
2828.4980286807049197
 21
174.8464347956202118
 31
0.0
  0
LINE
  5
BA18
  8
0
 10
2824.1653704130058031
 20
173.4212379452202129
 30
0.0
 11
2828.7507586652059217
 21
173.4212379452202129
 31
0.0
  0
LINE
  5
BA19
  8
0
 10
2828.5688948225060813
 20
174.8424977877203048
 30
0.0
 11
2828.5688948225060813
 21
174.8464347956202118
 31
0.0
  0
LINE
  5
BA1A
  8
0
 10
2828.7619200667049881
 20
172.9980095987201878
 30
0.0
 11
2828.7619200667049881
 21
173.4113954255203112
 31
0.0
  0
LINE
  5
BA1B
  8
0
 10
2830.118107420906199
 20
174.8424977877203048
 30
0.0
 11
2828.4881861611052045
 21
174.8424977877203048
 31
0.0
  0
LINE
  5
BA1C
  8
0
 10
2828.4980286808049641
 20
174.8464347956202118
 30
0.0
 11
2830.1082649012059846
 21
174.8464347956202118
 31
0.0
  0
LINE
  5
BA1D
  8
0
 10
2828.476375137406194
 20
174.9409229846201868
 30
0.0
 11
2830.1299184445060746
 21
174.9409229846201868
 31
0.0
  0
LINE
  5
BA1E
  8
0
 10
2830.037398759505777
 20
174.8424977877203048
 30
0.0
 11
2830.037398759505777
 21
174.8464347956202118
 31
0.0
  0
LINE
  5
BA1F
  8
0
 10
2830.1082649012059846
 20
174.8635520487202939
 30
0.0
 11
2830.1082649012059846
 21
174.8464347956202118
 31
0.0
  0
LINE
  5
BA20
  8
0
 10
2830.1299184445060746
 20
174.8306867641202018
 30
0.0
 11
2830.1299184445060746
 21
174.5472221971203055
 31
0.0
  0
LINE
  5
BA21
  8
0
 10
2830.1299184445060746
 20
174.3897418822201928
 30
0.0
 11
2830.1299184445551873
 21
163.8983143295203035
 31
0.0
  0
LINE
  5
BA22
  8
0
 10
2830.1299184445060746
 20
163.0314741657203115
 30
0.0
 11
2830.1299184445060746
 21
161.9960410948202139
 31
0.0
  0
LINE
  5
BA23
  8
0
 10
2830.1299184445060746
 20
174.9409229846201868
 30
0.0
 11
2830.1299184445060746
 21
175.5905292838203025
 31
0.0
  0
LINE
  5
BA24
  8
0
 10
2830.2480286807049197
 20
161.8110017247203132
 30
0.0
 11
2830.2480286807049197
 21
161.9519067806201917
 31
0.0
  0
LINE
  5
BA25
  8
0
 10
2828.3976349800059324
 20
175.3739938507202965
 30
0.0
 11
2826.507871200405134
 21
175.3739938507202965
 31
0.0
  0
LINE
  5
BA26
  8
0
 10
2830.3526926239560453
 20
164.4483274138702882
 30
0.0
 11
2830.5511348112559062
 21
164.9158279102703091
 31
0.0
  0
LINE
  5
BA27
  8
0
 10
2830.4114982993469312
 20
164.410534857500096
 30
0.0
 11
2830.1228579115791035
 21
163.730540716985189
 31
0.0
  0
LINE
  5
BA28
  8
0
 10
2830.5383395193548495
 20
164.3566939540203009
 30
0.0
 11
2830.1228600486451796
 21
163.3778856602469887
 31
0.0
  0
LINE
  5
BA29
  8
0
 10
2830.6063750639559657
 20
164.3406456067702095
 30
0.0
 11
2830.8048172512558267
 21
164.8081461031702872
 31
0.0
  0
LINE
  5
BA2A
  8
0
 10
2828.3665751467060545
 20
161.963187065720291
 30
0.0
 11
2828.4724381296059619
 21
161.9960410948202139
 31
0.0
  0
LINE
  5
BA2B
  8
0
 10
2826.507871200405134
 20
175.6102143231202888
 30
0.0
 11
2830.1102334051051912
 21
175.6102143231202888
 31
0.0
  0
ARC
  5
BA2C
  8
0
 10
2824.1653704130058031
 20
165.7047025121202068
 30
0.0
 40
7.7165354330999989
 50
90.0
 51
97.2219129219998734
  0
ARC
  5
BA2D
  8
0
 10
2824.1653704130058031
 20
165.7047025121202068
 30
0.0
 40
7.2834645669000002
 50
90.0
 51
97.2219129219998734
  0
ARC
  5
BA2E
  8
0
 10
2823.4229728071059071
 20
171.5633640952202086
 30
0.0
 40
1.8110236219999989
 50
97.2219129219998734
 51
133.9999999999965894
  0
ARC
  5
BA2F
  8
0
 10
2823.4229728071059071
 20
171.5633640952202086
 30
0.0
 40
1.3779527558999991
 50
97.2219129219998734
 51
134.0000000001004139
  0
ARC
  5
BA30
  8
0
 10
2829.3031467910050196
 20
173.8228127483201888
 30
0.0
 40
1.315809052499999
 50
121.8153881930310973
 51
127.7256114341068951
  0
ARC
  5
BA31
  8
0
 10
2829.3031467910050196
 20
173.8228127483201888
 30
0.0
 40
1.315809052499999
 50
52.2743885658930978
 51
58.1846118069688387
  0
ARC
  5
BA32
  8
0
 10
2830.9574261349048356
 20
174.46826754702019
 30
0.0
 40
0.8312657903999999
 50
174.549760311199293
 51
179.9852158889000009
  0
ARC
  5
BA33
  8
0
 10
2830.9574156648050121
 20
174.4686960326203007
 30
0.0
 40
0.8312553202
 50
180.0147498537992874
 51
185.4502739460999976
  0
ARC
  5
BA34
  8
0
 10
2828.3976349800059324
 20
175.2952536932203031
 30
0.0
 40
0.0787401575
 50
0.0
 51
90.0
  0
ARC
  5
BA35
  8
0
 10
2826.507871200405134
 20
175.5905292838203025
 30
0.0
 40
0.0196850394
 50
90.0
 51
180.0
  0
ARC
  5
BA36
  8
0
 10
2826.507871200405134
 20
175.3936788901202135
 30
0.0
 40
0.0196850394
 50
180.0
 51
270.0
  0
ARC
  5
BA37
  8
0
 10
2830.1102334051051912
 20
175.5905292838203025
 30
0.0
 40
0.0196850394
 50
0.0
 51
90.0
  0
ARC
  5
BA38
  8
0
 10
2830.5955029593560539
 20
164.3452605413702088
 30
0.0
 40
0.0118110236
 50
246.9999999999994031
 51
336.9999999999956799
  0
ARC
  5
BA39
  8
0
 10
2830.3635647285559571
 20
164.4437124792702889
 30
0.0
 40
0.0118110236
 50
156.9999999999955946
 51
246.9999999999994031
  0
ARC
  5
BA3A
  8
0
 10
2830.793945146544047
 20
164.8127610377759993
 30
0.0
 40
0.0118110237042798
 50
337.000000184432281
 51
67.0000142803262833
  0
ARC
  5
BA3B
  8
0
 10
2830.5620069159140257
 20
164.9112129756107095
 30
0.0
 40
0.0118110236770706
 50
66.9999856046642179
 51
156.9999998451393139
  0
ARC
  5
BA3C
  8
0
 10
2828.3700759248049508
 20
161.9519067806201917
 30
0.0
 40
0.0118110236
 50
107.2414593985893987
 51
180.0
  0
ARC
  5
BA3D
  8
0
 10
2830.2362176571059535
 20
161.9519067806201917
 30
0.0
 40
0.0118110236
 50
0.0
 51
72.7585406014105587
  0
ARC
  5
BA3E
  8
0
 10
2830.118107420906199
 20
174.8306867641202018
 30
0.0
 40
0.0118110236
 50
0.0
 51
90.0
  0
ARC
  5
BA3F
  8
0
 10
2828.4881861611052045
 20
174.8306867641202018
 30
0.0
 40
0.0118110236
 50
90.0
 51
180.0
  0
ARC
  5
BA40
  8
0
 10
2828.7512873472001047
 20
172.9988173200088966
 30
0.0
 40
0.0106633549020462
 50
267.1581485495922266
 51
355.655833314613119
  0
ARC
  5
BA41
  8
0
 10
2828.7512873471200692
 20
173.4105877041413919
 30
0.0
 40
0.0106633549882024
 50
4.3441671363300474
 51
92.8418509994646683
  0
LINE
  5
BA43
  8
0
 10
2829.9731454141060567
 20
174.9409229846201868
 30
0.0
 11
2829.9688373128587955
 21
174.9307748487443916
 31
0.0
  0
ARC
  5
BA44
  8
0
 10
2830.006530275492878
 20
175.0732083034172888
 30
0.0
 40
0.1503203564629968
 50
241.6450960835418869
 51
250.1529047128910008
  0
ARC
  5
BA45
  8
0
 10
2829.972919985075805
 20
174.981178306773387
 30
0.0
 40
0.0523469848512052
 50
250.5564581197934899
 51
258.6890575629748241
  0
ARC
  5
BA46
  8
0
 10
2829.9653757550959199
 20
174.9420186671555939
 30
0.0
 40
0.0124714658104208
 50
257.3896563841677789
 51
279.1597496925735982
  0
ARC
  5
BA47
  8
0
 10
2829.967004168798212
 20
174.9317532678340115
 30
0.0
 40
0.0020779126695651
 50
279.8898230758272803
 51
331.9094541315071751
  0
ARC
  5
BA48
  8
0
 10
2837.6491089640871905
 20
163.4978436613166934
 30
0.0
 40
7.5298474636013788
 50
176.9513180555584029
 51
178.2290899914688111
  0
ARC
  5
BA49
  8
0
 10
2835.524889613211144
 20
163.5542459245662883
 30
0.0
 40
5.4049076180147981
 50
178.1308210610162064
 51
181.8698733597589978
  0
ARC
  5
BA4A
  8
0
 10
2826.137506660343206
 20
163.1234034173122893
 30
0.0
 40
3.993470025130907
 50
358.6809407860191072
 51
3.65362573914383
  0
ENDSEC
  0
EOF
