  0
SECTION
  2
HEADER
  9
$ACADVER
  1
AC1009
  9
$INSBASE
 10
2822.2643896263039096
 20
170.9729094561749889
 30
0.0
  9
$EXTMIN
 10
2821.3195077365539873
 20
163.3815458283987994
 30
0.0
  9
$EXTMAX
 10
2823.2092715161538763
 20
172.4755188346499892
 30
0.0
  9
$LIMMIN
 10
0.0
 20
0.0
  9
$LIMMAX
 10
11.6929133858000007
 20
8.2677165353999982
  9
$ORTHOMODE
 70
     0
  9
$REGENMODE
 70
     1
  9
$FILLMODE
 70
     1
  9
$QTEXTMODE
 70
     0
  9
$MIRRTEXT
 70
     0
  9
$DRAGMODE
 70
     2
  9
$LTSCALE
 40
0.6431102362
  9
$OSMODE
 70
   575
  9
$ATTMODE
 70
     1
  9
$TEXTSIZE
 40
0.2
  9
$TRACEWID
 40
0.05
  9
$TEXTSTYLE
  7
STANDARD
  9
$CLAYER
  8
0
  9
$CELTYPE
  6
BYLAYER
  9
$CECOLOR
 62
   256
  9
$DIMSCALE
 40
1.0
  9
$DIMASZ
 40
0.1875
  9
$DIMEXO
 40
0.0625
  9
$DIMDLI
 40
0.4443307087
  9
$DIMRND
 40
0.0
  9
$DIMDLE
 40
0.0
  9
$DIMEXE
 40
0.125
  9
$DIMTP
 40
0.01
  9
$DIMTM
 40
0.01
  9
$DIMTXT
 40
2.0
  9
$DIMCEN
 40
0.1052362205
  9
$DIMTSZ
 40
0.0
  9
$DIMTOL
 70
     1
  9
$DIMLIM
 70
     0
  9
$DIMTIH
 70
     1
  9
$DIMTOH
 70
     1
  9
$DIMSE1
 70
     0
  9
$DIMSE2
 70
     0
  9
$DIMTAD
 70
     0
  9
$DIMZIN
 70
     0
  9
$DIMBLK
  1

  9
$DIMASO
 70
     1
  9
$DIMSHO
 70
     1
  9
$DIMPOST
  1
\X
  9
$DIMAPOST
  1

  9
$DIMALT
 70
     1
  9
$DIMALTD
 70
     2
  9
$DIMALTF
 40
25.3999999999999986
  9
$DIMLFAC
 40
1.0
  9
$DIMTOFL
 70
     0
  9
$DIMTVP
 40
0.0
  9
$DIMTIX
 70
     0
  9
$DIMSOXD
 70
     0
  9
$DIMSAH
 70
     0
  9
$DIMBLK1
  1

  9
$DIMBLK2
  1

  9
$DIMSTYLE
  2
STANDARD
  9
$DIMCLRD
 70
     0
  9
$DIMCLRE
 70
     0
  9
$DIMCLRT
 70
     0
  9
$DIMTFAC
 40
1.0
  9
$DIMGAP
 40
0.09
  9
$LUNITS
 70
     2
  9
$LUPREC
 70
     4
  9
$SKETCHINC
 40
0.1
  9
$FILLETRAD
 40
0.0
  9
$AUNITS
 70
     0
  9
$AUPREC
 70
     0
  9
$MENU
  1
.
  9
$ELEVATION
 40
0.0
  9
$PELEVATION
 40
0.0
  9
$THICKNESS
 40
0.0
  9
$LIMCHECK
 70
     0
  9
$BLIPMODE
 70
     0
  9
$CHAMFERA
 40
0.0
  9
$CHAMFERB
 40
0.0
  9
$SKPOLY
 70
     0
  9
$TDCREATE
 40
2458060.468368056230247
  9
$TDUPDATE
 40
2459667.7706828699447215
  9
$TDINDWG
 40
1.082946875
  9
$TDUSRTIMER
 40
1.082946875
  9
$USRTIMER
 70
     1
  9
$ANGBASE
 50
0.0
  9
$ANGDIR
 70
     0
  9
$PDMODE
 70
     0
  9
$PDSIZE
 40
0.3125
  9
$PLINEWID
 40
0.0
  9
$COORDS
 70
     1
  9
$SPLFRAME
 70
     0
  9
$SPLINETYPE
 70
     6
  9
$SPLINESEGS
 70
     8
  9
$ATTDIA
 70
     1
  9
$ATTREQ
 70
     1
  9
$HANDLING
 70
     1
  9
$HANDSEED
  5
BA8B
  9
$SURFTAB1
 70
     6
  9
$SURFTAB2
 70
     6
  9
$SURFTYPE
 70
     6
  9
$SURFU
 70
     6
  9
$SURFV
 70
     6
  9
$UCSNAME
  2

  9
$UCSORG
 10
0.0
 20
0.0
 30
0.0
  9
$UCSXDIR
 10
1.0
 20
0.0
 30
0.0
  9
$UCSYDIR
 10
0.0
 20
1.0
 30
0.0
  9
$PUCSNAME
  2

  9
$PUCSORG
 10
0.0
 20
0.0
 30
0.0
  9
$PUCSXDIR
 10
1.0
 20
0.0
 30
0.0
  9
$PUCSYDIR
 10
0.0
 20
1.0
 30
0.0
  9
$USERI1
 70
     0
  9
$USERI2
 70
     0
  9
$USERI3
 70
     0
  9
$USERI4
 70
     0
  9
$USERI5
 70
     0
  9
$USERR1
 40
0.0
  9
$USERR2
 40
0.0
  9
$USERR3
 40
0.0
  9
$USERR4
 40
0.0
  9
$USERR5
 40
0.0
  9
$WORLDVIEW
 70
     1
  9
$SHADEDGE
 70
     3
  9
$SHADEDIF
 70
    70
  9
$TILEMODE
 70
     1
  9
$MAXACTVP
 70
    64
  9
$PLIMCHECK
 70
     0
  9
$PEXTMIN
 10
1.0000000000000000E+20
 20
1.0000000000000000E+20
 30
1.0000000000000000E+20
  9
$PEXTMAX
 10
-1.0000000000000000E+20
 20
-1.0000000000000000E+20
 30
-1.0000000000000000E+20
  9
$PLIMMIN
 10
0.0
 20
0.0
  9
$PLIMMAX
 10
12.0
 20
9.0
  9
$UNITMODE
 70
     0
  9
$VISRETAIN
 70
     1
  9
$PLINEGEN
 70
     0
  9
$PSLTSCALE
 70
     1
  0
ENDSEC
  0
SECTION
  2
TABLES
  0
TABLE
  2
VPORT
 70
     1
  0
VPORT
  2
*ACTIVE
 70
     0
 10
0.0
 20
0.0
 11
1.0
 21
1.0
 12
511.053278984644578
 22
33.1690917364615814
 13
0.0
 23
0.0
 14
1.0
 24
1.0
 15
0.0
 25
0.0
 16
0.0
 26
0.0
 36
14.15189873613655
 17
2311.2252197265629547
 27
137.8012416672862912
 37
0.0
 40
0.0227152259581658
 41
2.2268786127167619
 42
50.0
 43
0.0
 44
0.0
 50
0.0
 51
0.0
 71
     0
 72
   100
 73
     1
 74
     1
 75
     0
 76
     0
 77
     0
 78
     0
  0
ENDTAB
  0
TABLE
  2
LTYPE
 70
     2
  0
LTYPE
  2
CONTINUOUS
 70
     0
  3
Solid line
 72
    65
 73
     0
 40
0.0
  0
LTYPE
  2
PHANTOM2
 70
     0
  3
___ _ _ ___ _ _ ___ _ _ ___ _ _
 72
    65
 73
     6
 40
1.25
 49
0.625
 49
-0.125
 49
0.125
 49
-0.125
 49
0.125
 49
-0.125
  0
ENDTAB
  0
TABLE
  2
LAYER
 70
     2
  0
LAYER
  2
0
 70
     0
 62
   255
  6
CONTINUOUS
  0
LAYER
  2
DEFPOINTS
 70
     0
 62
     7
  6
CONTINUOUS
  0
ENDTAB
  0
TABLE
  2
STYLE
 70
     1
  0
STYLE
  2
STANDARD
 70
     0
 40
0.0
 41
0.8
 50
0.0
 71
     0
 42
0.2
  3
txt
  4

  0
ENDTAB
  0
TABLE
  2
VIEW
 70
     0
  0
ENDTAB
  0
TABLE
  2
UCS
 70
     0
  0
ENDTAB
  0
TABLE
  2
APPID
 70
    10
  0
APPID
  2
ACAD
 70
     0
  0
APPID
  2
ACAD_MLEADERVER
 70
     0
  0
APPID
  2
ACAD_EXEMPT_FROM_CAD_STANDARDS
 70
     0
  0
APPID
  2
ACAD_NAV_VCDISPLAY
 70
     0
  0
APPID
  2
ACAECLAYERSTANDARD
 70
     0
  0
APPID
  2
ACCMTRANSPARENCY
 70
     0
  0
APPID
  2
ACAD_DSTYLE_DIMJAG
 70
     0
  0
APPID
  2
ACAD_DSTYLE_DIMTALN
 70
     0
  0
APPID
  2
ACDBATTR
 70
     0
  0
APPID
  2
DCO15
 70
     0
  0
ENDTAB
  0
TABLE
  2
DIMSTYLE
 70
     1
  0
DIMSTYLE
  2
STANDARD
 70
     0
  3

  4

  5

  6

  7

 40
1.0
 41
0.1875
 42
0.0625
 43
0.38
 44
0.125
 45
0.0
 46
0.0
 47
0.01
 48
0.01
140
0.15625
141
0.09
142
0.0
143
25.3999999999999986
144
1.0
145
0.0
146
1.0
147
0.09
 71
     1
 72
     0
 73
     1
 74
     1
 75
     0
 76
     0
 77
     0
 78
     4
170
     0
171
     2
172
     0
173
     0
174
     0
175
     0
176
     0
177
     0
178
     0
  0
ENDTAB
  0
ENDSEC
  0
SECTION
  2
BLOCKS
  0
BLOCK
  8
0
  2
$MODEL_SPACE
 70
     0
 10
0.0
 20
0.0
 30
0.0
  3
$MODEL_SPACE
  1

  0
ENDBLK
  5
21
  8
0
  0
BLOCK
 67
     1
  8
0
  2
$PAPER_SPACE
 70
     0
 10
0.0
 20
0.0
 30
0.0
  3
$PAPER_SPACE
  1

  0
ENDBLK
  5
1D
 67
     1
  8
0
  0
BLOCK
  8
0
  2
_FILLED
 70
     0
 10
0.0
 20
0.0
 30
0.0
  3
_FILLED
  1

  0
SOLID
  5
B9BF
  8
0
  6
BYBLOCK
 62
     0
 10
0.0
 20
0.0
 30
0.0
 11
-1.0
 21
0.1666666667
 31
0.0
 12
-1.0
 22
-0.1666666667
 32
0.0
 13
-1.0
 23
-0.1666666667
 33
0.0
  0
ENDBLK
  5
B9C0
  8
0
  6
BYBLOCK
 62
     0
  0
ENDSEC
  0
SECTION
  2
ENTITIES
  0
ATTDEF
  5
3930
  8
DEFPOINTS
 10
2822.2644119775591207
 20
170.976384860178598
 30
0.0
 40
0.001
  1
K-EX28098K-4
  3

  2
MODELNUMBER
 70
     0
1001
ACDBATTR
1070
     0
1070
     1
  0
ATTDEF
  5
3931
  8
DEFPOINTS
 10
2822.2644119775591207
 20
170.9747181935119045
 30
0.0
 40
0.001
  1
COMPONENTS
  3

  2
TRADENAME
 70
     0
1001
ACDBATTR
1070
     0
1070
     1
  0
ATTDEF
  5
3932
  8
DEFPOINTS
 10
2822.2644119775591207
 20
170.9730515268452962
 30
0.0
 40
0.001
  1
BATHROOM SINK FAUCET
  3

  2
PRODUCT
 70
     0
1001
ACDBATTR
1070
     0
1070
     1
  0
LINE
  5
B9E6
  8
0
 10
2821.6492321459541017
 20
163.3815464231250019
 30
0.0
 11
2822.8795471066550817
 21
163.3815464231250019
 31
0.0
  0
LINE
  5
B9E7
  8
0
 10
2822.8352557680541395
 20
168.1579488261249935
 30
0.0
 11
2821.693523484555044
 21
168.1579488261249935
 31
0.0
  0
LINE
  5
B9E8
  8
0
 10
2821.6393896263539318
 20
163.3883836118249917
 30
0.0
 11
2821.6393896263539318
 21
170.4256874900775074
 31
0.0
  0
LINE
  5
B9E9
  8
0
 10
2821.6738384452551145
 20
168.1776338655249958
 30
0.0
 11
2821.6738384452551145
 21
170.3629908189249988
 31
0.0
  0
LINE
  5
B9EA
  8
0
 10
2822.1265943394400892
 20
172.149296509158404
 30
0.0
 11
2822.1265943394400892
 21
172.347738696458407
 31
0.0
  0
LINE
  5
B9EB
  8
0
 10
2822.195491988503818
 20
172.03876945038229
 30
0.0
 11
2822.195491988503818
 21
171.7968053734207103
 31
0.0
  0
LINE
  5
B9EC
  8
0
 10
2822.3332872640039568
 20
172.0387693869166128
 30
0.0
 11
2822.3332872640039568
 21
171.7968053734290095
 31
0.0
  0
LINE
  5
B9ED
  8
0
 10
2822.4021848905399565
 20
172.1492965092583916
 30
0.0
 11
2822.4021848905399565
 21
172.3477386958583963
 31
0.0
  0
LINE
  5
B9EE
  8
0
 10
2822.8549408074541134
 20
170.3629908189249988
 30
0.0
 11
2822.8549408074541134
 21
168.1776338655249958
 31
0.0
  0
LINE
  5
B9EF
  8
0
 10
2822.8893896263539318
 20
163.3883836118249917
 30
0.0
 11
2822.8893896263539318
 21
170.4256874900775074
 31
0.0
  0
ARC
  5
B9F0
  8
0
 10
2821.693523484555044
 20
168.1776338655249958
 30
0.0
 40
0.0196850394
 50
180.0
 51
270.0
  0
ARC
  5
B9F1
  8
0
 10
2822.8352557680541395
 20
168.1776338655249958
 30
0.0
 40
0.0196850394
 50
270.0
 51
0.0
  0
ARC
  5
B9F2
  8
0
 10
2822.2643896263539318
 20
170.9729094561249951
 30
0.0
 40
0.9448818898
 50
94.181528276289967
 51
228.5888113638359869
  0
ARC
  5
B9F3
  8
0
 10
2822.2643896263539318
 20
170.9729094561249951
 30
0.0
 40
0.9448818898
 50
311.4111886361640131
 51
85.8184717358841169
  0
ARC
  5
B9F4
  8
0
 10
2822.2643896263539318
 20
170.9729094561249951
 30
0.0
 40
0.8307086613999999
 50
94.7574845785025559
 51
222.4149249061989906
  0
ARC
  5
B9F5
  8
0
 10
2822.2643896263539318
 20
170.9729094561249951
 30
0.0
 40
0.8307086613999999
 50
316.048997352694812
 51
85.2425154353283148
  0
ARC
  5
B9F6
  8
0
 10
2822.9290360743611927
 20
170.3638588826453883
 30
0.0
 40
0.0741003517366548
 50
153.9831223986398072
 51
180.6712184762606057
  0
ARC
  5
B9F7
  8
0
 10
2821.6463052420290296
 20
163.3891758799493061
 30
0.0
 40
0.0069608497283929
 50
186.5354383087831991
 51
248.9276174941659008
  0
ARC
  5
B9F8
  8
0
 10
2821.6491470465211933
 20
163.3947036529104935
 30
0.0
 40
0.0131575049891934
 50
246.0337525261529947
 51
270.3705772736623771
  0
ARC
  5
B9F9
  8
0
 10
2822.8796709040798305
 20
163.3944308792947027
 30
0.0
 40
0.0128850508958838
 50
269.4495032109390991
 51
297.1781866114221202
  0
ARC
  5
B9FA
  8
0
 10
2822.8820963339071568
 20
163.3898853247546867
 30
0.0
 40
0.0077339604733288
 50
296.5750279170522958
 51
327.1991053992234129
  0
ARC
  5
B9FB
  8
0
 10
2822.8840908965112249
 20
163.3885094247904135
 30
0.0
 40
0.0053126042895671
 50
328.0190730831849919
 51
348.3506950248519161
  0
ARC
  5
B9FC
  8
0
 10
2822.8845849482868289
 20
163.3883901866846884
 30
0.0
 40
0.0048046825661111
 50
348.553690810007879
 51
359.9215948563804091
  0
ARC
  5
B9FD
  8
0
 10
2822.2521308771729309
 20
172.1510963082712067
 30
0.0
 40
0.1255494387993987
 50
180.8213849969804983
 51
232.5607864921537953
  0
ARC
  5
B9FE
  8
0
 10
2822.2643896856411629
 20
172.167709445485599
 30
0.0
 40
0.1461930744188263
 50
232.704217024626189
 51
307.2957133616416172
  0
ARC
  5
B9FF
  8
0
 10
2822.2778333160640614
 20
172.1505004558663927
 30
0.0
 40
0.1243574025223971
 50
307.1725878530868954
 51
359.4452912683431123
  0
ARC
  5
BA00
  8
0
 10
2822.2643896150148066
 20
172.359165750352787
 30
0.0
 40
0.1382682737704668
 50
184.7405636822686006
 51
355.2594360683028754
  0
ARC
  5
BA01
  8
0
 10
2822.2643896149897955
 20
172.3373310764347934
 30
0.0
 40
0.1381877582151773
 50
4.3193254556097784
 51
175.6806745443821001
  0
ARC
  5
BA02
  8
0
 10
2821.5513005823049753
 20
170.3368309416947
 30
0.0
 40
0.1252991102637188
 50
12.0508335094238301
 51
37.2081374301080601
  0
ARC
  5
BA04
  8
0
 10
2822.2643896263039096
 20
170.9729094561749889
 30
0.0
 40
0.8267716534500024
 50
317.6573945410524971
 51
222.3426054542734107
  0
ARC
  5
BA05
  8
0
 10
2821.5950982868048413
 20
170.3629908187569129
 30
0.0
 40
0.0787401583995399
 50
0.0000002927356067
 51
42.3426050994326673
  0
ARC
  5
BA06
  8
0
 10
2822.9315883315671272
 20
170.3646774555708134
 30
0.0
 40
0.0760575480190367
 50
137.5346976659106986
 51
155.3807734245054917
  0
ENDSEC
  0
EOF
