  0
SECTION
  2
HEADER
  9
$ACADVER
  1
AC1009
  9
$INSBASE
 10
2814.0658401338018848
 20
160.9265171227656879
 30
0.0
  9
$EXTMIN
 10
2813.1209582440519625
 20
160.9265171227656879
 30
0.0
  9
$EXTMAX
 10
2815.0107220235518071
 20
174.7257297220259886
 30
0.0
  9
$LIMMIN
 10
0.0
 20
0.0
  9
$LIMMAX
 10
11.6929133858000007
 20
8.2677165353999982
  9
$ORTHOMODE
 70
     0
  9
$REGENMODE
 70
     1
  9
$FILLMODE
 70
     1
  9
$QTEXTMODE
 70
     0
  9
$MIRRTEXT
 70
     0
  9
$DRAGMODE
 70
     2
  9
$LTSCALE
 40
0.6431102362
  9
$OSMODE
 70
   575
  9
$ATTMODE
 70
     1
  9
$TEXTSIZE
 40
0.2
  9
$TRACEWID
 40
0.05
  9
$TEXTSTYLE
  7
STANDARD
  9
$CLAYER
  8
0
  9
$CELTYPE
  6
BYLAYER
  9
$CECOLOR
 62
   256
  9
$DIMSCALE
 40
1.0
  9
$DIMASZ
 40
0.1875
  9
$DIMEXO
 40
0.0625
  9
$DIMDLI
 40
0.4443307087
  9
$DIMRND
 40
0.0
  9
$DIMDLE
 40
0.0
  9
$DIMEXE
 40
0.125
  9
$DIMTP
 40
0.01
  9
$DIMTM
 40
0.01
  9
$DIMTXT
 40
2.0
  9
$DIMCEN
 40
0.1052362205
  9
$DIMTSZ
 40
0.0
  9
$DIMTOL
 70
     1
  9
$DIMLIM
 70
     0
  9
$DIMTIH
 70
     1
  9
$DIMTOH
 70
     1
  9
$DIMSE1
 70
     0
  9
$DIMSE2
 70
     0
  9
$DIMTAD
 70
     0
  9
$DIMZIN
 70
     0
  9
$DIMBLK
  1

  9
$DIMASO
 70
     1
  9
$DIMSHO
 70
     1
  9
$DIMPOST
  1
\X
  9
$DIMAPOST
  1

  9
$DIMALT
 70
     1
  9
$DIMALTD
 70
     2
  9
$DIMALTF
 40
25.3999999999999986
  9
$DIMLFAC
 40
1.0
  9
$DIMTOFL
 70
     0
  9
$DIMTVP
 40
0.0
  9
$DIMTIX
 70
     0
  9
$DIMSOXD
 70
     0
  9
$DIMSAH
 70
     0
  9
$DIMBLK1
  1

  9
$DIMBLK2
  1

  9
$DIMSTYLE
  2
STANDARD
  9
$DIMCLRD
 70
     0
  9
$DIMCLRE
 70
     0
  9
$DIMCLRT
 70
     0
  9
$DIMTFAC
 40
1.0
  9
$DIMGAP
 40
0.09
  9
$LUNITS
 70
     2
  9
$LUPREC
 70
     4
  9
$SKETCHINC
 40
0.1
  9
$FILLETRAD
 40
0.0
  9
$AUNITS
 70
     0
  9
$AUPREC
 70
     0
  9
$MENU
  1
.
  9
$ELEVATION
 40
0.0
  9
$PELEVATION
 40
0.0
  9
$THICKNESS
 40
0.0
  9
$LIMCHECK
 70
     0
  9
$BLIPMODE
 70
     0
  9
$CHAMFERA
 40
0.0
  9
$CHAMFERB
 40
0.0
  9
$SKPOLY
 70
     0
  9
$TDCREATE
 40
2458060.468368056230247
  9
$TDUPDATE
 40
2459667.7687152777798474
  9
$TDINDWG
 40
1.0812917823999999
  9
$TDUSRTIMER
 40
1.0812917823999999
  9
$USRTIMER
 70
     1
  9
$ANGBASE
 50
0.0
  9
$ANGDIR
 70
     0
  9
$PDMODE
 70
     0
  9
$PDSIZE
 40
0.3125
  9
$PLINEWID
 40
0.0
  9
$COORDS
 70
     1
  9
$SPLFRAME
 70
     0
  9
$SPLINETYPE
 70
     6
  9
$SPLINESEGS
 70
     8
  9
$ATTDIA
 70
     1
  9
$ATTREQ
 70
     1
  9
$HANDLING
 70
     1
  9
$HANDSEED
  5
B9FD
  9
$SURFTAB1
 70
     6
  9
$SURFTAB2
 70
     6
  9
$SURFTYPE
 70
     6
  9
$SURFU
 70
     6
  9
$SURFV
 70
     6
  9
$UCSNAME
  2

  9
$UCSORG
 10
0.0
 20
0.0
 30
0.0
  9
$UCSXDIR
 10
1.0
 20
0.0
 30
0.0
  9
$UCSYDIR
 10
0.0
 20
1.0
 30
0.0
  9
$PUCSNAME
  2

  9
$PUCSORG
 10
0.0
 20
0.0
 30
0.0
  9
$PUCSXDIR
 10
1.0
 20
0.0
 30
0.0
  9
$PUCSYDIR
 10
0.0
 20
1.0
 30
0.0
  9
$USERI1
 70
     0
  9
$USERI2
 70
     0
  9
$USERI3
 70
     0
  9
$USERI4
 70
     0
  9
$USERI5
 70
     0
  9
$USERR1
 40
0.0
  9
$USERR2
 40
0.0
  9
$USERR3
 40
0.0
  9
$USERR4
 40
0.0
  9
$USERR5
 40
0.0
  9
$WORLDVIEW
 70
     1
  9
$SHADEDGE
 70
     3
  9
$SHADEDIF
 70
    70
  9
$TILEMODE
 70
     1
  9
$MAXACTVP
 70
    64
  9
$PLIMCHECK
 70
     0
  9
$PEXTMIN
 10
1.0000000000000000E+20
 20
1.0000000000000000E+20
 30
1.0000000000000000E+20
  9
$PEXTMAX
 10
-1.0000000000000000E+20
 20
-1.0000000000000000E+20
 30
-1.0000000000000000E+20
  9
$PLIMMIN
 10
0.0
 20
0.0
  9
$PLIMMAX
 10
12.0
 20
9.0
  9
$UNITMODE
 70
     0
  9
$VISRETAIN
 70
     1
  9
$PLINEGEN
 70
     0
  9
$PSLTSCALE
 70
     1
  0
ENDSEC
  0
SECTION
  2
TABLES
  0
TABLE
  2
VPORT
 70
     1
  0
VPORT
  2
*ACTIVE
 70
     0
 10
0.0
 20
0.0
 11
1.0
 21
1.0
 12
507.6920468577903875
 22
26.9836890211743601
 13
0.0
 23
0.0
 14
1.0
 24
1.0
 15
0.0
 25
0.0
 16
0.0
 26
0.0
 36
14.15189873613655
 17
2311.2252197265629547
 27
137.8012416672862912
 37
0.0
 40
25.0536353734627788
 41
2.2268786127167619
 42
50.0
 43
0.0
 44
0.0
 50
0.0
 51
0.0
 71
     0
 72
   100
 73
     1
 74
     1
 75
     0
 76
     0
 77
     0
 78
     0
  0
ENDTAB
  0
TABLE
  2
LTYPE
 70
     2
  0
LTYPE
  2
CONTINUOUS
 70
     0
  3
Solid line
 72
    65
 73
     0
 40
0.0
  0
LTYPE
  2
PHANTOM2
 70
     0
  3
___ _ _ ___ _ _ ___ _ _ ___ _ _
 72
    65
 73
     6
 40
1.25
 49
0.625
 49
-0.125
 49
0.125
 49
-0.125
 49
0.125
 49
-0.125
  0
ENDTAB
  0
TABLE
  2
LAYER
 70
     2
  0
LAYER
  2
0
 70
     0
 62
   255
  6
CONTINUOUS
  0
LAYER
  2
DEFPOINTS
 70
     0
 62
     7
  6
CONTINUOUS
  0
ENDTAB
  0
TABLE
  2
STYLE
 70
     1
  0
STYLE
  2
STANDARD
 70
     0
 40
0.0
 41
0.8
 50
0.0
 71
     0
 42
0.2
  3
txt
  4

  0
ENDTAB
  0
TABLE
  2
VIEW
 70
     0
  0
ENDTAB
  0
TABLE
  2
UCS
 70
     0
  0
ENDTAB
  0
TABLE
  2
APPID
 70
    10
  0
APPID
  2
ACAD
 70
     0
  0
APPID
  2
ACAD_MLEADERVER
 70
     0
  0
APPID
  2
ACAD_EXEMPT_FROM_CAD_STANDARDS
 70
     0
  0
APPID
  2
ACAD_NAV_VCDISPLAY
 70
     0
  0
APPID
  2
ACAECLAYERSTANDARD
 70
     0
  0
APPID
  2
ACCMTRANSPARENCY
 70
     0
  0
APPID
  2
ACAD_DSTYLE_DIMJAG
 70
     0
  0
APPID
  2
ACAD_DSTYLE_DIMTALN
 70
     0
  0
APPID
  2
ACDBATTR
 70
     0
  0
APPID
  2
DCO15
 70
     0
  0
ENDTAB
  0
TABLE
  2
DIMSTYLE
 70
     1
  0
DIMSTYLE
  2
STANDARD
 70
     0
  3

  4

  5

  6

  7

 40
1.0
 41
0.1875
 42
0.0625
 43
0.38
 44
0.125
 45
0.0
 46
0.0
 47
0.01
 48
0.01
140
0.15625
141
0.09
142
0.0
143
25.3999999999999986
144
1.0
145
0.0
146
1.0
147
0.09
 71
     1
 72
     0
 73
     1
 74
     1
 75
     0
 76
     0
 77
     0
 78
     4
170
     0
171
     2
172
     0
173
     0
174
     0
175
     0
176
     0
177
     0
178
     0
  0
ENDTAB
  0
ENDSEC
  0
SECTION
  2
BLOCKS
  0
BLOCK
  8
0
  2
$MODEL_SPACE
 70
     0
 10
0.0
 20
0.0
 30
0.0
  3
$MODEL_SPACE
  1

  0
ENDBLK
  5
21
  8
0
  0
BLOCK
 67
     1
  8
0
  2
$PAPER_SPACE
 70
     0
 10
0.0
 20
0.0
 30
0.0
  3
$PAPER_SPACE
  1

  0
ENDBLK
  5
1D
 67
     1
  8
0
  0
ENDSEC
  0
SECTION
  2
ENTITIES
  0
ATTDEF
  5
3930
  8
DEFPOINTS
 10
2814.065854171490173
 20
160.9299260276731047
 30
0.0
 40
0.001
  1
K-EX28098K-4
  3

  2
MODELNUMBER
 70
     0
1001
ACDBATTR
1070
     0
1070
     1
  0
ATTDEF
  5
3931
  8
DEFPOINTS
 10
2814.065854171490173
 20
160.9282593610064112
 30
0.0
 40
0.001
  1
COMPONENTS
  3

  2
TRADENAME
 70
     0
1001
ACDBATTR
1070
     0
1070
     1
  0
ATTDEF
  5
3932
  8
DEFPOINTS
 10
2814.065854171490173
 20
160.9265926943398028
 30
0.0
 40
0.001
  1
BATHROOM SINK FAUCET
  3

  2
PRODUCT
 70
     0
1001
ACDBATTR
1070
     0
1070
     1
  0
LINE
  5
B5A7
  8
0
 10
2813.1209582440519625
 20
160.9265171227656879
 30
0.0
 11
2815.0107220235518071
 21
160.9265171227656879
 31
0.0
  0
LINE
  5
B5A8
  8
0
 10
2813.1292684895529419
 20
161.0787024637658078
 30
0.0
 11
2815.0024117780521919
 21
161.0787024637658078
 31
0.0
  0
LINE
  5
B5A9
  8
0
 10
2814.9004858031521508
 20
161.1115564928657022
 30
0.0
 11
2813.231194464552118
 21
161.1115564928657022
 31
0.0
  0
LINE
  5
B5AA
  8
0
 10
2814.9004858031521508
 20
161.1115564928657022
 30
0.0
 11
2815.0024117780521919
 21
161.0787024637658078
 31
0.0
  0
LINE
  5
B5AB
  8
0
 10
2813.1209582440519625
 20
160.9265171227656879
 30
0.0
 11
2813.1209582440519625
 21
161.0674221786657085
 31
0.0
  0
LINE
  5
B5AC
  8
0
 10
2813.2351314724528493
 20
174.7060446818657056
 30
0.0
 11
2813.2351314724528493
 21
174.0564383826657036
 31
0.0
  0
LINE
  5
B5AD
  8
0
 10
2813.2351314724528493
 20
173.9462021621658039
 30
0.0
 11
2813.2351314724528493
 21
161.1115564928657022
 31
0.0
  0
LINE
  5
B5AE
  8
0
 10
2813.2607220235531713
 20
173.9790674467658107
 30
0.0
 11
2813.2607220235531713
 21
173.9619501936657002
 31
0.0
  0
LINE
  5
B5AF
  8
0
 10
2813.3315881653529686
 20
173.9580131857657079
 30
0.0
 11
2813.3315881653529686
 21
173.9619501936657002
 31
0.0
  0
LINE
  5
B5B0
  8
0
 10
2813.5291640775521955
 20
171.4143630744657969
 30
0.0
 11
2813.5305117380521551
 21
171.3929413703658042
 31
0.0
  0
LINE
  5
B5B1
  8
0
 10
2813.5305117380521551
 20
171.3929413703658042
 30
0.0
 11
2813.530407062951781
 21
171.3962704918658062
 31
0.0
  0
LINE
  5
B5B2
  8
0
 10
2813.529065129052924
 20
171.4176210524657051
 30
0.0
 11
2813.5291640775521955
 21
171.4143630744657969
 31
0.0
  0
LINE
  5
B5B3
  8
0
 10
2813.6130107519529702
 20
171.3675323263657049
 30
0.0
 11
2813.6123474944611189
 21
171.3944050602657114
 31
0.0
  0
LINE
  5
B5B4
  8
0
 10
2813.6130107519529702
 20
171.4029329070658036
 30
0.0
 11
2813.6123474944611189
 21
171.4298056409656965
 31
0.0
  0
LINE
  5
B5B5
  8
0
 10
2813.6130107519529702
 20
171.4383334878658047
 30
0.0
 11
2813.6123474944611189
 21
171.46520622166571
 31
0.0
  0
LINE
  5
B5B6
  8
0
 10
2813.6130107519529702
 20
171.4737340685657045
 30
0.0
 11
2813.6126920144411088
 21
171.4866481321406013
 31
0.0
  0
LINE
  5
B5B7
  8
0
 10
2813.4408401338528165
 20
172.5269108235656859
 30
0.0
 11
2813.4408401338528165
 21
171.2395957937656874
 31
0.0
  0
LINE
  5
B5B8
  8
0
 10
2813.4752889527521802
 20
174.5091942881657019
 30
0.0
 11
2813.4752889527521802
 21
174.7060446818657056
 31
0.0
  0
LINE
  5
B5B9
  8
0
 10
2813.4930054882529475
 20
171.401022442465802
 30
0.0
 11
2813.4930054881529031
 21
171.3755340233657023
 31
0.0
  0
LINE
  5
B5BA
  8
0
 10
2813.5166275353531091
 20
171.3919432772657103
 30
0.0
 11
2813.5166275353531091
 21
171.4174316945658063
 31
0.0
  0
LINE
  5
B5BB
  8
0
 10
2813.5228447669528578
 20
171.4180028932657081
 30
0.0
 11
2813.5228447669528578
 21
171.4446798603686943
 31
0.0
  0
LINE
  5
B5BC
  8
0
 10
2813.529065129052924
 20
171.4459415170657053
 30
0.0
 11
2813.529065129052924
 21
171.4176210524657051
 31
0.0
  0
LINE
  5
B5BD
  8
0
 10
2813.530407062951781
 20
171.4245909564658064
 30
0.0
 11
2813.530407062951781
 21
171.3962704918658062
 31
0.0
  0
LINE
  5
B5BE
  8
0
 10
2813.5441865904517726
 20
171.3944050602657114
 30
0.0
 11
2813.5441865904517726
 21
171.4245909564658064
 31
0.0
  0
LINE
  5
B5BF
  8
0
 10
2813.6327692676518382
 20
171.3590044795656979
 30
0.0
 11
2813.6327692676518382
 21
171.3325494465657073
 31
0.0
  0
LINE
  5
B5C0
  8
0
 10
2813.6233511237601306
 20
171.4879512121443952
 30
0.0
 11
2813.6230002243528361
 21
171.4737340685657045
 31
0.0
  0
LINE
  5
B5C1
  8
0
 10
2813.6236634818437778
 20
171.46520622166571
 30
0.0
 11
2813.6230002243528361
 21
171.4383334878658047
 31
0.0
  0
LINE
  5
B5C2
  8
0
 10
2813.6236634818437778
 20
171.4298056409656965
 30
0.0
 11
2813.6230002243528361
 21
171.4029329070658036
 31
0.0
  0
LINE
  5
B5C3
  8
0
 10
2813.6236622249521133
 20
171.3943541356657079
 30
0.0
 11
2813.6230002243528361
 21
171.3675323263657049
 31
0.0
  0
LINE
  5
B5C4
  8
0
 10
2813.740304724264206
 20
171.3944050602657114
 30
0.0
 11
2813.7409629861522262
 21
171.3682082447656967
 31
0.0
  0
LINE
  5
B5C5
  8
0
 10
2813.8042811022642127
 20
171.3944050602657114
 30
0.0
 11
2813.8049393641517781
 21
171.3682082447656967
 31
0.0
  0
LINE
  5
B5C6
  8
0
 10
2813.8682587801517911
 20
171.3943533286656873
 30
0.0
 11
2813.8689157420521951
 21
171.3682082447656967
 31
0.0
  0
LINE
  5
B5C7
  8
0
 10
2813.6769871299520673
 20
171.3675323263657049
 30
0.0
 11
2813.6763238723601717
 21
171.3944050602657114
 31
0.0
  0
LINE
  5
B5C8
  8
0
 10
2813.6769871299520673
 20
171.4029329070658036
 30
0.0
 11
2813.6763251292518362
 21
171.4297547163658066
 31
0.0
  0
LINE
  5
B5C9
  8
0
 10
2813.6769871299520673
 20
171.4383334878658047
 30
0.0
 11
2813.6763238723601717
 21
171.46520622166571
 31
0.0
  0
LINE
  5
B5CA
  8
0
 10
2813.6769871299520673
 20
171.4737340685657045
 30
0.0
 11
2813.6766273256521345
 21
171.4883120017657063
 31
0.0
  0
LINE
  5
B5CB
  8
0
 10
2813.7409635078529391
 20
171.4029329070658036
 30
0.0
 11
2813.7403002503610878
 21
171.4298056409656965
 31
0.0
  0
LINE
  5
B5CC
  8
0
 10
2813.7409635078529391
 20
171.4383334878658047
 30
0.0
 11
2813.7403002503610878
 21
171.46520622166571
 31
0.0
  0
LINE
  5
B5CD
  8
0
 10
2813.7409635078529391
 20
171.4737340685657045
 30
0.0
 11
2813.7406037036530506
 21
171.4883120017657063
 31
0.0
  0
LINE
  5
B5CE
  8
0
 10
2813.8049398858529457
 20
171.4029329070658036
 30
0.0
 11
2813.804276628360185
 21
171.4298056409656965
 31
0.0
  0
LINE
  5
B5CF
  8
0
 10
2813.8049398858529457
 20
171.4383334878658047
 30
0.0
 11
2813.804276628360185
 21
171.46520622166571
 31
0.0
  0
LINE
  5
B5D0
  8
0
 10
2813.8049398858529457
 20
171.4737340685657045
 30
0.0
 11
2813.8045800815521034
 21
171.4883120017657063
 31
0.0
  0
LINE
  5
B5D1
  8
0
 10
2813.868916263752908
 20
171.4029329070658036
 30
0.0
 11
2813.8682530062601472
 21
171.4298056409656965
 31
0.0
  0
LINE
  5
B5D2
  8
0
 10
2813.868916263752908
 20
171.4383334878658047
 30
0.0
 11
2813.8682530062601472
 21
171.46520622166571
 31
0.0
  0
LINE
  5
B5D3
  8
0
 10
2813.868916263752908
 20
171.4737340685657045
 30
0.0
 11
2813.8685564595530195
 21
171.4883120017657063
 31
0.0
  0
LINE
  5
B5D4
  8
0
 10
2813.6736401253529039
 20
171.3590044795656979
 30
0.0
 11
2813.6736401253529039
 21
171.3325494465657073
 31
0.0
  0
LINE
  5
B5D5
  8
0
 10
2813.6769871299520673
 20
171.3497012555658046
 30
0.0
 11
2813.6769871299520673
 21
171.3590044795656979
 31
0.0
  0
LINE
  5
B5D6
  8
0
 10
2813.6872783206531494
 20
171.3189028839657055
 30
0.0
 11
2813.6872783206531494
 21
171.3226372839656904
 31
0.0
  0
LINE
  5
B5D7
  8
0
 10
2813.6918243857521702
 20
171.3944050602657114
 30
0.0
 11
2813.6918243857521702
 21
171.3552058182656879
 31
0.0
  0
LINE
  5
B5D8
  8
0
 10
2813.6912985492522239
 20
171.3675323263657049
 30
0.0
 11
2813.6916814811529548
 21
171.3944050602657114
 31
0.0
  0
LINE
  5
B5D9
  8
0
 10
2813.6873364065518217
 20
171.4883120017657063
 30
0.0
 11
2813.6869766022518888
 21
171.4737340685657045
 31
0.0
  0
LINE
  5
B5DA
  8
0
 10
2813.6876398597451043
 20
171.46520622166571
 30
0.0
 11
2813.6869766022518888
 21
171.4383334878658047
 31
0.0
  0
LINE
  5
B5DB
  8
0
 10
2813.6876386028529851
 20
171.4297547163658066
 30
0.0
 11
2813.6869766022518888
 21
171.4029329070658036
 31
0.0
  0
LINE
  5
B5DC
  8
0
 10
2813.6876398597451043
 20
171.3944050602657114
 30
0.0
 11
2813.6869766022518888
 21
171.3675323263657049
 31
0.0
  0
LINE
  5
B5DD
  8
0
 10
2813.751312784451784
 20
171.4883120017657063
 30
0.0
 11
2813.750952980252805
 21
171.4737340685657045
 31
0.0
  0
LINE
  5
B5DE
  8
0
 10
2813.7516162377442015
 20
171.46520622166571
 30
0.0
 11
2813.750952980252805
 21
171.4383334878658047
 31
0.0
  0
LINE
  5
B5DF
  8
0
 10
2813.7516162377442015
 20
171.4298056409656965
 30
0.0
 11
2813.750952980252805
 21
171.4029329070658036
 31
0.0
  0
LINE
  5
B5E0
  8
0
 10
2813.8152891624517906
 20
171.4883120017657063
 30
0.0
 11
2813.8149293581518577
 21
171.4737340685657045
 31
0.0
  0
LINE
  5
B5E1
  8
0
 10
2813.8155926156450732
 20
171.46520622166571
 30
0.0
 11
2813.8149293581518577
 21
171.4383334878658047
 31
0.0
  0
LINE
  5
B5E2
  8
0
 10
2813.8155926156450732
 20
171.4298056409656965
 30
0.0
 11
2813.8149293581518577
 21
171.4029329070658036
 31
0.0
  0
LINE
  5
B5E3
  8
0
 10
2813.7509535019521536
 20
171.3682082447656967
 30
0.0
 11
2813.7516117637410389
 21
171.3944050602657114
 31
0.0
  0
LINE
  5
B5E4
  8
0
 10
2813.8149298798521158
 20
171.3682082447656967
 30
0.0
 11
2813.8155868418521095
 21
171.3943533286656873
 31
0.0
  0
LINE
  5
B5E5
  8
0
 10
2813.6736401253529039
 20
171.3325494465657073
 30
0.0
 11
2813.6918243857521702
 21
171.3552058182656879
 31
0.0
  0
LINE
  5
B5E6
  8
0
 10
2813.7054625811520054
 20
171.338213539565686
 30
0.0
 11
2813.6929609020530734
 21
171.3226372839656904
 31
0.0
  0
LINE
  5
B5E7
  8
0
 10
2814.6837103589919025
 20
171.2325156776657025
 30
0.0
 11
2813.4479699086127766
 21
171.2325156776657025
 31
0.0
  0
LINE
  5
B5E8
  8
0
 10
2813.9322351580522081
 20
171.3943533286656873
 30
0.0
 11
2813.9328921200522018
 21
171.3682082447656967
 31
0.0
  0
LINE
  5
B5E9
  8
0
 10
2813.9962102361641882
 20
171.3944050602657114
 30
0.0
 11
2813.996868497952164
 21
171.3682082447656967
 31
0.0
  0
LINE
  5
B5EA
  8
0
 10
2814.0601866140641505
 20
171.3944050602657114
 30
0.0
 11
2814.0608448759521707
 21
171.3682082447656967
 31
0.0
  0
LINE
  5
B5EB
  8
0
 10
2813.9328926417529146
 20
171.4029329070658036
 30
0.0
 11
2813.9322293842601539
 21
171.4298056409656965
 31
0.0
  0
LINE
  5
B5EC
  8
0
 10
2813.9328926417529146
 20
171.4383334878658047
 30
0.0
 11
2813.9322293842601539
 21
171.46520622166571
 31
0.0
  0
LINE
  5
B5ED
  8
0
 10
2813.9328926417529146
 20
171.4737340685657045
 30
0.0
 11
2813.9325328374529818
 21
171.4883120017657063
 31
0.0
  0
LINE
  5
B5EE
  8
0
 10
2813.9968690196528769
 20
171.4029329070658036
 30
0.0
 11
2813.9962057621601161
 21
171.4298056409656965
 31
0.0
  0
LINE
  5
B5EF
  8
0
 10
2813.9968690196528769
 20
171.4383334878658047
 30
0.0
 11
2813.9962057621601161
 21
171.46520622166571
 31
0.0
  0
LINE
  5
B5F0
  8
0
 10
2813.9968690196528769
 20
171.4737340685657045
 30
0.0
 11
2813.9965092154520789
 21
171.4883120017657063
 31
0.0
  0
LINE
  5
B5F1
  8
0
 10
2814.0608453976528835
 20
171.4029329070658036
 30
0.0
 11
2814.0601821401610323
 21
171.4298056409656965
 31
0.0
  0
LINE
  5
B5F2
  8
0
 10
2814.0608453976528835
 20
171.4383334878658047
 30
0.0
 11
2814.0601821401610323
 21
171.46520622166571
 31
0.0
  0
LINE
  5
B5F3
  8
0
 10
2814.0608453976528835
 20
171.4737340685657045
 30
0.0
 11
2814.0604855933529507
 21
171.4883120017657063
 31
0.0
  0
LINE
  5
B5F4
  8
0
 10
2814.0097377716019764
 20
171.338213539565686
 30
0.0
 11
2814.0097377716019764
 21
171.3069818829658004
 31
0.0
  0
LINE
  5
B5F5
  8
0
 10
2814.0294228110028598
 20
171.3069818829658004
 30
0.0
 11
2814.0294228110028598
 21
171.338213539565686
 31
0.0
  0
LINE
  5
B5F6
  8
0
 10
2813.8792655403522076
 20
171.4883120017657063
 30
0.0
 11
2813.8789057361527739
 21
171.4737340685657045
 31
0.0
  0
LINE
  5
B5F7
  8
0
 10
2813.8795689936450799
 20
171.46520622166571
 30
0.0
 11
2813.8789057361527739
 21
171.4383334878658047
 31
0.0
  0
LINE
  5
B5F8
  8
0
 10
2813.8795689936450799
 20
171.4298056409656965
 30
0.0
 11
2813.8789057361527739
 21
171.4029329070658036
 31
0.0
  0
LINE
  5
B5F9
  8
0
 10
2813.9432419183522143
 20
171.4883120017657063
 30
0.0
 11
2813.9428821140518266
 21
171.4737340685657045
 31
0.0
  0
LINE
  5
B5FA
  8
0
 10
2813.9435453715441326
 20
171.46520622166571
 30
0.0
 11
2813.9428821140518266
 21
171.4383334878658047
 31
0.0
  0
LINE
  5
B5FB
  8
0
 10
2813.9435453715441326
 20
171.4298056409656965
 30
0.0
 11
2813.9428821140518266
 21
171.4029329070658036
 31
0.0
  0
LINE
  5
B5FC
  8
0
 10
2814.0072182962521765
 20
171.4883120017657063
 30
0.0
 11
2814.0068584920531976
 21
171.4737340685657045
 31
0.0
  0
LINE
  5
B5FD
  8
0
 10
2814.0075217495450488
 20
171.46520622166571
 30
0.0
 11
2814.0068584920531976
 21
171.4383334878658047
 31
0.0
  0
LINE
  5
B5FE
  8
0
 10
2814.0075217495450488
 20
171.4298056409656965
 30
0.0
 11
2814.0068584920531976
 21
171.4029329070658036
 31
0.0
  0
LINE
  5
B5FF
  8
0
 10
2814.0711946742521832
 20
171.4883120017657063
 30
0.0
 11
2814.0708348699517956
 21
171.4737340685657045
 31
0.0
  0
LINE
  5
B600
  8
0
 10
2814.0714968705519823
 20
171.4651552970657065
 30
0.0
 11
2814.0708348699517956
 21
171.4383334878658047
 31
0.0
  0
LINE
  5
B601
  8
0
 10
2814.0714981274441016
 20
171.4298056409656965
 30
0.0
 11
2814.0708348699517956
 21
171.4029329070658036
 31
0.0
  0
LINE
  5
B602
  8
0
 10
2813.8789062578521225
 20
171.3682082447656967
 30
0.0
 11
2813.8795632197529812
 21
171.3943533286656873
 31
0.0
  0
LINE
  5
B603
  8
0
 10
2813.9428826357520848
 20
171.3682082447656967
 30
0.0
 11
2813.9435395977520784
 21
171.3943533286656873
 31
0.0
  0
LINE
  5
B604
  8
0
 10
2814.0068590137520914
 20
171.3682082447656967
 30
0.0
 11
2814.0075159756529501
 21
171.3943533286656873
 31
0.0
  0
LINE
  5
B605
  8
0
 10
2814.0708353916529632
 20
171.3682082447656967
 30
0.0
 11
2814.0714936535409834
 21
171.3944050602657114
 31
0.0
  0
LINE
  5
B606
  8
0
 10
2813.6347377709521425
 20
171.2735803513656947
 30
0.0
 11
2814.4969424966520819
 21
171.2735803513656947
 31
0.0
  0
LINE
  5
B607
  8
0
 10
2813.6347377719521319
 20
171.3069818829658004
 30
0.0
 11
2814.4969424951518704
 21
171.3069818829658004
 31
0.0
  0
LINE
  5
B608
  8
0
 10
2813.6327692676518382
 20
171.3189028839657055
 30
0.0
 11
2813.6872783206531494
 21
171.3189028839657055
 31
0.0
  0
LINE
  5
B609
  8
0
 10
2813.6327692676518382
 20
171.3226372839656904
 30
0.0
 11
2813.6929609020530734
 21
171.3226372839656904
 31
0.0
  0
LINE
  5
B60A
  8
0
 10
2813.6327692676518382
 20
171.3325494465657073
 30
0.0
 11
2813.6736401253529039
 21
171.3325494465657073
 31
0.0
  0
LINE
  5
B60B
  8
0
 10
2814.1022574566018193
 20
171.338213539565686
 30
0.0
 11
2814.0294228110028598
 21
171.338213539565686
 31
0.0
  0
LINE
  5
B60C
  8
0
 10
2814.0097377716019764
 20
171.338213539565686
 30
0.0
 11
2813.7054625811520054
 21
171.338213539565686
 31
0.0
  0
LINE
  5
B60D
  8
0
 10
2813.6918243857521702
 20
171.3552058182656879
 30
0.0
 11
2814.4398558818520542
 21
171.3552058182656879
 31
0.0
  0
LINE
  5
B60E
  8
0
 10
2813.686340151953118
 20
171.3590044795656979
 30
0.0
 11
2813.6855753259528683
 21
171.3590044795656979
 31
0.0
  0
LINE
  5
B60F
  8
0
 10
2813.6783884062519974
 20
171.3590044795656979
 30
0.0
 11
2813.6215989479519521
 21
171.3590044795656979
 31
0.0
  0
LINE
  5
B610
  8
0
 10
2813.6144120283529446
 20
171.3590044795656979
 30
0.0
 11
2813.5743462374521187
 21
171.3590044795656979
 31
0.0
  0
LINE
  5
B611
  8
0
 10
2813.5658126139528576
 20
171.3675323263657049
 30
0.0
 11
2813.6130107519529702
 21
171.3675323263657049
 31
0.0
  0
LINE
  5
B612
  8
0
 10
2813.6230002243528361
 20
171.3675323263657049
 30
0.0
 11
2813.6769871298520229
 21
171.3675323263657049
 31
0.0
  0
LINE
  5
B613
  8
0
 10
2814.1257749758760838
 20
171.3944050602657114
 30
0.0
 11
2814.069433593652775
 21
171.3944050602657114
 31
0.0
  0
LINE
  5
B614
  8
0
 10
2814.0622466739528136
 20
171.3944050602657114
 30
0.0
 11
2814.0054572156518589
 21
171.3944050602657114
 31
0.0
  0
LINE
  5
B615
  8
0
 10
2813.9982702960519418
 20
171.3944050602657114
 30
0.0
 11
2813.9414808377528061
 21
171.3944050602657114
 31
0.0
  0
LINE
  5
B616
  8
0
 10
2813.9342939180519352
 20
171.3944050602657114
 30
0.0
 11
2813.87750445975189
 21
171.3944050602657114
 31
0.0
  0
LINE
  5
B617
  8
0
 10
2813.8703175401519729
 20
171.3944050602657114
 30
0.0
 11
2813.8135280818528372
 21
171.3944050602657114
 31
0.0
  0
LINE
  5
B618
  8
0
 10
2813.8063411621519663
 20
171.3944050602657114
 30
0.0
 11
2813.749551703851921
 21
171.3944050602657114
 31
0.0
  0
LINE
  5
B619
  8
0
 10
2813.742364784252004
 20
171.3944050602657114
 30
0.0
 11
2813.6855753259528683
 21
171.3944050602657114
 31
0.0
  0
LINE
  5
B61A
  8
0
 10
2813.6783884062519974
 20
171.3944050602657114
 30
0.0
 11
2813.6215989479519521
 21
171.3944050602657114
 31
0.0
  0
LINE
  5
B61B
  8
0
 10
2813.6144120283529446
 20
171.3944050602657114
 30
0.0
 11
2813.5441865904517726
 21
171.3944050602657114
 31
0.0
  0
LINE
  5
B61C
  8
0
 10
2813.5441865904517726
 20
171.4029329070658036
 30
0.0
 11
2813.6130107519529702
 21
171.4029329070658036
 31
0.0
  0
LINE
  5
B61D
  8
0
 10
2813.6230002243528361
 20
171.4029329070658036
 30
0.0
 11
2813.6769871298520229
 21
171.4029329070658036
 31
0.0
  0
LINE
  5
B61E
  8
0
 10
2813.6869766022518888
 20
171.4029329070658036
 30
0.0
 11
2813.7409635078529391
 21
171.4029329070658036
 31
0.0
  0
LINE
  5
B61F
  8
0
 10
2813.750952980252805
 20
171.4029329070658036
 30
0.0
 11
2813.8049398857519918
 21
171.4029329070658036
 31
0.0
  0
LINE
  5
B620
  8
0
 10
2813.8149293581518577
 20
171.4029329070658036
 30
0.0
 11
2813.868916263752908
 21
171.4029329070658036
 31
0.0
  0
LINE
  5
B621
  8
0
 10
2813.8789057361527739
 20
171.4029329070658036
 30
0.0
 11
2813.9328926417529146
 21
171.4029329070658036
 31
0.0
  0
LINE
  5
B622
  8
0
 10
2813.9428821140518266
 20
171.4029329070658036
 30
0.0
 11
2813.9968690196528769
 21
171.4029329070658036
 31
0.0
  0
LINE
  5
B623
  8
0
 10
2814.0068584920531976
 20
171.4029329070658036
 30
0.0
 11
2814.0608453976528835
 21
171.4029329070658036
 31
0.0
  0
LINE
  5
B624
  8
0
 10
2814.0708348699517956
 20
171.4029329070658036
 30
0.0
 11
2814.1243875074192147
 21
171.4029329070658036
 31
0.0
  0
LINE
  5
B625
  8
0
 10
2814.1257749751598567
 20
171.4298056409656965
 30
0.0
 11
2814.069433593652775
 21
171.4298056409656965
 31
0.0
  0
LINE
  5
B626
  8
0
 10
2814.0622466739528136
 20
171.4298056409656965
 30
0.0
 11
2814.0054572156518589
 21
171.4298056409656965
 31
0.0
  0
LINE
  5
B627
  8
0
 10
2813.9982702960519418
 20
171.4298056409656965
 30
0.0
 11
2813.9414808377528061
 21
171.4298056409656965
 31
0.0
  0
LINE
  5
B628
  8
0
 10
2813.9342939180519352
 20
171.4298056409656965
 30
0.0
 11
2813.87750445975189
 21
171.4298056409656965
 31
0.0
  0
LINE
  5
B629
  8
0
 10
2813.8703175401519729
 20
171.4298056409656965
 30
0.0
 11
2813.8135280818528372
 21
171.4298056409656965
 31
0.0
  0
LINE
  5
B62A
  8
0
 10
2813.8063411621519663
 20
171.4298056409656965
 30
0.0
 11
2813.749551703851921
 21
171.4298056409656965
 31
0.0
  0
LINE
  5
B62B
  8
0
 10
2813.742364784252004
 20
171.4298056409656965
 30
0.0
 11
2813.6855753259528683
 21
171.4298056409656965
 31
0.0
  0
LINE
  5
B62C
  8
0
 10
2813.6783884062519974
 20
171.4298056409656965
 30
0.0
 11
2813.6215989479519521
 21
171.4298056409656965
 31
0.0
  0
LINE
  5
B62D
  8
0
 10
2813.6144120283529446
 20
171.4298056409656965
 30
0.0
 11
2813.5444866318612185
 21
171.4298056409656965
 31
0.0
  0
LINE
  5
B62E
  8
0
 10
2813.5462929179680032
 20
171.4383334878658047
 30
0.0
 11
2813.6130107519529702
 21
171.4383334878658047
 31
0.0
  0
LINE
  5
B62F
  8
0
 10
2813.6230002243528361
 20
171.4383334878658047
 30
0.0
 11
2813.6769871298520229
 21
171.4383334878658047
 31
0.0
  0
LINE
  5
B630
  8
0
 10
2813.6869766022518888
 20
171.4383334878658047
 30
0.0
 11
2813.7409635078529391
 21
171.4383334878658047
 31
0.0
  0
LINE
  5
B631
  8
0
 10
2813.750952980252805
 20
171.4383334878658047
 30
0.0
 11
2813.8049398857519918
 21
171.4383334878658047
 31
0.0
  0
LINE
  5
B632
  8
0
 10
2813.8149293581518577
 20
171.4383334878658047
 30
0.0
 11
2813.868916263752908
 21
171.4383334878658047
 31
0.0
  0
LINE
  5
B633
  8
0
 10
2813.8789057361527739
 20
171.4383334878658047
 30
0.0
 11
2813.9328926417529146
 21
171.4383334878658047
 31
0.0
  0
LINE
  5
B634
  8
0
 10
2813.9428821140518266
 20
171.4383334878658047
 30
0.0
 11
2813.9968690196528769
 21
171.4383334878658047
 31
0.0
  0
LINE
  5
B635
  8
0
 10
2814.0068584920531976
 20
171.4383334878658047
 30
0.0
 11
2814.0608453976528835
 21
171.4383334878658047
 31
0.0
  0
LINE
  5
B636
  8
0
 10
2814.0708348699517956
 20
171.4383334878658047
 30
0.0
 11
2814.1243875074192147
 21
171.4383334878658047
 31
0.0
  0
LINE
  5
B637
  8
0
 10
2814.1257749751598567
 20
171.46520622166571
 30
0.0
 11
2814.069433593652775
 21
171.46520622166571
 31
0.0
  0
LINE
  5
B638
  8
0
 10
2814.0622466739528136
 20
171.46520622166571
 30
0.0
 11
2814.0054572156518589
 21
171.46520622166571
 31
0.0
  0
LINE
  5
B639
  8
0
 10
2813.9982702960519418
 20
171.46520622166571
 30
0.0
 11
2813.9414808377528061
 21
171.46520622166571
 31
0.0
  0
LINE
  5
B63A
  8
0
 10
2813.9342939180519352
 20
171.46520622166571
 30
0.0
 11
2813.87750445975189
 21
171.46520622166571
 31
0.0
  0
LINE
  5
B63B
  8
0
 10
2813.8703175401519729
 20
171.46520622166571
 30
0.0
 11
2813.8135280818528372
 21
171.46520622166571
 31
0.0
  0
LINE
  5
B63C
  8
0
 10
2813.8063411621519663
 20
171.46520622166571
 30
0.0
 11
2813.749551703851921
 21
171.46520622166571
 31
0.0
  0
LINE
  5
B63D
  8
0
 10
2813.742364784252004
 20
171.46520622166571
 30
0.0
 11
2813.6855753259528683
 21
171.46520622166571
 31
0.0
  0
LINE
  5
B63E
  8
0
 10
2813.6783884062519974
 20
171.46520622166571
 30
0.0
 11
2813.6215989479519521
 21
171.46520622166571
 31
0.0
  0
LINE
  5
B63F
  8
0
 10
2813.6144120283529446
 20
171.46520622166571
 30
0.0
 11
2813.564437356723829
 21
171.46520622166571
 31
0.0
  0
LINE
  5
B640
  8
0
 10
2813.5764534295699377
 20
171.4737340685657045
 30
0.0
 11
2813.6130107519529702
 21
171.4737340685657045
 31
0.0
  0
LINE
  5
B641
  8
0
 10
2813.6230002243528361
 20
171.4737340685657045
 30
0.0
 11
2813.6769871298520229
 21
171.4737340685657045
 31
0.0
  0
LINE
  5
B642
  8
0
 10
2813.6869766022518888
 20
171.4737340685657045
 30
0.0
 11
2813.7409635078529391
 21
171.4737340685657045
 31
0.0
  0
LINE
  5
B643
  8
0
 10
2813.750952980252805
 20
171.4737340685657045
 30
0.0
 11
2813.8049398857519918
 21
171.4737340685657045
 31
0.0
  0
LINE
  5
B644
  8
0
 10
2813.8149293581518577
 20
171.4737340685657045
 30
0.0
 11
2813.868916263752908
 21
171.4737340685657045
 31
0.0
  0
LINE
  5
B645
  8
0
 10
2813.8789057361527739
 20
171.4737340685657045
 30
0.0
 11
2813.9328926417529146
 21
171.4737340685657045
 31
0.0
  0
LINE
  5
B646
  8
0
 10
2813.9428821140518266
 20
171.4737340685657045
 30
0.0
 11
2813.9968690196528769
 21
171.4737340685657045
 31
0.0
  0
LINE
  5
B647
  8
0
 10
2814.0068584920531976
 20
171.4737340685657045
 30
0.0
 11
2814.0608453976528835
 21
171.4737340685657045
 31
0.0
  0
LINE
  5
B648
  8
0
 10
2814.0708348699517956
 20
171.4737340685657045
 30
0.0
 11
2814.1243875074192147
 21
171.4737340685657045
 31
0.0
  0
LINE
  5
B649
  8
0
 10
2814.4989109999528409
 20
171.4883120017657063
 30
0.0
 11
2813.6327692676518382
 21
171.4883120017657063
 31
0.0
  0
LINE
  5
B64A
  8
0
 10
2814.1022574566018193
 20
171.3069818829658004
 30
0.0
 11
2814.1022574566018193
 21
171.338213539565686
 31
0.0
  0
LINE
  5
B64B
  8
0
 10
2814.4989109999528409
 20
171.4982241643656948
 30
0.0
 11
2813.6327692676518382
 21
171.4982241643656948
 31
0.0
  0
LINE
  5
B64C
  8
0
 10
2814.4969424967521263
 20
171.5029761143657083
 30
0.0
 11
2813.6347377710521869
 21
171.5029761143657083
 31
0.0
  0
LINE
  5
B64D
  8
0
 10
2813.4489676344787767
 20
171.5440407880657858
 30
0.0
 11
2814.6827126331259024
 21
171.5440407880657006
 31
0.0
  0
LINE
  5
B64E
  8
0
 10
2814.6563913149520886
 20
174.7060446818657056
 30
0.0
 11
2814.6563913149520886
 21
174.5091942881657019
 31
0.0
  0
LINE
  5
B64F
  8
0
 10
2814.6908401338528165
 20
171.2395957937656874
 30
0.0
 11
2814.6908401338528165
 21
172.5269108235656859
 31
0.0
  0
LINE
  5
B650
  8
0
 10
2814.8000921023522096
 20
173.9580131857657079
 30
0.0
 11
2814.8000921023522096
 21
173.9619501936657002
 31
0.0
  0
LINE
  5
B651
  8
0
 10
2814.8709582440519625
 20
173.9790674467658107
 30
0.0
 11
2814.8709582440519625
 21
173.9619501936657002
 31
0.0
  0
LINE
  5
B652
  8
0
 10
2814.8965487952518743
 20
174.7060446818657056
 30
0.0
 11
2814.8965487952518743
 21
174.0564383826657036
 31
0.0
  0
LINE
  5
B653
  8
0
 10
2814.8965487952518743
 20
173.9462021621658039
 30
0.0
 11
2814.8965487952518743
 21
161.1115564928657022
 31
0.0
  0
LINE
  5
B654
  8
0
 10
2815.0107220235518071
 20
160.9265171227656879
 30
0.0
 11
2815.0107220235518071
 21
161.0674221786657085
 31
0.0
  0
LINE
  5
B655
  8
0
 10
2813.4506826534520769
 20
172.5367533432657012
 30
0.0
 11
2814.6809976141521474
 21
172.5367533432657012
 31
0.0
  0
LINE
  5
B656
  8
0
 10
2814.8847377715528637
 20
173.9580131857657079
 30
0.0
 11
2813.2469424961532241
 21
173.9580131857657079
 31
0.0
  0
LINE
  5
B657
  8
0
 10
2813.2607220235531713
 20
173.9619501936657002
 30
0.0
 11
2814.8709582440519625
 21
173.9619501936657002
 31
0.0
  0
LINE
  5
B658
  8
0
 10
2814.8709582440519625
 20
173.9790674467658107
 30
0.0
 11
2813.2607220235531713
 21
173.9790674467658107
 31
0.0
  0
LINE
  5
B659
  8
0
 10
2813.231194464552118
 20
161.1115564928657022
 30
0.0
 11
2813.1292684895529419
 21
161.0787024637658078
 31
0.0
  0
LINE
  5
B65A
  8
0
 10
2813.2351314724528493
 20
174.0564383826657036
 30
0.0
 11
2814.8965487952518743
 21
174.0564383826657036
 31
0.0
  0
LINE
  5
B65B
  8
0
 10
2814.6367062755521147
 20
174.4895092487658133
 30
0.0
 11
2813.4949739920521097
 21
174.4895092487658133
 31
0.0
  0
LINE
  5
B65C
  8
0
 10
2813.2548223325029539
 20
174.7257297211658056
 30
0.0
 11
2814.8768579351021799
 21
174.7257297211658056
 31
0.0
  0
ARC
  5
B65D
  8
0
 10
2813.5864854900519276
 20
171.4198749411656877
 30
0.0
 40
0.0639249452
 50
200.4528096563051918
 51
209.9277444387840035
  0
ARC
  5
B65E
  8
0
 10
2812.6670547253152108
 20
171.2932829829651098
 30
0.0
 40
0.8570469728985525
 50
6.6382710813148771
 51
7.5723855712249462
  0
ARC
  5
B65F
  8
0
 10
2813.5796108019521853
 20
171.4180128105656991
 30
0.0
 40
0.0567660359
 50
180.0100098258996013
 51
184.8428800198001909
  0
ARC
  5
B660
  8
0
 10
2813.5833367418531452
 20
171.4458951622657992
 30
0.0
 40
0.0542716326
 50
168.4160118097416898
 51
179.9510621741997056
  0
ARC
  5
B661
  8
0
 10
2813.589972707753077
 20
171.4245724988657003
 30
0.0
 40
0.0457861210004235
 50
173.4370146719535057
 51
179.9769025794637116
  0
ARC
  5
B662
  8
0
 10
2813.6907467629530402
 20
171.3727010509657021
 30
0.0
 40
0.0149987485
 50
227.6535261090029962
 51
234.2411358432983945
  0
ARC
  5
B663
  8
0
 10
2813.1327692676532024
 20
161.0674221786657085
 30
0.0
 40
0.0118110236
 50
107.2414593988897025
 51
180.0
  0
ARC
  5
B664
  8
0
 10
2814.0658174671011693
 20
172.9383577386799118
 30
0.0
 40
1.3157717772194331
 50
121.8152161866520942
 51
127.725619216091701
  0
ARC
  5
B665
  8
0
 10
2813.4949739920521097
 20
174.5091942881657019
 30
0.0
 40
0.0196850394
 50
179.999999999200412
 51
270.0
  0
ARC
  5
B666
  8
0
 10
2813.4949739920521097
 20
174.7060446818657056
 30
0.0
 40
0.0196850394
 50
90.0
 51
180.000000000400604
  0
ARC
  5
B667
  8
0
 10
2813.2548165127041102
 20
174.7060446817743866
 30
0.0
 40
0.0196850402516721
 50
89.983060746507249
 51
179.9999997340441098
  0
ARC
  5
B668
  8
0
 10
2813.2469424960518154
 20
173.9462021621658039
 30
0.0
 40
0.0118110236
 50
90.0
 51
180.0
  0
ARC
  5
B669
  8
0
 10
2813.4506826534520769
 20
172.5269108235656859
 30
0.0
 40
0.0098425197
 50
90.0
 51
180.0
  0
ARC
  5
B66A
  8
0
 10
2814.9989109999519314
 20
161.0674221786657085
 30
0.0
 40
0.0118110236
 50
0.0
 51
72.7585406011102691
  0
ARC
  5
B66B
  8
0
 10
2814.0658401338528165
 20
172.9383281463657056
 30
0.0
 40
1.315809052499999
 50
52.2743885658930978
 51
58.1846118069679719
  0
ARC
  5
B66C
  8
0
 10
2814.6367062755521147
 20
174.5091942881657019
 30
0.0
 40
0.0196850394
 50
270.0
 51
0.0
  0
ARC
  5
B66D
  8
0
 10
2814.6367062755521147
 20
174.7060446818657056
 30
0.0
 40
0.0196850394
 50
0.0
 51
90.0
  0
ARC
  5
B66E
  8
0
 10
2814.8768637545540514
 20
174.7060446813281942
 30
0.0
 40
0.0196850406977367
 50
0.0000015645813087
 51
90.0169382458375935
  0
ARC
  5
B66F
  8
0
 10
2814.8847377716529081
 20
173.9462021621658039
 30
0.0
 40
0.0118110236
 50
0.0
 51
90.0
  0
ARC
  5
B670
  8
0
 10
2814.6809976141521474
 20
172.5269108235656859
 30
0.0
 40
0.0098425197
 50
0.0
 51
90.0
  0
LINE
  5
B671
  8
0
 10
2813.526195764752174
 20
171.4480254896658096
 30
0.0
 11
2813.5244222608262135
 21
171.4478151208776922
 31
0.0
  0
LINE
  5
B672
  8
0
 10
2813.6819818660519559
 20
171.3605298127656908
 30
0.0
 11
2813.6833073413531565
 21
171.3616129086657054
 31
0.0
  0
ARC
  5
B673
  8
0
 10
2813.6326878328050043
 20
171.3673305929970923
 30
0.0
 40
0.1209814361762993
 50
89.9614331456910321
 51
102.9038323104807944
  0
ARC
  5
B674
  8
0
 10
2813.6270481533611019
 20
171.3882481101690871
 30
0.0
 40
0.099336172457752
 50
102.4273695817085041
 51
124.2703154438180064
  0
ARC
  5
B675
  8
0
 10
2813.6089303343310348
 20
171.4142478390340045
 30
0.0
 40
0.067648960205214
 50
123.9891310056506057
 51
145.4647733901499862
  0
ARC
  5
B676
  8
0
 10
2813.594948166794893
 20
171.4235725848394054
 30
0.0
 40
0.0508450341383223
 50
145.1885182958727967
 51
172.9584390421537137
  0
ARC
  5
B677
  8
0
 10
2813.57650469957116
 20
171.3696980292669139
 30
0.0
 40
0.0109092146338016
 50
191.4504560665110944
 51
258.5883425260100807
  0
ARC
  5
B678
  8
0
 10
2877.2349120615749598
 20
172.7286414707392908
 30
0.0
 40
63.6836465866797212
 50
181.2004920100731056
 51
181.2246746567305138
  0
ARC
  5
B679
  8
0
 10
2813.6269214680978621
 20
171.3729013180144136
 30
0.0
 40
0.0152495521412858
 50
211.7361704899047936
 51
234.2202070367264071
  0
ARC
  5
B67A
  8
0
 10
2813.6188387288070771
 20
171.3681073413868035
 30
0.0
 40
0.005856274967565
 50
185.6348280871052054
 51
213.4428226156497885
  0
ARC
  5
B67B
  8
0
 10
2813.6090239690811359
 20
171.3729478502584129
 30
0.0
 40
0.0153256432167427
 50
305.8768603251460831
 51
326.9397134905381108
  0
ARC
  5
B67C
  8
0
 10
2813.6165783898918562
 20
171.3683105536819937
 30
0.0
 40
0.0064688171704399
 50
324.8614228425238935
 51
353.0903279933770023
  0
ARC
  5
B67D
  8
0
 10
2813.6143518847120504
 20
171.3625692508078942
 30
0.0
 40
0.0035652785678729
 50
270.966583717253684
 51
288.4664995181327072
  0
ARC
  5
B67E
  8
0
 10
2813.6123775731889509
 20
171.3680690862840095
 30
0.0
 40
0.0094081917505271
 50
289.2617479577185122
 51
306.7405940446105888
  0
ARC
  5
B67F
  8
0
 10
2813.6226743127231202
 20
171.3665333771390067
 30
0.0
 40
0.007605307887255
 50
232.1286699228683972
 51
261.8713297573024192
  0
LINE
  5
B680
  8
0
 10
2813.6127137756730008
 20
171.3590044795656979
 30
0.0
 11
2813.6130107519529702
 21
171.3471364604656912
 31
0.0
  0
LINE
  5
B681
  8
0
 10
2813.6233296600371432
 20
171.3590044795656979
 30
0.0
 11
2813.6230002242368755
 21
171.3459197861079133
 31
0.0
  0
ARC
  5
B682
  8
0
 10
2813.6160377963728934
 20
171.3472860340409056
 30
0.0
 40
0.0030307375636774
 50
182.8288220604775915
 51
211.983090671672386
  0
ARC
  5
B683
  8
0
 10
2813.6180195426318278
 20
171.3485778130780943
 30
0.0
 40
0.0053960750933579
 50
212.4717735733258905
 51
245.6402622141733048
  0
ARC
  5
B684
  8
0
 10
2813.6188301236297775
 20
171.3499562443346917
 30
0.0
 40
0.0069881903217736
 50
244.247418043050402
 51
275.1029950141460745
  0
ARC
  5
B685
  8
0
 10
2813.6191830323241447
 20
171.3474236561015971
 30
0.0
 40
0.0044360470388848
 50
273.472195057454428
 51
314.2454166636579771
  0
ARC
  5
B686
  8
0
 10
2813.6204120053289444
 20
171.3460434858689041
 30
0.0
 40
0.0025911732369388
 50
316.0723064094780739
 51
357.2637224901216086
  0
ARC
  5
B687
  8
0
 10
2813.6316226398989784
 20
171.3677541853097921
 30
0.0
 40
0.1304750174939839
 50
89.496472367860477
 51
118.0357827172114042
  0
ARC
  5
B688
  8
0
 10
2813.6110454813288015
 20
171.406770830196308
 30
0.0
 40
0.0863652551984371
 50
118.1526763772615993
 51
142.4808885802009968
  0
ARC
  5
B689
  8
0
 10
2813.5889491843458927
 20
171.4236669652316039
 30
0.0
 40
0.0585494128421246
 50
142.4260422662673875
 51
179.0957545504649033
  0
ARC
  5
B68A
  8
0
 10
2813.6346831677801674
 20
171.3078639990031888
 30
0.0
 40
0.195112123003081
 50
89.9839654396024713
 51
99.5953210335757433
  0
ARC
  5
B68B
  8
0
 10
2813.6297875088248475
 20
171.3318445031304975
 30
0.0
 40
0.1706530836937127
 50
99.3166860813241499
 51
119.6057588933204983
  0
ARC
  5
B68C
  8
0
 10
2813.604105051048009
 20
171.3768089410752111
 30
0.0
 40
0.1188711362143747
 50
119.5499705208919039
 51
142.1948534258002894
  0
ARC
  5
B68D
  8
0
 10
2813.5742028606341592
 20
171.3997098884846935
 30
0.0
 40
0.0812079803929386
 50
142.0288047847330972
 51
179.0738954734443951
  0
ARC
  5
B68E
  8
0
 10
2813.5821150288811623
 20
171.416822748624412
 30
0.0
 40
0.0654903246581104
 50
149.6183085316984887
 51
179.4672413773899962
  0
ARC
  5
B68F
  8
0
 10
2813.6044772920217838
 20
171.4024592485577898
 30
0.0
 40
0.092052503304992
 50
123.4575726234662056
 51
148.9453640153276126
  0
ARC
  5
B690
  8
0
 10
2813.6260884791950048
 20
171.3705455081673108
 30
0.0
 40
0.1305933464859088
 50
106.6821114325967983
 51
123.6486101266009001
  0
ARC
  5
B691
  8
0
 10
2813.64113337141589
 20
171.313942244606892
 30
0.0
 40
0.1891420302841167
 50
91.9377542538451991
 51
106.1256512919220967
  0
ARC
  5
B692
  8
0
 10
2813.5794113136998931
 20
171.3784438233714127
 30
0.0
 40
0.0864548068334077
 50
181.9287620657682965
 51
227.4200766006426022
  0
ARC
  5
B693
  8
0
 10
2813.6205426589081071
 20
171.4224563349876007
 30
0.0
 40
0.1466938090440546
 50
227.2221456738996039
 51
254.367712621777514
  0
ARC
  5
B694
  8
0
 10
2813.6344114210019143
 20
171.4647573543863075
 30
0.0
 40
0.1911772815692569
 50
253.7811215133941971
 51
270.0978070394355086
  0
ARC
  5
B695
  8
0
 10
2813.4491360745059865
 20
171.2408199717455943
 30
0.0
 40
0.0083857762345171
 50
188.3941873957745088
 51
262.0062688959972093
  0
ARC
  5
B696
  8
0
 10
2813.633882041293873
 20
171.4612871393235025
 30
0.0
 40
0.154307629251137
 50
247.3472005053816929
 51
270.3177418721896856
  0
ARC
  5
B697
  8
0
 10
2813.6145390960969053
 20
171.4179918277156958
 30
0.0
 40
0.1069089135436829
 50
219.249262159489291
 51
247.9773254498483084
  0
ARC
  5
B698
  8
0
 10
2813.5839388744179814
 20
171.3928700631215065
 30
0.0
 40
0.0673177190551782
 50
180.7888353377502995
 51
219.1695149390457118
  0
ARC
  5
B699
  8
0
 10
2813.6321979787949203
 20
171.4714437523248876
 30
0.0
 40
0.1525419381374211
 50
250.0722112508190946
 51
270.2145804447625892
  0
ARC
  5
B69A
  8
0
 10
2813.6140190222240562
 20
171.4279460843804941
 30
0.0
 40
0.1054770681790178
 50
219.2390202855507084
 51
251.3026143176597884
  0
ARC
  5
B69B
  8
0
 10
2813.5854935156471583
 20
171.4037837834829929
 30
0.0
 40
0.0681029330312836
 50
189.6581707019711871
 51
218.6753065851675899
  0
ARC
  5
B69C
  8
0
 10
2813.6323931217930294
 20
171.4598631236428901
 30
0.0
 40
0.1372263551975937
 50
254.9522400926670116
 51
270.157051443810019
  0
ARC
  5
B69D
  8
0
 10
2813.6250494392688779
 20
171.4359833418980088
 30
0.0
 40
0.1122623646954961
 50
234.498419269732409
 51
255.4075486564966013
  0
ARC
  5
B69E
  8
0
 10
2813.6051558558961005
 20
171.4081714487448949
 30
0.0
 40
0.0780680195457435
 50
212.6438298138538983
 51
234.5309195026696898
  0
ARC
  5
B69F
  8
0
 10
2813.5879743933901409
 20
171.3970667334739062
 30
0.0
 40
0.0576105492010685
 50
184.1063375899564107
 51
212.5616070064758958
  0
ARC
  5
B6A0
  8
0
 10
2813.5821352671041495
 20
171.4183270147941016
 30
0.0
 40
0.059308099136761
 50
184.9394465882961924
 51
200.5202201426598094
  0
ARC
  5
B6A1
  8
0
 10
2813.526404939564145
 20
171.4452961359864958
 30
0.0
 40
0.0027373574132872
 50
13.6369065444263597
 51
94.3825217227823572
  0
ARC
  5
B6A2
  8
0
 10
2813.6321417942622247
 20
171.4482702968975047
 30
0.0
 40
0.1157225514943487
 50
246.9767968632008035
 51
270.3106719712349104
  0
ARC
  5
B6A3
  8
0
 10
2813.6159298132829463
 20
171.4133425453202904
 30
0.0
 40
0.07724662862839
 50
215.7288579830083961
 51
247.9116063271642076
  0
ARC
  5
B6A4
  8
0
 10
2813.5945088601079078
 20
171.3971333983496947
 30
0.0
 40
0.0503961769582465
 50
183.103384591347691
 51
214.9902496251139894
  0
ARC
  5
B6A5
  8
0
 10
2813.4495464526012256
 20
171.5351713714067046
 30
0.0
 40
0.0088882834276628
 50
93.7338278927261115
 51
168.3864244572050097
  0
ARC
  5
B6A6
  8
0
 10
2813.6269214680978621
 20
171.4083018987143987
 30
0.0
 40
0.0152495521412858
 50
211.7361704899047936
 51
234.2202070367264071
  0
ARC
  5
B6A7
  8
0
 10
2813.6188387288070771
 20
171.4035079220867885
 30
0.0
 40
0.005856274967565
 50
185.6348280871052054
 51
213.4428226156497885
  0
ARC
  5
B6A8
  8
0
 10
2813.6090239690811359
 20
171.408348430958398
 30
0.0
 40
0.0153256432167427
 50
305.8768603251460831
 51
326.9397134905381108
  0
ARC
  5
B6A9
  8
0
 10
2813.6165783898918562
 20
171.4037111343820072
 30
0.0
 40
0.0064688171704399
 50
324.8614228425238935
 51
353.0903279933770023
  0
ARC
  5
B6AA
  8
0
 10
2813.6143518847120504
 20
171.3979698315079077
 30
0.0
 40
0.0035652785678729
 50
270.966583717253684
 51
288.4664995181327072
  0
ARC
  5
B6AB
  8
0
 10
2813.6123775731889509
 20
171.4034696669839946
 30
0.0
 40
0.0094081917505271
 50
289.2617479577185122
 51
306.7405940446105888
  0
ARC
  5
B6AC
  8
0
 10
2813.6226734776191734
 20
171.4019319904558074
 30
0.0
 40
0.0076032422091332
 50
232.1245363407342097
 51
261.8754633398260125
  0
ARC
  5
B6AD
  8
0
 10
2813.6269214680978621
 20
171.4437024795143998
 30
0.0
 40
0.0152495521412858
 50
211.7361704899047936
 51
234.2202070367264071
  0
ARC
  5
B6AE
  8
0
 10
2813.6188387288070771
 20
171.4389085028867896
 30
0.0
 40
0.005856274967565
 50
185.6348280871052054
 51
213.4428226156497885
  0
ARC
  5
B6AF
  8
0
 10
2813.6090239690811359
 20
171.4437490117583991
 30
0.0
 40
0.0153256432167427
 50
305.8768603251460831
 51
326.9397134905381108
  0
ARC
  5
B6B0
  8
0
 10
2813.6165783898918562
 20
171.4391117151820083
 30
0.0
 40
0.0064688171704399
 50
324.8614228425238935
 51
353.0903279933770023
  0
ARC
  5
B6B1
  8
0
 10
2813.6143518847120504
 20
171.4333704123079087
 30
0.0
 40
0.0035652785678729
 50
270.966583717253684
 51
288.4664995181327072
  0
ARC
  5
B6B2
  8
0
 10
2813.6123775731889509
 20
171.4388702477839956
 30
0.0
 40
0.0094081917505271
 50
289.2617479577185122
 51
306.7405940446105888
  0
ARC
  5
B6B3
  8
0
 10
2813.6226743134780008
 20
171.4373345399237962
 30
0.0
 40
0.0076053093648651
 50
232.1286713757868085
 51
261.8713256027897955
  0
ARC
  5
B6B4
  8
0
 10
2813.6269214680978621
 20
171.4791030602144133
 30
0.0
 40
0.0152495521412858
 50
211.7361704899047936
 51
234.2202070367264071
  0
ARC
  5
B6B5
  8
0
 10
2813.6188387288070771
 20
171.4743090835868031
 30
0.0
 40
0.005856274967565
 50
185.6348280871052054
 51
213.4428226156497885
  0
ARC
  5
B6B6
  8
0
 10
2813.6090239690811359
 20
171.4791495924584126
 30
0.0
 40
0.0153256432167427
 50
305.8768603251460831
 51
326.9397134905381108
  0
ARC
  5
B6B7
  8
0
 10
2813.6165783898918562
 20
171.4745122958819934
 30
0.0
 40
0.0064688171704399
 50
324.8614228425238935
 51
353.0903279933770023
  0
ARC
  5
B6B8
  8
0
 10
2813.6143518847120504
 20
171.4687709930078938
 30
0.0
 40
0.0035652785678729
 50
270.966583717253684
 51
288.4664995181327072
  0
ARC
  5
B6B9
  8
0
 10
2813.6123775731889509
 20
171.4742708284840091
 30
0.0
 40
0.0094081917505271
 50
289.2617479577185122
 51
306.7405940446105888
  0
ARC
  5
B6BA
  8
0
 10
2813.6226743134780008
 20
171.4727351206238097
 30
0.0
 40
0.0076053093648774
 50
232.1286713757918108
 51
261.8713256027376133
  0
ARC
  5
B6BB
  8
0
 10
2813.6908978459978243
 20
171.4791030602144133
 30
0.0
 40
0.0152495521412858
 50
211.7361704899047936
 51
234.2202070367264071
  0
ARC
  5
B6BC
  8
0
 10
2813.6828151067070394
 20
171.4743090835868031
 30
0.0
 40
0.005856274967565
 50
185.6348280871052054
 51
213.4428226156497885
  0
ARC
  5
B6BD
  8
0
 10
2813.6730003469810981
 20
171.4791495924584126
 30
0.0
 40
0.0153256432167427
 50
305.8768603251460831
 51
326.9397134905381108
  0
ARC
  5
B6BE
  8
0
 10
2813.6805547677931827
 20
171.4745122958819934
 30
0.0
 40
0.0064688171704399
 50
324.8614228425238935
 51
353.0903279933770023
  0
ARC
  5
B6BF
  8
0
 10
2813.6783282626120126
 20
171.4687709930078938
 30
0.0
 40
0.0035652785678729
 50
270.966583717253684
 51
288.4664995181327072
  0
ARC
  5
B6C0
  8
0
 10
2813.6763539510898227
 20
171.4742708284840091
 30
0.0
 40
0.0094081917505271
 50
289.2617479577185122
 51
306.7405940446105888
  0
ARC
  5
B6C1
  8
0
 10
2813.6866500520068257
 20
171.4727336144293872
 30
0.0
 40
0.0076037278956354
 50
232.1255071575403122
 51
261.8744909679488728
  0
ARC
  5
B6C2
  8
0
 10
2813.6908978459978243
 20
171.4437024795143998
 30
0.0
 40
0.0152495521412858
 50
211.7361704899047936
 51
234.2202070367264071
  0
ARC
  5
B6C3
  8
0
 10
2813.6828151067070394
 20
171.4389085028867896
 30
0.0
 40
0.005856274967565
 50
185.6348280871052054
 51
213.4428226156497885
  0
ARC
  5
B6C4
  8
0
 10
2813.6730003469810981
 20
171.4437490117583991
 30
0.0
 40
0.0153256432167427
 50
305.8768603251460831
 51
326.9397134905381108
  0
ARC
  5
B6C5
  8
0
 10
2813.6805547677931827
 20
171.4391117151820083
 30
0.0
 40
0.0064688171704399
 50
324.8614228425238935
 51
353.0903279933770023
  0
ARC
  5
B6C6
  8
0
 10
2813.6783282626120126
 20
171.4333704123079087
 30
0.0
 40
0.0035652785678729
 50
270.966583717253684
 51
288.4664995181327072
  0
ARC
  5
B6C7
  8
0
 10
2813.6763539510898227
 20
171.4388702477839956
 30
0.0
 40
0.0094081917505271
 50
289.2617479577185122
 51
306.7405940446105888
  0
ARC
  5
B6C8
  8
0
 10
2813.6866360985568463
 20
171.4373097019378065
 30
0.0
 40
0.0075767449992355
 50
232.1004773769433029
 51
261.9581634425654784
  0
ARC
  5
B6C9
  8
0
 10
2813.6908978459978243
 20
171.4083018987143987
 30
0.0
 40
0.0152495521412858
 50
211.7361704899047936
 51
234.2202070367264071
  0
ARC
  5
B6CA
  8
0
 10
2813.6828151067070394
 20
171.4035079220867885
 30
0.0
 40
0.005856274967565
 50
185.6348280871052054
 51
213.4428226156497885
  0
ARC
  5
B6CB
  8
0
 10
2813.6730003469810981
 20
171.408348430958398
 30
0.0
 40
0.0153256432167427
 50
305.8768603251460831
 51
326.9397134905381108
  0
ARC
  5
B6CC
  8
0
 10
2813.6805547677931827
 20
171.4037111343820072
 30
0.0
 40
0.0064688171704399
 50
324.8614228425238935
 51
353.0903279933770023
  0
ARC
  5
B6CD
  8
0
 10
2813.6783282626120126
 20
171.3979698315079077
 30
0.0
 40
0.0035652785678729
 50
270.966583717253684
 51
288.4664995181327072
  0
ARC
  5
B6CE
  8
0
 10
2813.6763539510898227
 20
171.4034696669839946
 30
0.0
 40
0.0094081917505271
 50
289.2617479577185122
 51
306.7405940446105888
  0
ARC
  5
B6CF
  8
0
 10
2813.6866360985568463
 20
171.4019091211378054
 30
0.0
 40
0.0075767449992355
 50
232.1004773769433029
 51
261.9581634425654784
  0
ARC
  5
B6D0
  8
0
 10
2813.754874223997831
 20
171.4791030602144133
 30
0.0
 40
0.0152495521412858
 50
211.7361704899047936
 51
234.2202070367264071
  0
ARC
  5
B6D1
  8
0
 10
2813.746791484707046
 20
171.4743090835868031
 30
0.0
 40
0.005856274967565
 50
185.6348280871052054
 51
213.4428226156497885
  0
ARC
  5
B6D2
  8
0
 10
2813.7369767249811048
 20
171.4791495924584126
 30
0.0
 40
0.0153256432167427
 50
305.8768603251460831
 51
326.9397134905381108
  0
ARC
  5
B6D3
  8
0
 10
2813.7445311457931894
 20
171.4745122958819934
 30
0.0
 40
0.006468817170448
 50
324.8614228425536226
 51
353.0903279933608019
  0
ARC
  5
B6D4
  8
0
 10
2813.7423046406120193
 20
171.4687709930078938
 30
0.0
 40
0.0035652785678729
 50
270.966583717253684
 51
288.4664995181327072
  0
ARC
  5
B6D5
  8
0
 10
2813.7403303290889198
 20
171.4742708284840091
 30
0.0
 40
0.0094081917505271
 50
289.2617479577185122
 51
306.7405940446105888
  0
ARC
  5
B6D6
  8
0
 10
2813.7506124765568529
 20
171.4727102826377916
 30
0.0
 40
0.0075767449992355
 50
232.1004773769433029
 51
261.9581634425654784
  0
ARC
  5
B6D7
  8
0
 10
2813.754874223997831
 20
171.4437024795143998
 30
0.0
 40
0.0152495521412858
 50
211.7361704899047936
 51
234.2202070367264071
  0
ARC
  5
B6D8
  8
0
 10
2813.746791484707046
 20
171.4389085028867896
 30
0.0
 40
0.005856274967565
 50
185.6348280871052054
 51
213.4428226156497885
  0
ARC
  5
B6D9
  8
0
 10
2813.7369767249811048
 20
171.4437490117583991
 30
0.0
 40
0.0153256432167427
 50
305.8768603251460831
 51
326.9397134905381108
  0
ARC
  5
B6DA
  8
0
 10
2813.7445311457931894
 20
171.4391117151820083
 30
0.0
 40
0.0064688171704399
 50
324.8614228425238935
 51
353.0903279933770023
  0
ARC
  5
B6DB
  8
0
 10
2813.7423046406120193
 20
171.4333704123079087
 30
0.0
 40
0.0035652785678729
 50
270.966583717253684
 51
288.4664995181327072
  0
ARC
  5
B6DC
  8
0
 10
2813.7403303290889198
 20
171.4388702477839956
 30
0.0
 40
0.0094081917505271
 50
289.2617479577185122
 51
306.7405940446105888
  0
ARC
  5
B6DD
  8
0
 10
2813.7506124765568529
 20
171.4373097019378065
 30
0.0
 40
0.0075767449992355
 50
232.1004773769433029
 51
261.9581634425654784
  0
ARC
  5
B6DE
  8
0
 10
2813.754874223997831
 20
171.4083018987143987
 30
0.0
 40
0.0152495521412858
 50
211.7361704899047936
 51
234.2202070367264071
  0
ARC
  5
B6DF
  8
0
 10
2813.746791484707046
 20
171.4035079220867885
 30
0.0
 40
0.005856274967565
 50
185.6348280871052054
 51
213.4428226156497885
  0
ARC
  5
B6E0
  8
0
 10
2813.7369767249811048
 20
171.408348430958398
 30
0.0
 40
0.0153256432167427
 50
305.8768603251460831
 51
326.9397134905381108
  0
ARC
  5
B6E1
  8
0
 10
2813.7445311457931894
 20
171.4037111343820072
 30
0.0
 40
0.0064688171704399
 50
324.8614228425238935
 51
353.0903279933770023
  0
ARC
  5
B6E2
  8
0
 10
2813.7423046406120193
 20
171.3979698315079077
 30
0.0
 40
0.0035652785678729
 50
270.966583717253684
 51
288.4664995181327072
  0
ARC
  5
B6E3
  8
0
 10
2813.7403303290889198
 20
171.4034696669839946
 30
0.0
 40
0.0094081917505271
 50
289.2617479577185122
 51
306.7405940446105888
  0
ARC
  5
B6E4
  8
0
 10
2813.7506124765568529
 20
171.4019091211378054
 30
0.0
 40
0.0075767449992355
 50
232.1004773769433029
 51
261.9581634425654784
  0
ARC
  5
B6E5
  8
0
 10
2813.8188506018977932
 20
171.4791030602144133
 30
0.0
 40
0.0152495521412858
 50
211.7361704899047936
 51
234.2202070367264071
  0
ARC
  5
B6E6
  8
0
 10
2813.8107678626070083
 20
171.4743090835868031
 30
0.0
 40
0.005856274967565
 50
185.6348280871052054
 51
213.4428226156497885
  0
ARC
  5
B6E7
  8
0
 10
2813.800953102881067
 20
171.4791495924584126
 30
0.0
 40
0.0153256432167427
 50
305.8768603251460831
 51
326.9397134905381108
  0
ARC
  5
B6E8
  8
0
 10
2813.8085075236931516
 20
171.4745122958819934
 30
0.0
 40
0.0064688171704399
 50
324.8614228425238935
 51
353.0903279933770023
  0
ARC
  5
B6E9
  8
0
 10
2813.8062810185119815
 20
171.4687709930078938
 30
0.0
 40
0.0035652785678729
 50
270.966583717253684
 51
288.4664995181327072
  0
ARC
  5
B6EA
  8
0
 10
2813.8043067069897916
 20
171.4742708284840091
 30
0.0
 40
0.0094081917505271
 50
289.2617479577185122
 51
306.7405940446105888
  0
ARC
  5
B6EB
  8
0
 10
2813.8145888544568152
 20
171.4727102826377916
 30
0.0
 40
0.0075767449992355
 50
232.1004773769433029
 51
261.9581634425654784
  0
ARC
  5
B6EC
  8
0
 10
2813.8188506018977932
 20
171.4437024795143998
 30
0.0
 40
0.0152495521412858
 50
211.7361704899047936
 51
234.2202070367264071
  0
ARC
  5
B6ED
  8
0
 10
2813.8107678626070083
 20
171.4389085028867896
 30
0.0
 40
0.005856274967565
 50
185.6348280871052054
 51
213.4428226156497885
  0
ARC
  5
B6EE
  8
0
 10
2813.800953102881067
 20
171.4437490117583991
 30
0.0
 40
0.0153256432167427
 50
305.8768603251460831
 51
326.9397134905381108
  0
ARC
  5
B6EF
  8
0
 10
2813.8085075236931516
 20
171.4391117151820083
 30
0.0
 40
0.0064688171704399
 50
324.8614228425238935
 51
353.0903279933770023
  0
ARC
  5
B6F0
  8
0
 10
2813.8062810185119815
 20
171.4333704123079087
 30
0.0
 40
0.0035652785678729
 50
270.966583717253684
 51
288.4664995181327072
  0
ARC
  5
B6F1
  8
0
 10
2813.8043067069897916
 20
171.4388702477839956
 30
0.0
 40
0.0094081917505271
 50
289.2617479577185122
 51
306.7405940446105888
  0
ARC
  5
B6F2
  8
0
 10
2813.8145888544568152
 20
171.4373097019378065
 30
0.0
 40
0.0075767449992355
 50
232.1004773769433029
 51
261.9581634425654784
  0
ARC
  5
B6F3
  8
0
 10
2813.8188506018977932
 20
171.4083018987143987
 30
0.0
 40
0.0152495521412858
 50
211.7361704899047936
 51
234.2202070367264071
  0
ARC
  5
B6F4
  8
0
 10
2813.8107678626070083
 20
171.4035079220867885
 30
0.0
 40
0.005856274967565
 50
185.6348280871052054
 51
213.4428226156497885
  0
ARC
  5
B6F5
  8
0
 10
2813.800953102881067
 20
171.408348430958398
 30
0.0
 40
0.0153256432167427
 50
305.8768603251460831
 51
326.9397134905381108
  0
ARC
  5
B6F6
  8
0
 10
2813.8085075236931516
 20
171.4037111343820072
 30
0.0
 40
0.0064688171704399
 50
324.8614228425238935
 51
353.0903279933770023
  0
ARC
  5
B6F7
  8
0
 10
2813.8062810185119815
 20
171.3979698315079077
 30
0.0
 40
0.0035652785678729
 50
270.966583717253684
 51
288.4664995181327072
  0
ARC
  5
B6F8
  8
0
 10
2813.8043067069897916
 20
171.4034696669839946
 30
0.0
 40
0.0094081917505271
 50
289.2617479577185122
 51
306.7405940446105888
  0
ARC
  5
B6F9
  8
0
 10
2813.8146026442168477
 20
171.4019320677926999
 30
0.0
 40
0.0076033233908187
 50
232.1246990498740104
 51
261.8753017771991267
  0
ARC
  5
B6FA
  8
0
 10
2813.8828269798977999
 20
171.4791030602144133
 30
0.0
 40
0.0152495521412858
 50
211.7361704899047936
 51
234.2202070367264071
  0
ARC
  5
B6FB
  8
0
 10
2813.8747442406070149
 20
171.4743090835868031
 30
0.0
 40
0.005856274967565
 50
185.6348280871052054
 51
213.4428226156497885
  0
ARC
  5
B6FC
  8
0
 10
2813.8649294808810737
 20
171.4791495924584126
 30
0.0
 40
0.0153256432167427
 50
305.8768603251460831
 51
326.9397134905381108
  0
ARC
  5
B6FD
  8
0
 10
2813.8724839016931583
 20
171.4745122958819934
 30
0.0
 40
0.0064688171704399
 50
324.8614228425238935
 51
353.0903279933770023
  0
ARC
  5
B6FE
  8
0
 10
2813.8702573965119882
 20
171.4687709930078938
 30
0.0
 40
0.0035652785678729
 50
270.966583717253684
 51
288.4664995181327072
  0
ARC
  5
B6FF
  8
0
 10
2813.8682830849888887
 20
171.4742708284840091
 30
0.0
 40
0.0094081917505271
 50
289.2617479577185122
 51
306.7405940446105888
  0
ARC
  5
B700
  8
0
 10
2813.8785791659561255
 20
171.47273356735829
 30
0.0
 40
0.0076036784913151
 50
232.125408065402695
 51
261.8745889127374085
  0
ARC
  5
B701
  8
0
 10
2813.8828269798977999
 20
171.4437024795143998
 30
0.0
 40
0.0152495521412858
 50
211.7361704899047936
 51
234.2202070367264071
  0
ARC
  5
B702
  8
0
 10
2813.8747442406070149
 20
171.4389085028867896
 30
0.0
 40
0.005856274967565
 50
185.6348280871052054
 51
213.4428226156497885
  0
ARC
  5
B703
  8
0
 10
2813.8649294808810737
 20
171.4437490117583991
 30
0.0
 40
0.0153256432167427
 50
305.8768603251460831
 51
326.9397134905381108
  0
ARC
  5
B704
  8
0
 10
2813.8724839016931583
 20
171.4391117151820083
 30
0.0
 40
0.0064688171704399
 50
324.8614228425238935
 51
353.0903279933770023
  0
ARC
  5
B705
  8
0
 10
2813.8702573965119882
 20
171.4333704123079087
 30
0.0
 40
0.0035652785678729
 50
270.966583717253684
 51
288.4664995181327072
  0
ARC
  5
B706
  8
0
 10
2813.8682830849888887
 20
171.4388702477839956
 30
0.0
 40
0.0094081917505271
 50
289.2617479577185122
 51
306.7405940446105888
  0
ARC
  5
B707
  8
0
 10
2813.8785790876531792
 20
171.4373328021879956
 30
0.0
 40
0.007603484805747
 50
232.1250204123548997
 51
261.8749765657877902
  0
ARC
  5
B708
  8
0
 10
2813.8828269798977999
 20
171.4083018987143987
 30
0.0
 40
0.0152495521412858
 50
211.7361704899047936
 51
234.2202070367264071
  0
ARC
  5
B709
  8
0
 10
2813.8747442406070149
 20
171.4035079220867885
 30
0.0
 40
0.005856274967565
 50
185.6348280871052054
 51
213.4428226156497885
  0
ARC
  5
B70A
  8
0
 10
2813.8649294808810737
 20
171.408348430958398
 30
0.0
 40
0.0153256432167427
 50
305.8768603251460831
 51
326.9397134905381108
  0
ARC
  5
B70B
  8
0
 10
2813.8724839016931583
 20
171.4037111343820072
 30
0.0
 40
0.0064688171704399
 50
324.8614228425238935
 51
353.0903279933770023
  0
ARC
  5
B70C
  8
0
 10
2813.8702573965119882
 20
171.3979698315079077
 30
0.0
 40
0.0035652785678729
 50
270.966583717253684
 51
288.4664995181327072
  0
ARC
  5
B70D
  8
0
 10
2813.8682830849888887
 20
171.4034696669839946
 30
0.0
 40
0.0094081917505271
 50
289.2617479577185122
 51
306.7405940446105888
  0
ARC
  5
B70E
  8
0
 10
2813.8785791262248495
 20
171.4019323127498069
 30
0.0
 40
0.007603580602889
 50
232.1252136519493945
 51
261.8747860281964108
  0
ARC
  5
B70F
  8
0
 10
2813.9468033577982169
 20
171.4791030602144133
 30
0.0
 40
0.0152495521412858
 50
211.7361704899047936
 51
234.2202070367264071
  0
ARC
  5
B710
  8
0
 10
2813.9387206185069772
 20
171.4743090835868031
 30
0.0
 40
0.005856274967565
 50
185.6348280871052054
 51
213.4428226156497885
  0
ARC
  5
B711
  8
0
 10
2813.9289058587801264
 20
171.4791495924584126
 30
0.0
 40
0.0153256432167427
 50
305.8768603251460831
 51
326.9397134905381108
  0
ARC
  5
B712
  8
0
 10
2813.9364602795931205
 20
171.4745122958819934
 30
0.0
 40
0.0064688171704399
 50
324.8614228425238935
 51
353.0903279933770023
  0
ARC
  5
B713
  8
0
 10
2813.9342337744119504
 20
171.4687709930078938
 30
0.0
 40
0.0035652785678729
 50
270.966583717253684
 51
288.4664995181327072
  0
ARC
  5
B714
  8
0
 10
2813.9322594628902152
 20
171.4742708284840091
 30
0.0
 40
0.0094081917505271
 50
289.2617479577185122
 51
306.7405940446105888
  0
ARC
  5
B715
  8
0
 10
2813.9425416103567841
 20
171.4727102826377916
 30
0.0
 40
0.0075767449992355
 50
232.1004773769433029
 51
261.9581634425654784
  0
ARC
  5
B716
  8
0
 10
2813.9468033577982169
 20
171.4437024795143998
 30
0.0
 40
0.0152495521412858
 50
211.7361704899047936
 51
234.2202070367264071
  0
ARC
  5
B717
  8
0
 10
2813.9387206185069772
 20
171.4389085028867896
 30
0.0
 40
0.005856274967565
 50
185.6348280871052054
 51
213.4428226156497885
  0
ARC
  5
B718
  8
0
 10
2813.9289058587801264
 20
171.4437490117583991
 30
0.0
 40
0.0153256432167427
 50
305.8768603251460831
 51
326.9397134905381108
  0
ARC
  5
B719
  8
0
 10
2813.9364602795931205
 20
171.4391117151820083
 30
0.0
 40
0.0064688171704399
 50
324.8614228425238935
 51
353.0903279933770023
  0
ARC
  5
B71A
  8
0
 10
2813.9342337744119504
 20
171.4333704123079087
 30
0.0
 40
0.0035652785678729
 50
270.966583717253684
 51
288.4664995181327072
  0
ARC
  5
B71B
  8
0
 10
2813.9322594628902152
 20
171.4388702477839956
 30
0.0
 40
0.0094081917505271
 50
289.2617479577185122
 51
306.7405940446105888
  0
ARC
  5
B71C
  8
0
 10
2813.9425416103567841
 20
171.4373097019378065
 30
0.0
 40
0.0075767449992355
 50
232.1004773769433029
 51
261.9581634425654784
  0
ARC
  5
B71D
  8
0
 10
2813.9468033577982169
 20
171.4083018987143987
 30
0.0
 40
0.0152495521412858
 50
211.7361704899047936
 51
234.2202070367264071
  0
ARC
  5
B71E
  8
0
 10
2813.9387206185069772
 20
171.4035079220867885
 30
0.0
 40
0.005856274967565
 50
185.6348280871052054
 51
213.4428226156497885
  0
ARC
  5
B71F
  8
0
 10
2813.9289058587801264
 20
171.408348430958398
 30
0.0
 40
0.0153256432167427
 50
305.8768603251460831
 51
326.9397134905381108
  0
ARC
  5
B720
  8
0
 10
2813.9364602795931205
 20
171.4037111343820072
 30
0.0
 40
0.0064688171704399
 50
324.8614228425238935
 51
353.0903279933770023
  0
ARC
  5
B721
  8
0
 10
2813.9342337744119504
 20
171.3979698315079077
 30
0.0
 40
0.0035652785678729
 50
270.966583717253684
 51
288.4664995181327072
  0
ARC
  5
B722
  8
0
 10
2813.9322594628902152
 20
171.4034696669839946
 30
0.0
 40
0.0094081917505271
 50
289.2617479577185122
 51
306.7405940446105888
  0
ARC
  5
B723
  8
0
 10
2813.9425553071660033
 20
171.4019318488149111
 30
0.0
 40
0.0076030934746438
 50
232.1242388361123972
 51
261.8757619909620189
  0
ARC
  5
B724
  8
0
 10
2814.0107797357982236
 20
171.4791030602144133
 30
0.0
 40
0.0152495521412858
 50
211.7361704899047936
 51
234.2202070367264071
  0
ARC
  5
B725
  8
0
 10
2814.0026969965069839
 20
171.4743090835868031
 30
0.0
 40
0.005856274967565
 50
185.6348280871052054
 51
213.4428226156497885
  0
ARC
  5
B726
  8
0
 10
2813.9928822367810426
 20
171.4791495924584126
 30
0.0
 40
0.0153256432167427
 50
305.8768603251460831
 51
326.9397134905381108
  0
ARC
  5
B727
  8
0
 10
2814.0004366575931272
 20
171.4745122958819934
 30
0.0
 40
0.0064688171704399
 50
324.8614228425238935
 51
353.0903279933770023
  0
ARC
  5
B728
  8
0
 10
2813.9982101524119571
 20
171.4687709930078938
 30
0.0
 40
0.0035652785678729
 50
270.966583717253684
 51
288.4664995181327072
  0
ARC
  5
B729
  8
0
 10
2813.9962358408888576
 20
171.4742708284840091
 30
0.0
 40
0.0094081917505271
 50
289.2617479577185122
 51
306.7405940446105888
  0
ARC
  5
B72A
  8
0
 10
2814.0065179883567907
 20
171.4727102826377916
 30
0.0
 40
0.0075767449992355
 50
232.1004773769433029
 51
261.9581634425654784
  0
ARC
  5
B72B
  8
0
 10
2814.0107797357982236
 20
171.4437024795143998
 30
0.0
 40
0.0152495521412858
 50
211.7361704899047936
 51
234.2202070367264071
  0
ARC
  5
B72C
  8
0
 10
2814.0026969965069839
 20
171.4389085028867896
 30
0.0
 40
0.005856274967565
 50
185.6348280871052054
 51
213.4428226156497885
  0
ARC
  5
B72D
  8
0
 10
2813.9928822367810426
 20
171.4437490117583991
 30
0.0
 40
0.0153256432167427
 50
305.8768603251460831
 51
326.9397134905381108
  0
ARC
  5
B72E
  8
0
 10
2814.0004366575931272
 20
171.4391117151820083
 30
0.0
 40
0.0064688171704399
 50
324.8614228425238935
 51
353.0903279933770023
  0
ARC
  5
B72F
  8
0
 10
2813.9982101524119571
 20
171.4333704123079087
 30
0.0
 40
0.0035652785678729
 50
270.966583717253684
 51
288.4664995181327072
  0
ARC
  5
B730
  8
0
 10
2813.9962358408888576
 20
171.4388702477839956
 30
0.0
 40
0.0094081917505271
 50
289.2617479577185122
 51
306.7405940446105888
  0
ARC
  5
B731
  8
0
 10
2814.0065179883567907
 20
171.4373097019378065
 30
0.0
 40
0.0075767449992355
 50
232.1004773769433029
 51
261.9581634425654784
  0
ARC
  5
B732
  8
0
 10
2814.0107797357982236
 20
171.4083018987143987
 30
0.0
 40
0.0152495521412858
 50
211.7361704899047936
 51
234.2202070367264071
  0
ARC
  5
B733
  8
0
 10
2814.0026969965069839
 20
171.4035079220867885
 30
0.0
 40
0.005856274967565
 50
185.6348280871052054
 51
213.4428226156497885
  0
ARC
  5
B734
  8
0
 10
2813.9928822367810426
 20
171.408348430958398
 30
0.0
 40
0.0153256432167427
 50
305.8768603251460831
 51
326.9397134905381108
  0
ARC
  5
B735
  8
0
 10
2814.0004366575931272
 20
171.4037111343820072
 30
0.0
 40
0.0064688171704399
 50
324.8614228425238935
 51
353.0903279933770023
  0
ARC
  5
B736
  8
0
 10
2813.9982101524119571
 20
171.3979698315079077
 30
0.0
 40
0.0035652785678729
 50
270.966583717253684
 51
288.4664995181327072
  0
ARC
  5
B737
  8
0
 10
2813.9962358408888576
 20
171.4034696669839946
 30
0.0
 40
0.0094081917505271
 50
289.2617479577185122
 51
306.7405940446105888
  0
ARC
  5
B738
  8
0
 10
2814.0065179883567907
 20
171.4019091211378054
 30
0.0
 40
0.0075767449992355
 50
232.1004773769433029
 51
261.9581634425654784
  0
ARC
  5
B739
  8
0
 10
2814.0747561136968216
 20
171.4791030602144133
 30
0.0
 40
0.0152495521412858
 50
211.7361704899047936
 51
234.2202070367264071
  0
ARC
  5
B73A
  8
0
 10
2814.0666733744069461
 20
171.4743090835868031
 30
0.0
 40
0.005856274967565
 50
185.6348280871052054
 51
213.4428226156497885
  0
ARC
  5
B73B
  8
0
 10
2814.0568586146800953
 20
171.4791495924584126
 30
0.0
 40
0.0153256432167427
 50
305.8768603251460831
 51
326.9397134905381108
  0
ARC
  5
B73C
  8
0
 10
2814.0644130354930894
 20
171.4745122958819934
 30
0.0
 40
0.0064688171704399
 50
324.8614228425238935
 51
353.0903279933770023
  0
ARC
  5
B73D
  8
0
 10
2814.0621865303119193
 20
171.4687709930078938
 30
0.0
 40
0.0035652785678729
 50
270.966583717253684
 51
288.4664995181327072
  0
ARC
  5
B73E
  8
0
 10
2814.0602122187901841
 20
171.4742708284840091
 30
0.0
 40
0.0094081917505271
 50
289.2617479577185122
 51
306.7405940446105888
  0
ARC
  5
B73F
  8
0
 10
2814.0705089589710042
 20
171.4727351204406034
 30
0.0
 40
0.007605309154067
 50
232.1286711685073101
 51
261.8713269564825055
  0
ARC
  5
B740
  8
0
 10
2814.0747561136968216
 20
171.4437024795143998
 30
0.0
 40
0.0152495521412858
 50
211.7361704899047936
 51
234.2202070367264071
  0
ARC
  5
B741
  8
0
 10
2814.0666733744069461
 20
171.4389085028867896
 30
0.0
 40
0.005856274967565
 50
185.6348280871052054
 51
213.4428226156497885
  0
ARC
  5
B742
  8
0
 10
2814.0568586146800953
 20
171.4437490117583991
 30
0.0
 40
0.0153256432167427
 50
305.8768603251460831
 51
326.9397134905381108
  0
ARC
  5
B743
  8
0
 10
2814.0644130354930894
 20
171.4391117151820083
 30
0.0
 40
0.0064688171704399
 50
324.8614228425238935
 51
353.0903279933770023
  0
ARC
  5
B744
  8
0
 10
2814.0621865303119193
 20
171.4333704123079087
 30
0.0
 40
0.0035652785678729
 50
270.966583717253684
 51
288.4664995181327072
  0
ARC
  5
B745
  8
0
 10
2814.0602122187901841
 20
171.4388702477839956
 30
0.0
 40
0.0094081917505271
 50
289.2617479577185122
 51
306.7405940446105888
  0
ARC
  5
B746
  8
0
 10
2814.0705089589710042
 20
171.4373345397405046
 30
0.0
 40
0.0076053091540533
 50
232.1286711684797979
 51
261.8713269565089945
  0
ARC
  5
B747
  8
0
 10
2814.0747561136968216
 20
171.4083018987143987
 30
0.0
 40
0.0152495521412858
 50
211.7361704899047936
 51
234.2202070367264071
  0
ARC
  5
B748
  8
0
 10
2814.0666733744069461
 20
171.4035079220867885
 30
0.0
 40
0.005856274967565
 50
185.6348280871052054
 51
213.4428226156497885
  0
ARC
  5
B749
  8
0
 10
2814.0568586146800953
 20
171.408348430958398
 30
0.0
 40
0.0153256432167427
 50
305.8768603251460831
 51
326.9397134905381108
  0
ARC
  5
B74A
  8
0
 10
2814.0644130354930894
 20
171.4037111343820072
 30
0.0
 40
0.0064688171704399
 50
324.8614228425238935
 51
353.0903279933770023
  0
ARC
  5
B74B
  8
0
 10
2814.0621865303119193
 20
171.3979698315079077
 30
0.0
 40
0.0035652785678729
 50
270.966583717253684
 51
288.4664995181327072
  0
ARC
  5
B74C
  8
0
 10
2814.0602122187901841
 20
171.4034696669839946
 30
0.0
 40
0.0094081917505271
 50
289.2617479577185122
 51
306.7405940446105888
  0
ARC
  5
B74D
  8
0
 10
2814.0705089582161236
 20
171.4019339576555012
 30
0.0
 40
0.0076053076762239
 50
232.1286697153589103
 51
261.8713311116529212
  0
ARC
  5
B74E
  8
0
 10
2814.0680394765740857
 20
171.3683409541662002
 30
0.0
 40
0.0027990628629548
 50
318.4896678187531052
 51
357.2824689786767749
  0
ARC
  5
B74F
  8
0
 10
2814.0666884307729561
 20
171.3695516964635885
 30
0.0
 40
0.0046132142010402
 50
290.1526576576085859
 51
318.350127426614506
  0
ARC
  5
B750
  8
0
 10
2814.0658312804062007
 20
171.3717553351567915
 30
0.0
 40
0.0069773976167231
 50
259.0575835164285081
 51
290.5260473465492055
  0
ARC
  5
B751
  8
0
 10
2814.065361860694793
 20
171.3701320373288866
 30
0.0
 40
0.0052967104367526
 50
227.6320533223534142
 51
260.7101174931781884
  0
ARC
  5
B752
  8
0
 10
2814.0637304869751461
 20
171.3683621351169108
 30
0.0
 40
0.0028897116141665
 50
183.0527062333424055
 51
227.8817603081674008
  0
ARC
  5
B753
  8
0
 10
2814.004063098673214
 20
171.3683409541662002
 30
0.0
 40
0.0027990628629548
 50
318.4896678187531052
 51
357.2824689786767749
  0
ARC
  5
B754
  8
0
 10
2814.0027120528729938
 20
171.3695516964635885
 30
0.0
 40
0.0046132142010402
 50
290.1526576576085859
 51
318.350127426614506
  0
ARC
  5
B755
  8
0
 10
2814.0018549025048742
 20
171.3717553351567915
 30
0.0
 40
0.0069773976167231
 50
259.0575835164285081
 51
290.5260473465492055
  0
ARC
  5
B756
  8
0
 10
2814.0013854827948308
 20
171.3701320373288866
 30
0.0
 40
0.0052967104367526
 50
227.6320533223534142
 51
260.7101174931781884
  0
ARC
  5
B757
  8
0
 10
2813.9997541090751838
 20
171.3683621351169108
 30
0.0
 40
0.0028897116141665
 50
183.0527062333424055
 51
227.8817603081674008
  0
ARC
  5
B758
  8
0
 10
2813.9400867206741168
 20
171.3683409541662002
 30
0.0
 40
0.0027990628629548
 50
318.4896678187531052
 51
357.2824689786767749
  0
ARC
  5
B759
  8
0
 10
2813.9387356748729871
 20
171.3695516964635885
 30
0.0
 40
0.0046132142010402
 50
290.1526576576085859
 51
318.350127426614506
  0
ARC
  5
B75A
  8
0
 10
2813.9378785245048675
 20
171.3717553351567915
 30
0.0
 40
0.0069773976167231
 50
259.0575835164285081
 51
290.5260473465492055
  0
ARC
  5
B75B
  8
0
 10
2813.9374091047948241
 20
171.3701320373288866
 30
0.0
 40
0.0052967104367526
 50
227.6320533223534142
 51
260.7101174931781884
  0
ARC
  5
B75C
  8
0
 10
2813.9357777310751771
 20
171.3683621351169108
 30
0.0
 40
0.0028897116141665
 50
183.0527062333424055
 51
227.8817603081674008
  0
ARC
  5
B75D
  8
0
 10
2813.8761103427727903
 20
171.3683409541662002
 30
0.0
 40
0.0027990628629548
 50
318.4896678187531052
 51
357.2824689786767749
  0
ARC
  5
B75E
  8
0
 10
2813.8747592969730249
 20
171.3695516964635885
 30
0.0
 40
0.0046132142010402
 50
290.1526576576085859
 51
318.350127426614506
  0
ARC
  5
B75F
  8
0
 10
2813.8739021466049053
 20
171.3717553351567915
 30
0.0
 40
0.0069773976167231
 50
259.0575835164285081
 51
290.5260473465492055
  0
ARC
  5
B760
  8
0
 10
2813.8734327268948618
 20
171.3701320373288866
 30
0.0
 40
0.0052967104367526
 50
227.6320533223534142
 51
260.7101174931781884
  0
ARC
  5
B761
  8
0
 10
2813.8718013531752149
 20
171.3683621351169108
 30
0.0
 40
0.0028897116141665
 50
183.0527062333424055
 51
227.8817603081674008
  0
ARC
  5
B762
  8
0
 10
2813.8121339647741479
 20
171.3683409541662002
 30
0.0
 40
0.0027990628629548
 50
318.4896678187531052
 51
357.2824689786767749
  0
ARC
  5
B763
  8
0
 10
2813.8107829189730182
 20
171.3695516964635885
 30
0.0
 40
0.0046132142010402
 50
290.1526576576085859
 51
318.350127426614506
  0
ARC
  5
B764
  8
0
 10
2813.8099257686048986
 20
171.3717553351567915
 30
0.0
 40
0.0069773976167231
 50
259.0575835164285081
 51
290.5260473465492055
  0
ARC
  5
B765
  8
0
 10
2813.8094563488948552
 20
171.3701320373288866
 30
0.0
 40
0.0052967104367526
 50
227.6320533223534142
 51
260.7101174931781884
  0
ARC
  5
B766
  8
0
 10
2813.8078249751752082
 20
171.3683621351169108
 30
0.0
 40
0.0028897116141665
 50
183.0527062333424055
 51
227.8817603081674008
  0
ARC
  5
B767
  8
0
 10
2813.7481575868741857
 20
171.3683409541662002
 30
0.0
 40
0.0027990628629548
 50
318.4896678187531052
 51
357.2824689786767749
  0
ARC
  5
B768
  8
0
 10
2813.746806541073056
 20
171.3695516964635885
 30
0.0
 40
0.0046132142010402
 50
290.1526576576085859
 51
318.350127426614506
  0
ARC
  5
B769
  8
0
 10
2813.7459493907049364
 20
171.3717553351567915
 30
0.0
 40
0.0069773976167231
 50
259.0575835164285081
 51
290.5260473465492055
  0
ARC
  5
B76A
  8
0
 10
2813.7454799709948929
 20
171.3701320373288866
 30
0.0
 40
0.0052967104367526
 50
227.6320533223534142
 51
260.7101174931781884
  0
ARC
  5
B76B
  8
0
 10
2813.7438485972747912
 20
171.3683621351169108
 30
0.0
 40
0.0028897116141665
 50
183.0527062333424055
 51
227.8817603081674008
  0
ARC
  5
B76C
  8
0
 10
2813.6906606951401955
 20
171.3727028856418997
 30
0.0
 40
0.0149422688660855
 50
211.1704279759213989
 51
227.9021822838728895
  0
ARC
  5
B76D
  8
0
 10
2813.6828983933519339
 20
171.3681455982986108
 30
0.0
 40
0.0059429906142096
 50
185.9230374991022927
 51
212.3109821040559098
  0
ARC
  5
B76E
  8
0
 10
2813.6782103841737808
 20
171.3633021666582863
 30
0.0
 40
0.0043013725955084
 50
272.371993514966789
 51
292.262700311572587
  0
ARC
  5
B76F
  8
0
 10
2813.6758994295378216
 20
171.3688086483957136
 30
0.0
 40
0.0102730303868084
 50
292.5557149115916786
 51
306.3046170494394005
  0
ARC
  5
B770
  8
0
 10
2813.6734247028889513
 20
171.3726164125127127
 30
0.0
 40
0.0147899844456389
 50
311.9281397433589973
 51
326.8553345924162272
  0
ARC
  5
B771
  8
0
 10
2813.6771678065811102
 20
171.3700637676824954
 30
0.0
 40
0.0102606412890358
 50
327.3620974639788983
 51
337.5823574347081717
  0
ARC
  5
B772
  8
0
 10
2813.6823265272960271
 20
171.3678927840558117
 30
0.0
 40
0.0046640247473475
 50
338.069022159933013
 51
355.5674936534657036
  0
ARC
  5
B773
  8
0
 10
2813.6877220477958872
 20
171.3682981491361943
 30
0.0
 40
0.0096590235745235
 50
233.5385511037532069
 51
248.4375674997677095
  0
ARC
  5
B774
  8
0
 10
2813.685835722028969
 20
171.3635052330897111
 30
0.0
 40
0.0045082799824923
 50
248.3466788588362988
 51
266.6887805498091097
  0
ARC
  5
B775
  8
0
 10
2813.6863218136109026
 20
171.3600610255734011
 30
0.0
 40
0.0010567051438586
 50
270.9943761102205144
 51
287.425324223524683
  0
ARC
  5
B776
  8
0
 10
2813.6858565093821198
 20
171.3613004177410915
 30
0.0
 40
0.0023796741781214
 50
289.1783904647228951
 51
309.2610493209865012
  0
ARC
  5
B777
  8
0
 10
2813.6818921141589271
 20
171.3659010658550983
 30
0.0
 40
0.0084521832007086
 50
310.3319822773236751
 51
327.9077488883935985
  0
ARC
  5
B778
  8
0
 10
2813.6757855041341827
 20
171.3700585975662989
 30
0.0
 40
0.0158369336121943
 50
326.9023278944814024
 51
341.648475153998902
  0
ARC
  5
B779
  8
0
 10
2813.6822816367830455
 20
171.3680203087004941
 30
0.0
 40
0.0090301072095185
 50
340.9463537900485903
 51
356.9022568660208208
  0
ARC
  5
B77A
  8
0
 10
2813.6582189714331435
 20
171.3719335568067947
 30
0.0
 40
0.0306731934422362
 50
314.9954512725150835
 51
335.0700030268149021
  0
ARC
  5
B77B
  8
0
 10
2813.6746955597568558
 20
171.3555471715793033
 30
0.0
 40
0.00743585674902
 50
299.2360866667381174
 51
314.4897582076923186
  0
ARC
  5
B77C
  8
0
 10
2813.6771295529360941
 20
171.3515617770314918
 30
0.0
 40
0.0027750364214588
 50
282.2457887980402234
 51
295.5701297333870912
  0
ARC
  5
B77D
  8
0
 10
2813.6776608580121319
 20
171.3494765930369113
 30
0.0
 40
0.0006293248654626
 50
212.3927738700014913
 51
275.2236812600730218
  0
ARC
  5
B77E
  8
0
 10
2813.678341374935826
 20
171.3497454120345083
 30
0.0
 40
0.0013549646739018
 50
181.8675227314028859
 51
206.5651685376406874
  0
ARC
  5
B77F
  8
0
 10
2814.6821570895531295
 20
171.2412097904887105
 30
0.0
 40
0.0088317746646574
 50
280.1294569567522785
 51
349.470085947920893
  0
ARC
  5
B780
  8
0
 10
2814.681548927762833
 20
171.533541390840611
 30
0.0
 40
0.0105636902767474
 50
28.412871865419099
 51
83.6754106172150642
  0
LINE
  5
B781
  8
0
 10
2814.6020819219188525
 20
171.4143630744657969
 30
0.0
 11
2814.6007342614198024
 21
171.3929413703658042
 31
0.0
  0
LINE
  5
B782
  8
0
 10
2814.6007342614198024
 20
171.3929413703658042
 30
0.0
 11
2814.6008389365188123
 21
171.3962704918658062
 31
0.0
  0
LINE
  5
B783
  8
0
 10
2814.6021808704199429
 20
171.4176210524657051
 30
0.0
 11
2814.6020819219188525
 21
171.4143630744657969
 31
0.0
  0
LINE
  5
B784
  8
0
 10
2814.5182352475198968
 20
171.3675323263657049
 30
0.0
 11
2814.5188985050108386
 21
171.3944050602657114
 31
0.0
  0
LINE
  5
B785
  8
0
 10
2814.5182352475198968
 20
171.4029329070658036
 30
0.0
 11
2814.5188985050108386
 21
171.4298056409656965
 31
0.0
  0
LINE
  5
B786
  8
0
 10
2814.5182352475198968
 20
171.4383334878658047
 30
0.0
 11
2814.5188985050108386
 21
171.46520622166571
 31
0.0
  0
LINE
  5
B787
  8
0
 10
2814.5182352475198968
 20
171.4737340685657045
 30
0.0
 11
2814.5185539850299392
 21
171.4866481321406013
 31
0.0
  0
LINE
  5
B788
  8
0
 10
2814.6382405112199194
 20
171.401022442465802
 30
0.0
 11
2814.6382405113199638
 21
171.3755340233657023
 31
0.0
  0
LINE
  5
B789
  8
0
 10
2814.6146184641188484
 20
171.3919432772657103
 30
0.0
 11
2814.6146184641188484
 21
171.4174316945658063
 31
0.0
  0
LINE
  5
B78A
  8
0
 10
2814.6084012325200092
 20
171.4180028932657081
 30
0.0
 11
2814.6084012325200092
 21
171.4446798603686943
 31
0.0
  0
LINE
  5
B78B
  8
0
 10
2814.6021808704199429
 20
171.4459415170657053
 30
0.0
 11
2814.6021808704199429
 21
171.4176210524657051
 31
0.0
  0
LINE
  5
B78C
  8
0
 10
2814.6008389365188123
 20
171.4245909564658064
 30
0.0
 11
2814.6008389365188123
 21
171.3962704918658062
 31
0.0
  0
LINE
  5
B78D
  8
0
 10
2814.5870594090188206
 20
171.3944050602657114
 30
0.0
 11
2814.5870594090188206
 21
171.4245909564658064
 31
0.0
  0
LINE
  5
B78E
  8
0
 10
2814.4984767318192098
 20
171.3590044795656979
 30
0.0
 11
2814.4984767318192098
 21
171.3325494465657073
 31
0.0
  0
LINE
  5
B78F
  8
0
 10
2814.5078948757118269
 20
171.4879512121443952
 30
0.0
 11
2814.5082457751191214
 21
171.4737340685657045
 31
0.0
  0
LINE
  5
B790
  8
0
 10
2814.5075825176281796
 20
171.46520622166571
 30
0.0
 11
2814.5082457751191214
 21
171.4383334878658047
 31
0.0
  0
LINE
  5
B791
  8
0
 10
2814.5075825176281796
 20
171.4298056409656965
 30
0.0
 11
2814.5082457751191214
 21
171.4029329070658036
 31
0.0
  0
LINE
  5
B792
  8
0
 10
2814.5075837745198442
 20
171.3943541356657079
 30
0.0
 11
2814.5082457751191214
 21
171.3675323263657049
 31
0.0
  0
LINE
  5
B793
  8
0
 10
2814.3909412752082062
 20
171.3944050602657114
 30
0.0
 11
2814.3902830133188218
 21
171.3682082447656967
 31
0.0
  0
LINE
  5
B794
  8
0
 10
2814.3269648972081995
 20
171.3944050602657114
 30
0.0
 11
2814.3263066353188151
 21
171.3682082447656967
 31
0.0
  0
LINE
  5
B795
  8
0
 10
2814.2629872193188021
 20
171.3943533286656873
 30
0.0
 11
2814.2623302574188529
 21
171.3682082447656967
 31
0.0
  0
LINE
  5
B796
  8
0
 10
2814.4542588695198901
 20
171.3675323263657049
 30
0.0
 11
2814.4549221271117858
 21
171.3944050602657114
 31
0.0
  0
LINE
  5
B797
  8
0
 10
2814.4542588695198901
 20
171.4029329070658036
 30
0.0
 11
2814.4549208702192118
 21
171.4297547163658066
 31
0.0
  0
LINE
  5
B798
  8
0
 10
2814.4542588695198901
 20
171.4383334878658047
 30
0.0
 11
2814.4549221271117858
 21
171.46520622166571
 31
0.0
  0
LINE
  5
B799
  8
0
 10
2814.4542588695198901
 20
171.4737340685657045
 30
0.0
 11
2814.4546186738189135
 21
171.4883120017657063
 31
0.0
  0
LINE
  5
B79A
  8
0
 10
2814.3902824916199279
 20
171.4029329070658036
 30
0.0
 11
2814.3909457491108697
 21
171.4298056409656965
 31
0.0
  0
LINE
  5
B79B
  8
0
 10
2814.3902824916199279
 20
171.4383334878658047
 30
0.0
 11
2814.3909457491108697
 21
171.46520622166571
 31
0.0
  0
LINE
  5
B79C
  8
0
 10
2814.3902824916199279
 20
171.4737340685657045
 30
0.0
 11
2814.3906422958189069
 21
171.4883120017657063
 31
0.0
  0
LINE
  5
B79D
  8
0
 10
2814.3263061136199212
 20
171.4029329070658036
 30
0.0
 11
2814.3269693711122272
 21
171.4298056409656965
 31
0.0
  0
LINE
  5
B79E
  8
0
 10
2814.3263061136199212
 20
171.4383334878658047
 30
0.0
 11
2814.3269693711122272
 21
171.46520622166571
 31
0.0
  0
LINE
  5
B79F
  8
0
 10
2814.3263061136199212
 20
171.4737340685657045
 30
0.0
 11
2814.3266659179189446
 21
171.4883120017657063
 31
0.0
  0
LINE
  5
B7A0
  8
0
 10
2814.262329735719959
 20
171.4029329070658036
 30
0.0
 11
2814.2629929932118102
 21
171.4298056409656965
 31
0.0
  0
LINE
  5
B7A1
  8
0
 10
2814.262329735719959
 20
171.4383334878658047
 30
0.0
 11
2814.2629929932118102
 21
171.46520622166571
 31
0.0
  0
LINE
  5
B7A2
  8
0
 10
2814.262329735719959
 20
171.4737340685657045
 30
0.0
 11
2814.2626895399198474
 21
171.4883120017657063
 31
0.0
  0
LINE
  5
B7A3
  8
0
 10
2814.4576058741199631
 20
171.3590044795656979
 30
0.0
 11
2814.4576058741199631
 21
171.3325494465657073
 31
0.0
  0
LINE
  5
B7A4
  8
0
 10
2814.4542588695198901
 20
171.3497012555658046
 30
0.0
 11
2814.4542588695198901
 21
171.3590044795656979
 31
0.0
  0
LINE
  5
B7A5
  8
0
 10
2814.4439676788188081
 20
171.3189028839657055
 30
0.0
 11
2814.4439676788188081
 21
171.3226372839656904
 31
0.0
  0
LINE
  5
B7A6
  8
0
 10
2814.4394216137197873
 20
171.3944050602657114
 30
0.0
 11
2814.4394216137197873
 21
171.3552058182656879
 31
0.0
  0
LINE
  5
B7A7
  8
0
 10
2814.4399474502201883
 20
171.3675323263657049
 30
0.0
 11
2814.4395645183199122
 21
171.3944050602657114
 31
0.0
  0
LINE
  5
B7A8
  8
0
 10
2814.4439095929192263
 20
171.4883120017657063
 30
0.0
 11
2814.4442693972191591
 21
171.4737340685657045
 31
0.0
  0
LINE
  5
B7A9
  8
0
 10
2814.4436061397268531
 20
171.46520622166571
 30
0.0
 11
2814.4442693972191591
 21
171.4383334878658047
 31
0.0
  0
LINE
  5
B7AA
  8
0
 10
2814.4436073966189724
 20
171.4297547163658066
 30
0.0
 11
2814.4442693972191591
 21
171.4029329070658036
 31
0.0
  0
LINE
  5
B7AB
  8
0
 10
2814.4436061397268531
 20
171.3944050602657114
 30
0.0
 11
2814.4442693972191591
 21
171.3675323263657049
 31
0.0
  0
LINE
  5
B7AC
  8
0
 10
2814.3799332150201735
 20
171.4883120017657063
 30
0.0
 11
2814.3802930192191525
 21
171.4737340685657045
 31
0.0
  0
LINE
  5
B7AD
  8
0
 10
2814.3796297617282107
 20
171.46520622166571
 30
0.0
 11
2814.3802930192191525
 21
171.4383334878658047
 31
0.0
  0
LINE
  5
B7AE
  8
0
 10
2814.3796297617282107
 20
171.4298056409656965
 30
0.0
 11
2814.3802930192191525
 21
171.4029329070658036
 31
0.0
  0
LINE
  5
B7AF
  8
0
 10
2814.3159568370188026
 20
171.4883120017657063
 30
0.0
 11
2814.3163166413191902
 21
171.4737340685657045
 31
0.0
  0
LINE
  5
B7B0
  8
0
 10
2814.3156533838268842
 20
171.46520622166571
 30
0.0
 11
2814.3163166413191902
 21
171.4383334878658047
 31
0.0
  0
LINE
  5
B7B1
  8
0
 10
2814.3156533838268842
 20
171.4298056409656965
 30
0.0
 11
2814.3163166413191902
 21
171.4029329070658036
 31
0.0
  0
LINE
  5
B7B2
  8
0
 10
2814.3802924975188944
 20
171.3682082447656967
 30
0.0
 11
2814.3796342357309186
 21
171.3944050602657114
 31
0.0
  0
LINE
  5
B7B3
  8
0
 10
2814.3163161196198416
 20
171.3682082447656967
 30
0.0
 11
2814.315659157619848
 21
171.3943533286656873
 31
0.0
  0
LINE
  5
B7B4
  8
0
 10
2814.4576058741199631
 20
171.3325494465657073
 30
0.0
 11
2814.4394216137197873
 21
171.3552058182656879
 31
0.0
  0
LINE
  5
B7B5
  8
0
 10
2814.425783418319952
 20
171.338213539565686
 30
0.0
 11
2814.4382850974188841
 21
171.3226372839656904
 31
0.0
  0
LINE
  5
B7B6
  8
0
 10
2814.1990108414202041
 20
171.3943533286656873
 30
0.0
 11
2814.1983538794188462
 21
171.3682082447656967
 31
0.0
  0
LINE
  5
B7B7
  8
0
 10
2814.135035763308224
 20
171.3944050602657114
 30
0.0
 11
2814.1343775015188839
 21
171.3682082447656967
 31
0.0
  0
LINE
  5
B7B8
  8
0
 10
2814.1983533577199523
 20
171.4029329070658036
 30
0.0
 11
2814.1990166152108941
 21
171.4298056409656965
 31
0.0
  0
LINE
  5
B7B9
  8
0
 10
2814.1983533577199523
 20
171.4383334878658047
 30
0.0
 11
2814.1990166152108941
 21
171.46520622166571
 31
0.0
  0
LINE
  5
B7BA
  8
0
 10
2814.1983533577199523
 20
171.4737340685657045
 30
0.0
 11
2814.1987131620189757
 21
171.4883120017657063
 31
0.0
  0
LINE
  5
B7BB
  8
0
 10
2814.1343769798199901
 20
171.4029329070658036
 30
0.0
 11
2814.1350402373118413
 21
171.4298056409656965
 31
0.0
  0
LINE
  5
B7BC
  8
0
 10
2814.1343769798199901
 20
171.4383334878658047
 30
0.0
 11
2814.1350402373118413
 21
171.46520622166571
 31
0.0
  0
LINE
  5
B7BD
  8
0
 10
2814.1343769798199901
 20
171.4737340685657045
 30
0.0
 11
2814.1347367840198785
 21
171.4883120017657063
 31
0.0
  0
LINE
  5
B7BE
  8
0
 10
2814.1234767317691876
 20
171.338213539565686
 30
0.0
 11
2814.1234767317691876
 21
171.3069818829658004
 31
0.0
  0
LINE
  5
B7BF
  8
0
 10
2814.2519804591188404
 20
171.4883120017657063
 30
0.0
 11
2814.2523402633191836
 21
171.4737340685657045
 31
0.0
  0
LINE
  5
B7C0
  8
0
 10
2814.2516770058277871
 20
171.46520622166571
 30
0.0
 11
2814.2523402633191836
 21
171.4383334878658047
 31
0.0
  0
LINE
  5
B7C1
  8
0
 10
2814.2516770058277871
 20
171.4298056409656965
 30
0.0
 11
2814.2523402633191836
 21
171.4029329070658036
 31
0.0
  0
LINE
  5
B7C2
  8
0
 10
2814.188004081120198
 20
171.4883120017657063
 30
0.0
 11
2814.1883638854192213
 21
171.4737340685657045
 31
0.0
  0
LINE
  5
B7C3
  8
0
 10
2814.1877006279278248
 20
171.46520622166571
 30
0.0
 11
2814.1883638854192213
 21
171.4383334878658047
 31
0.0
  0
LINE
  5
B7C4
  8
0
 10
2814.1877006279278248
 20
171.4298056409656965
 30
0.0
 11
2814.1883638854192213
 21
171.4029329070658036
 31
0.0
  0
LINE
  5
B7C5
  8
0
 10
2814.1240277032188715
 20
171.4883120017657063
 30
0.0
 11
2814.1243875074192147
 21
171.4737340685657045
 31
0.0
  0
LINE
  5
B7C6
  8
0
 10
2814.1237242499269087
 20
171.46520622166571
 30
0.0
 11
2814.1243875074192147
 21
171.4383334878658047
 31
0.0
  0
LINE
  5
B7C7
  8
0
 10
2814.1237242499269087
 20
171.4298056409656965
 30
0.0
 11
2814.1243875074192147
 21
171.4029329070658036
 31
0.0
  0
LINE
  5
B7C8
  8
0
 10
2814.2523397416189255
 20
171.3682082447656967
 30
0.0
 11
2814.2516827797189762
 21
171.3943533286656873
 31
0.0
  0
LINE
  5
B7C9
  8
0
 10
2814.1883633637198727
 20
171.3682082447656967
 30
0.0
 11
2814.1877064017198791
 21
171.3943533286656873
 31
0.0
  0
LINE
  5
B7CA
  8
0
 10
2814.1243869857189566
 20
171.3682082447656967
 30
0.0
 11
2814.1237300238190073
 21
171.3943533286656873
 31
0.0
  0
LINE
  5
B7CB
  8
0
 10
2814.4984767318192098
 20
171.3189028839657055
 30
0.0
 11
2814.4439676788188081
 21
171.3189028839657055
 31
0.0
  0
LINE
  5
B7CC
  8
0
 10
2814.4984767318192098
 20
171.3226372839656904
 30
0.0
 11
2814.4382850974188841
 21
171.3226372839656904
 31
0.0
  0
LINE
  5
B7CD
  8
0
 10
2814.4984767318192098
 20
171.3325494465657073
 30
0.0
 11
2814.4576058741199631
 21
171.3325494465657073
 31
0.0
  0
LINE
  5
B7CE
  8
0
 10
2814.1234767317691876
 20
171.338213539565686
 30
0.0
 11
2814.425783418319952
 21
171.338213539565686
 31
0.0
  0
LINE
  5
B7CF
  8
0
 10
2814.4449058475188394
 20
171.3590044795656979
 30
0.0
 11
2814.4456706735190892
 21
171.3590044795656979
 31
0.0
  0
LINE
  5
B7D0
  8
0
 10
2814.4528575932199601
 20
171.3590044795656979
 30
0.0
 11
2814.5096470515200053
 21
171.3590044795656979
 31
0.0
  0
LINE
  5
B7D1
  8
0
 10
2814.5168339711190129
 20
171.3590044795656979
 30
0.0
 11
2814.5568997620198388
 21
171.3590044795656979
 31
0.0
  0
LINE
  5
B7D2
  8
0
 10
2814.5654333855190998
 20
171.3675323263657049
 30
0.0
 11
2814.5182352475198968
 21
171.3675323263657049
 31
0.0
  0
LINE
  5
B7D3
  8
0
 10
2814.5082457751191214
 20
171.3675323263657049
 30
0.0
 11
2814.4542588696199346
 21
171.3675323263657049
 31
0.0
  0
LINE
  5
B7D4
  8
0
 10
2814.1329757034200156
 20
171.3944050602657114
 30
0.0
 11
2814.1897651617191514
 21
171.3944050602657114
 31
0.0
  0
LINE
  5
B7D5
  8
0
 10
2814.1969520814191128
 20
171.3944050602657114
 30
0.0
 11
2814.253741539719158
 21
171.3944050602657114
 31
0.0
  0
LINE
  5
B7D6
  8
0
 10
2814.2609284593199845
 20
171.3944050602657114
 30
0.0
 11
2814.3177179176191203
 21
171.3944050602657114
 31
0.0
  0
LINE
  5
B7D7
  8
0
 10
2814.3249048373199912
 20
171.3944050602657114
 30
0.0
 11
2814.3816942956191269
 21
171.3944050602657114
 31
0.0
  0
LINE
  5
B7D8
  8
0
 10
2814.3888812152199534
 20
171.3944050602657114
 30
0.0
 11
2814.4456706735190892
 21
171.3944050602657114
 31
0.0
  0
LINE
  5
B7D9
  8
0
 10
2814.4528575932199601
 20
171.3944050602657114
 30
0.0
 11
2814.5096470515200053
 21
171.3944050602657114
 31
0.0
  0
LINE
  5
B7DA
  8
0
 10
2814.5168339711190129
 20
171.3944050602657114
 30
0.0
 11
2814.5870594090188206
 21
171.3944050602657114
 31
0.0
  0
LINE
  5
B7DB
  8
0
 10
2814.5870594090188206
 20
171.4029329070658036
 30
0.0
 11
2814.5182352475198968
 21
171.4029329070658036
 31
0.0
  0
LINE
  5
B7DC
  8
0
 10
2814.5082457751191214
 20
171.4029329070658036
 30
0.0
 11
2814.4542588696199346
 21
171.4029329070658036
 31
0.0
  0
LINE
  5
B7DD
  8
0
 10
2814.4442693972191591
 20
171.4029329070658036
 30
0.0
 11
2814.3902824916199279
 21
171.4029329070658036
 31
0.0
  0
LINE
  5
B7DE
  8
0
 10
2814.3802930192191525
 20
171.4029329070658036
 30
0.0
 11
2814.3263061137199657
 21
171.4029329070658036
 31
0.0
  0
LINE
  5
B7DF
  8
0
 10
2814.3163166413191902
 20
171.4029329070658036
 30
0.0
 11
2814.262329735719959
 21
171.4029329070658036
 31
0.0
  0
LINE
  5
B7E0
  8
0
 10
2814.2523402633191836
 20
171.4029329070658036
 30
0.0
 11
2814.1983533577199523
 21
171.4029329070658036
 31
0.0
  0
LINE
  5
B7E1
  8
0
 10
2814.1883638854192213
 20
171.4029329070658036
 30
0.0
 11
2814.1343769798199901
 21
171.4029329070658036
 31
0.0
  0
LINE
  5
B7E2
  8
0
 10
2814.1329757034200156
 20
171.4298056409656965
 30
0.0
 11
2814.1897651617191514
 21
171.4298056409656965
 31
0.0
  0
LINE
  5
B7E3
  8
0
 10
2814.1969520814191128
 20
171.4298056409656965
 30
0.0
 11
2814.253741539719158
 21
171.4298056409656965
 31
0.0
  0
LINE
  5
B7E4
  8
0
 10
2814.2609284593199845
 20
171.4298056409656965
 30
0.0
 11
2814.3177179176191203
 21
171.4298056409656965
 31
0.0
  0
LINE
  5
B7E5
  8
0
 10
2814.3249048373199912
 20
171.4298056409656965
 30
0.0
 11
2814.3816942956191269
 21
171.4298056409656965
 31
0.0
  0
LINE
  5
B7E6
  8
0
 10
2814.3888812152199534
 20
171.4298056409656965
 30
0.0
 11
2814.4456706735190892
 21
171.4298056409656965
 31
0.0
  0
LINE
  5
B7E7
  8
0
 10
2814.4528575932199601
 20
171.4298056409656965
 30
0.0
 11
2814.5096470515200053
 21
171.4298056409656965
 31
0.0
  0
LINE
  5
B7E8
  8
0
 10
2814.5168339711190129
 20
171.4298056409656965
 30
0.0
 11
2814.5867593676111937
 21
171.4298056409656965
 31
0.0
  0
LINE
  5
B7E9
  8
0
 10
2814.5849530815030448
 20
171.4383334878658047
 30
0.0
 11
2814.5182352475198968
 21
171.4383334878658047
 31
0.0
  0
LINE
  5
B7EA
  8
0
 10
2814.5082457751191214
 20
171.4383334878658047
 30
0.0
 11
2814.4542588696199346
 21
171.4383334878658047
 31
0.0
  0
LINE
  5
B7EB
  8
0
 10
2814.4442693972191591
 20
171.4383334878658047
 30
0.0
 11
2814.3902824916199279
 21
171.4383334878658047
 31
0.0
  0
LINE
  5
B7EC
  8
0
 10
2814.3802930192191525
 20
171.4383334878658047
 30
0.0
 11
2814.3263061137199657
 21
171.4383334878658047
 31
0.0
  0
LINE
  5
B7ED
  8
0
 10
2814.3163166413191902
 20
171.4383334878658047
 30
0.0
 11
2814.262329735719959
 21
171.4383334878658047
 31
0.0
  0
LINE
  5
B7EE
  8
0
 10
2814.2523402633191836
 20
171.4383334878658047
 30
0.0
 11
2814.1983533577199523
 21
171.4383334878658047
 31
0.0
  0
LINE
  5
B7EF
  8
0
 10
2814.1883638854192213
 20
171.4383334878658047
 30
0.0
 11
2814.1343769798199901
 21
171.4383334878658047
 31
0.0
  0
LINE
  5
B7F0
  8
0
 10
2814.1329757034200156
 20
171.46520622166571
 30
0.0
 11
2814.1897651617191514
 21
171.46520622166571
 31
0.0
  0
LINE
  5
B7F1
  8
0
 10
2814.1969520814191128
 20
171.46520622166571
 30
0.0
 11
2814.253741539719158
 21
171.46520622166571
 31
0.0
  0
LINE
  5
B7F2
  8
0
 10
2814.2609284593199845
 20
171.46520622166571
 30
0.0
 11
2814.3177179176191203
 21
171.46520622166571
 31
0.0
  0
LINE
  5
B7F3
  8
0
 10
2814.3249048373199912
 20
171.46520622166571
 30
0.0
 11
2814.3816942956191269
 21
171.46520622166571
 31
0.0
  0
LINE
  5
B7F4
  8
0
 10
2814.3888812152199534
 20
171.46520622166571
 30
0.0
 11
2814.4456706735190892
 21
171.46520622166571
 31
0.0
  0
LINE
  5
B7F5
  8
0
 10
2814.4528575932199601
 20
171.46520622166571
 30
0.0
 11
2814.5096470515200053
 21
171.46520622166571
 31
0.0
  0
LINE
  5
B7F6
  8
0
 10
2814.5168339711190129
 20
171.46520622166571
 30
0.0
 11
2814.5668086427481285
 21
171.46520622166571
 31
0.0
  0
LINE
  5
B7F7
  8
0
 10
2814.5547925699020197
 20
171.4737340685657045
 30
0.0
 11
2814.5182352475198968
 21
171.4737340685657045
 31
0.0
  0
LINE
  5
B7F8
  8
0
 10
2814.5082457751191214
 20
171.4737340685657045
 30
0.0
 11
2814.4542588696199346
 21
171.4737340685657045
 31
0.0
  0
LINE
  5
B7F9
  8
0
 10
2814.4442693972191591
 20
171.4737340685657045
 30
0.0
 11
2814.3902824916199279
 21
171.4737340685657045
 31
0.0
  0
LINE
  5
B7FA
  8
0
 10
2814.3802930192191525
 20
171.4737340685657045
 30
0.0
 11
2814.3263061137199657
 21
171.4737340685657045
 31
0.0
  0
LINE
  5
B7FB
  8
0
 10
2814.3163166413191902
 20
171.4737340685657045
 30
0.0
 11
2814.262329735719959
 21
171.4737340685657045
 31
0.0
  0
LINE
  5
B7FC
  8
0
 10
2814.2523402633191836
 20
171.4737340685657045
 30
0.0
 11
2814.1983533577199523
 21
171.4737340685657045
 31
0.0
  0
LINE
  5
B7FD
  8
0
 10
2814.1883638854192213
 20
171.4737340685657045
 30
0.0
 11
2814.1343769798199901
 21
171.4737340685657045
 31
0.0
  0
ARC
  5
B7FE
  8
0
 10
2814.5447605094191204
 20
171.4198749411656877
 30
0.0
 40
0.0639249452
 50
330.0722555612160818
 51
339.5471903436948082
  0
ARC
  5
B7FF
  8
0
 10
2815.4641912741558372
 20
171.2932829829651098
 30
0.0
 40
0.8570469728985525
 50
172.4276144287750867
 51
173.3617289186850883
  0
ARC
  5
B800
  8
0
 10
2814.5516351975188627
 20
171.4180128105656991
 30
0.0
 40
0.0567660359
 50
355.1571199801996954
 51
359.989990174100285
  0
ARC
  5
B801
  8
0
 10
2814.5479092576188123
 20
171.4458951622657992
 30
0.0
 40
0.0542716326
 50
0.0489378258002677
 51
11.5839881902582196
  0
ARC
  5
B802
  8
0
 10
2814.5412732917188805
 20
171.4245724988657003
 30
0.0
 40
0.0457861210004235
 50
0.0230974205362692
 51
6.5629853280464916
  0
ARC
  5
B803
  8
0
 10
2814.4404992365198268
 20
171.3727010509657021
 30
0.0
 40
0.0149987485
 50
305.758864156701577
 51
312.3464738909968901
  0
LINE
  5
B804
  8
0
 10
2814.6050502347197835
 20
171.4480254896658096
 30
0.0
 11
2814.6068237386461988
 21
171.4478151208776922
 31
0.0
  0
LINE
  5
B805
  8
0
 10
2814.4492641334200016
 20
171.3605298127656908
 30
0.0
 11
2814.447938658118801
 21
171.3616129086657054
 31
0.0
  0
ARC
  5
B806
  8
0
 10
2814.4985581666669532
 20
171.3673305929970923
 30
0.0
 40
0.1209814361762993
 50
77.0961676895191488
 51
90.0385668543089821
  0
ARC
  5
B807
  8
0
 10
2814.5041978461099461
 20
171.3882481101690871
 30
0.0
 40
0.099336172457752
 50
55.7296845561819509
 51
77.5726304182914959
  0
ARC
  5
B808
  8
0
 10
2814.5223156651400132
 20
171.4142478390340045
 30
0.0
 40
0.067648960205214
 50
34.5352266098499427
 51
56.0108689943493516
  0
ARC
  5
B809
  8
0
 10
2814.5362978326779739
 20
171.4235725848394054
 30
0.0
 40
0.0508450341383223
 50
7.0415609578462481
 51
34.8114817041272318
  0
ARC
  5
B80A
  8
0
 10
2814.5547412999007975
 20
171.3696980292669139
 30
0.0
 40
0.0109092146338016
 50
281.4116574739899193
 51
348.5495439334889056
  0
ARC
  5
B80B
  8
0
 10
2750.8963339378969977
 20
172.7286414707392908
 30
0.0
 40
63.6836465866797212
 50
358.7753253432694009
 51
358.7995079899267807
  0
ARC
  5
B80C
  8
0
 10
2814.5043245313740954
 20
171.3729013180144136
 30
0.0
 40
0.0152495521412858
 50
305.7797929632736214
 51
328.2638295100952064
  0
ARC
  5
B80D
  8
0
 10
2814.5124072706639708
 20
171.3681073413868035
 30
0.0
 40
0.005856274967565
 50
326.5571773843502115
 51
354.3651719128931177
  0
ARC
  5
B80E
  8
0
 10
2814.5222220303921858
 20
171.3729478502584129
 30
0.0
 40
0.0153256432167427
 50
213.0602865094618892
 51
234.1231396748538032
  0
ARC
  5
B80F
  8
0
 10
2814.5146676095791918
 20
171.3683105536819937
 30
0.0
 40
0.0064688171704399
 50
186.9096720066229977
 51
215.1385771574759929
  0
ARC
  5
B810
  8
0
 10
2814.5168941147599071
 20
171.3625692508078942
 30
0.0
 40
0.0035652785678729
 50
251.5335004818672076
 51
269.0334162827462023
  0
ARC
  5
B811
  8
0
 10
2814.5188684262830066
 20
171.3680690862840095
 30
0.0
 40
0.0094081917505271
 50
233.2594059553894112
 51
250.7382520422814878
  0
ARC
  5
B812
  8
0
 10
2814.5085716867488372
 20
171.3665333771390067
 30
0.0
 40
0.007605307887255
 50
278.1286702426975808
 51
307.8713300771315744
  0
LINE
  5
B813
  8
0
 10
2814.5185322237989567
 20
171.3590044795656979
 30
0.0
 11
2814.5182352475198968
 21
171.3471364604656912
 31
0.0
  0
LINE
  5
B814
  8
0
 10
2814.5079163394348143
 20
171.3590044795656979
 30
0.0
 11
2814.508245775235082
 21
171.3459197861079133
 31
0.0
  0
ARC
  5
B815
  8
0
 10
2814.5152082030990641
 20
171.3472860340409056
 30
0.0
 40
0.0030307375636774
 50
328.0169093283275856
 51
357.1711779395207031
  0
ARC
  5
B816
  8
0
 10
2814.5132264568401297
 20
171.3485778130780943
 30
0.0
 40
0.0053960750933579
 50
294.3597377858267237
 51
327.5282264266742231
  0
ARC
  5
B817
  8
0
 10
2814.51241587584218
 20
171.3499562443346917
 30
0.0
 40
0.0069881903217736
 50
264.8970049858539255
 51
295.7525819569497116
  0
ARC
  5
B818
  8
0
 10
2814.5120629671478127
 20
171.3474236561015971
 30
0.0
 40
0.0044360470388848
 50
225.7545833363408008
 51
266.527804942545572
  0
ARC
  5
B819
  8
0
 10
2814.5108339941430131
 20
171.3460434858689041
 30
0.0
 40
0.0025911732369388
 50
182.7362775098783914
 51
223.9276935905218977
  0
ARC
  5
B81A
  8
0
 10
2814.4996233595729791
 20
171.3677541853097921
 30
0.0
 40
0.1304750174939839
 50
61.9642172827885602
 51
90.5035276321394946
  0
ARC
  5
B81B
  8
0
 10
2814.5202005181431559
 20
171.406770830196308
 30
0.0
 40
0.0863652551984371
 50
37.5191114197989535
 51
61.8473236227383509
  0
ARC
  5
B81C
  8
0
 10
2814.5422968151260648
 20
171.4236669652316039
 30
0.0
 40
0.0585494128421246
 50
0.9042454495350482
 51
37.5739577337326267
  0
ARC
  5
B81D
  8
0
 10
2814.4965628316917901
 20
171.3078639990031888
 30
0.0
 40
0.195112123003081
 50
80.4046789664242709
 51
90.0160345603975429
  0
ARC
  5
B81E
  8
0
 10
2814.50145849064711
 20
171.3318445031304975
 30
0.0
 40
0.1706530836937127
 50
60.3942411066795515
 51
80.6833139186758643
  0
ARC
  5
B81F
  8
0
 10
2814.5271409484230389
 20
171.3768089410752111
 30
0.0
 40
0.1188711362143747
 50
37.8051465741996608
 51
60.4500294791081316
  0
ARC
  5
B820
  8
0
 10
2814.5570431388391626
 20
171.3997098884846935
 30
0.0
 40
0.0812079803929386
 50
0.9261045265556264
 51
37.9711952152668673
  0
ARC
  5
B821
  8
0
 10
2814.5491309705907952
 20
171.416822748624412
 30
0.0
 40
0.0654903246581104
 50
0.5327586226100057
 51
30.3816914683014296
  0
ARC
  5
B822
  8
0
 10
2814.5267687074501737
 20
171.4024592485577898
 30
0.0
 40
0.092052503304992
 50
31.0546359846724016
 51
56.5424273765338086
  0
ARC
  5
B823
  8
0
 10
2814.5051575202769527
 20
171.3705455081673108
 30
0.0
 40
0.1305933464859088
 50
56.3513898733990928
 51
73.3178885674031875
  0
ARC
  5
B824
  8
0
 10
2814.4901126280560675
 20
171.313942244606892
 30
0.0
 40
0.1891420302841167
 50
73.8743487080778323
 51
88.0622457461547725
  0
ARC
  5
B825
  8
0
 10
2814.5518346857720644
 20
171.3784438233714127
 30
0.0
 40
0.0864548068334077
 50
312.5799233993574262
 51
358.0712379342315899
  0
ARC
  5
B826
  8
0
 10
2814.5107033405638504
 20
171.4224563349876007
 30
0.0
 40
0.1466938090440546
 50
285.632287378222486
 51
312.7778543261002824
  0
ARC
  5
B827
  8
0
 10
2814.4968369775260726
 20
171.4647467849258931
 30
0.0
 40
0.1911664626820854
 50
270.0316258448573876
 51
286.219072868474484
  0
ARC
  5
B828
  8
0
 10
2814.4973758121850551
 20
171.4612508287139008
 30
0.0
 40
0.1542695543063739
 50
269.839065654203921
 51
292.65393053741019
  0
ARC
  5
B829
  8
0
 10
2814.5167069033750522
 20
171.4179918277156958
 30
0.0
 40
0.1069089135436829
 50
292.0226745501516916
 51
320.750737840494196
  0
ARC
  5
B82A
  8
0
 10
2814.5473071250539761
 20
171.3928700631215065
 30
0.0
 40
0.0673177190551782
 50
320.8304850609542882
 51
359.2111646622495869
  0
ARC
  5
B82B
  8
0
 10
2814.4990480206770371
 20
171.4714437523248876
 30
0.0
 40
0.1525419381374211
 50
269.7854195552374108
 51
289.9277887491808769
  0
ARC
  5
B82C
  8
0
 10
2814.5172269772479012
 20
171.4279460843804941
 30
0.0
 40
0.1054770681790178
 50
288.6973856823403253
 51
320.76097971444932
  0
ARC
  5
B82D
  8
0
 10
2814.5457524838247991
 20
171.4037837834829929
 30
0.0
 40
0.0681029330312836
 50
321.3246934148323817
 51
350.3418292980288129
  0
ARC
  5
B82E
  8
0
 10
2814.4988528776789281
 20
171.4598631236428901
 30
0.0
 40
0.1372263551975937
 50
269.842948556189981
 51
285.0477599073329884
  0
ARC
  5
B82F
  8
0
 10
2814.5061965602039891
 20
171.4359833418980088
 30
0.0
 40
0.1122623646954961
 50
284.5924513434781034
 51
305.5015807302676194
  0
ARC
  5
B830
  8
0
 10
2814.5260901435749474
 20
171.4081714487448949
 30
0.0
 40
0.0780680195457435
 50
305.4690804973301965
 51
327.3561701861460165
  0
ARC
  5
B831
  8
0
 10
2814.5432716060818166
 20
171.3970667334739062
 30
0.0
 40
0.0576105492010685
 50
327.4383929935240758
 51
355.8936624100434756
  0
ARC
  5
B832
  8
0
 10
2814.5491107323678079
 20
171.4183270147941016
 30
0.0
 40
0.059308099136761
 50
339.4797798573400769
 51
355.0605534117037223
  0
ARC
  5
B833
  8
0
 10
2814.6048410599078125
 20
171.4452961359864958
 30
0.0
 40
0.0027373574132872
 50
85.617478277217657
 51
166.3630934555735905
  0
ARC
  5
B834
  8
0
 10
2814.4991042052101875
 20
171.4482702968975047
 30
0.0
 40
0.1157225514943487
 50
269.6893280287650896
 51
293.0232031367992249
  0
ARC
  5
B835
  8
0
 10
2814.5153161861899207
 20
171.4133425453202904
 30
0.0
 40
0.07724662862839
 50
292.0883936728353092
 51
324.2711420169915755
  0
ARC
  5
B836
  8
0
 10
2814.5367371393640497
 20
171.3971333983496947
 30
0.0
 40
0.0503961769582465
 50
325.0097503748859253
 51
356.8966154086522238
  0
ARC
  5
B837
  8
0
 10
2814.5043245313740954
 20
171.4083018987143987
 30
0.0
 40
0.0152495521412858
 50
305.7797929632736214
 51
328.2638295100952064
  0
ARC
  5
B838
  8
0
 10
2814.5124072706639708
 20
171.4035079220867885
 30
0.0
 40
0.005856274967565
 50
326.5571773843502115
 51
354.3651719128931177
  0
ARC
  5
B839
  8
0
 10
2814.5222220303921858
 20
171.408348430958398
 30
0.0
 40
0.0153256432167427
 50
213.0602865094618892
 51
234.1231396748538032
  0
ARC
  5
B83A
  8
0
 10
2814.5146676095791918
 20
171.4037111343820072
 30
0.0
 40
0.0064688171704399
 50
186.9096720066229977
 51
215.1385771574759929
  0
ARC
  5
B83B
  8
0
 10
2814.5168941147599071
 20
171.3979698315079077
 30
0.0
 40
0.0035652785678729
 50
251.5335004818672076
 51
269.0334162827462023
  0
ARC
  5
B83C
  8
0
 10
2814.5188684262830066
 20
171.4034696669839946
 30
0.0
 40
0.0094081917505271
 50
233.2594059553894112
 51
250.7382520422814878
  0
ARC
  5
B83D
  8
0
 10
2814.5085725218527841
 20
171.4019319904558074
 30
0.0
 40
0.0076032422091332
 50
278.1245366601739875
 51
307.8754636592656766
  0
ARC
  5
B83E
  8
0
 10
2814.5043245313740954
 20
171.4437024795143998
 30
0.0
 40
0.0152495521412858
 50
305.7797929632736214
 51
328.2638295100952064
  0
ARC
  5
B83F
  8
0
 10
2814.5124072706639708
 20
171.4389085028867896
 30
0.0
 40
0.005856274967565
 50
326.5571773843502115
 51
354.3651719128931177
  0
ARC
  5
B840
  8
0
 10
2814.5222220303921858
 20
171.4437490117583991
 30
0.0
 40
0.0153256432167427
 50
213.0602865094618892
 51
234.1231396748538032
  0
ARC
  5
B841
  8
0
 10
2814.5146676095791918
 20
171.4391117151820083
 30
0.0
 40
0.0064688171704399
 50
186.9096720066229977
 51
215.1385771574759929
  0
ARC
  5
B842
  8
0
 10
2814.5168941147599071
 20
171.4333704123079087
 30
0.0
 40
0.0035652785678729
 50
251.5335004818672076
 51
269.0334162827462023
  0
ARC
  5
B843
  8
0
 10
2814.5188684262830066
 20
171.4388702477839956
 30
0.0
 40
0.0094081917505271
 50
233.2594059553894112
 51
250.7382520422814878
  0
ARC
  5
B844
  8
0
 10
2814.5085716859939566
 20
171.4373345399237962
 30
0.0
 40
0.0076053093648651
 50
278.1286743972100908
 51
307.8713286242121967
  0
ARC
  5
B845
  8
0
 10
2814.5043245313740954
 20
171.4791030602144133
 30
0.0
 40
0.0152495521412858
 50
305.7797929632736214
 51
328.2638295100952064
  0
ARC
  5
B846
  8
0
 10
2814.5124072706639708
 20
171.4743090835868031
 30
0.0
 40
0.005856274967565
 50
326.5571773843502115
 51
354.3651719128931177
  0
ARC
  5
B847
  8
0
 10
2814.5222220303921858
 20
171.4791495924584126
 30
0.0
 40
0.0153256432167427
 50
213.0602865094618892
 51
234.1231396748538032
  0
ARC
  5
B848
  8
0
 10
2814.5146676095791918
 20
171.4745122958819934
 30
0.0
 40
0.0064688171704399
 50
186.9096720066229977
 51
215.1385771574759929
  0
ARC
  5
B849
  8
0
 10
2814.5168941147599071
 20
171.4687709930078938
 30
0.0
 40
0.0035652785678729
 50
251.5335004818672076
 51
269.0334162827462023
  0
ARC
  5
B84A
  8
0
 10
2814.5188684262830066
 20
171.4742708284840091
 30
0.0
 40
0.0094081917505271
 50
233.2594059553894112
 51
250.7382520422814878
  0
ARC
  5
B84B
  8
0
 10
2814.5085716859939566
 20
171.4727351206238097
 30
0.0
 40
0.0076053093648774
 50
278.1286743972623867
 51
307.8713286242082177
  0
ARC
  5
B84C
  8
0
 10
2814.4403481534741331
 20
171.4791030602144133
 30
0.0
 40
0.0152495521412858
 50
305.7797929632736214
 51
328.2638295100952064
  0
ARC
  5
B84D
  8
0
 10
2814.4484308927649181
 20
171.4743090835868031
 30
0.0
 40
0.005856274967565
 50
326.5571773843502115
 51
354.3651719128931177
  0
ARC
  5
B84E
  8
0
 10
2814.4582456524922236
 20
171.4791495924584126
 30
0.0
 40
0.0153256432167427
 50
213.0602865094618892
 51
234.1231396748538032
  0
ARC
  5
B84F
  8
0
 10
2814.4506912316787748
 20
171.4745122958819934
 30
0.0
 40
0.0064688171704399
 50
186.9096720066229977
 51
215.1385771574759929
  0
ARC
  5
B850
  8
0
 10
2814.4529177368599449
 20
171.4687709930078938
 30
0.0
 40
0.0035652785678729
 50
251.5335004818672076
 51
269.0334162827462023
  0
ARC
  5
B851
  8
0
 10
2814.4548920483830443
 20
171.4742708284840091
 30
0.0
 40
0.0094081917505271
 50
233.2594059553894112
 51
250.7382520422814878
  0
ARC
  5
B852
  8
0
 10
2814.4445959474651318
 20
171.4727336144293872
 30
0.0
 40
0.0076037278956354
 50
278.1255090320511272
 51
307.8744928424596878
  0
ARC
  5
B853
  8
0
 10
2814.4403481534741331
 20
171.4437024795143998
 30
0.0
 40
0.0152495521412858
 50
305.7797929632736214
 51
328.2638295100952064
  0
ARC
  5
B854
  8
0
 10
2814.4484308927649181
 20
171.4389085028867896
 30
0.0
 40
0.005856274967565
 50
326.5571773843502115
 51
354.3651719128931177
  0
ARC
  5
B855
  8
0
 10
2814.4582456524922236
 20
171.4437490117583991
 30
0.0
 40
0.0153256432167427
 50
213.0602865094618892
 51
234.1231396748538032
  0
ARC
  5
B856
  8
0
 10
2814.4506912316787748
 20
171.4391117151820083
 30
0.0
 40
0.0064688171704399
 50
186.9096720066229977
 51
215.1385771574759929
  0
ARC
  5
B857
  8
0
 10
2814.4529177368599449
 20
171.4333704123079087
 30
0.0
 40
0.0035652785678729
 50
251.5335004818672076
 51
269.0334162827462023
  0
ARC
  5
B858
  8
0
 10
2814.4548920483830443
 20
171.4388702477839956
 30
0.0
 40
0.0094081917505271
 50
233.2594059553894112
 51
250.7382520422814878
  0
ARC
  5
B859
  8
0
 10
2814.4446099009151112
 20
171.4373097019378065
 30
0.0
 40
0.0075767449992355
 50
278.0418365574345216
 51
307.8995226230567255
  0
ARC
  5
B85A
  8
0
 10
2814.4403481534741331
 20
171.4083018987143987
 30
0.0
 40
0.0152495521412858
 50
305.7797929632736214
 51
328.2638295100952064
  0
ARC
  5
B85B
  8
0
 10
2814.4484308927649181
 20
171.4035079220867885
 30
0.0
 40
0.005856274967565
 50
326.5571773843502115
 51
354.3651719128931177
  0
ARC
  5
B85C
  8
0
 10
2814.4582456524922236
 20
171.408348430958398
 30
0.0
 40
0.0153256432167427
 50
213.0602865094618892
 51
234.1231396748538032
  0
ARC
  5
B85D
  8
0
 10
2814.4506912316787748
 20
171.4037111343820072
 30
0.0
 40
0.0064688171704399
 50
186.9096720066229977
 51
215.1385771574759929
  0
ARC
  5
B85E
  8
0
 10
2814.4529177368599449
 20
171.3979698315079077
 30
0.0
 40
0.0035652785678729
 50
251.5335004818672076
 51
269.0334162827462023
  0
ARC
  5
B85F
  8
0
 10
2814.4548920483830443
 20
171.4034696669839946
 30
0.0
 40
0.0094081917505271
 50
233.2594059553894112
 51
250.7382520422814878
  0
ARC
  5
B860
  8
0
 10
2814.4446099009151112
 20
171.4019091211378054
 30
0.0
 40
0.0075767449992355
 50
278.0418365574345216
 51
307.8995226230567255
  0
ARC
  5
B861
  8
0
 10
2814.3763717754741265
 20
171.4791030602144133
 30
0.0
 40
0.0152495521412858
 50
305.7797929632736214
 51
328.2638295100952064
  0
ARC
  5
B862
  8
0
 10
2814.3844545147640019
 20
171.4743090835868031
 30
0.0
 40
0.005856274967565
 50
326.5571773843502115
 51
354.3651719128931177
  0
ARC
  5
B863
  8
0
 10
2814.3942692744922169
 20
171.4791495924584126
 30
0.0
 40
0.0153256432167427
 50
213.0602865094618892
 51
234.1231396748538032
  0
ARC
  5
B864
  8
0
 10
2814.3867148536792229
 20
171.4745122958819934
 30
0.0
 40
0.006468817170448
 50
186.9096720066391129
 51
215.1385771574464059
  0
ARC
  5
B865
  8
0
 10
2814.3889413588599382
 20
171.4687709930078938
 30
0.0
 40
0.0035652785678729
 50
251.5335004818672076
 51
269.0334162827462023
  0
ARC
  5
B866
  8
0
 10
2814.3909156703830377
 20
171.4742708284840091
 30
0.0
 40
0.0094081917505271
 50
233.2594059553894112
 51
250.7382520422814878
  0
ARC
  5
B867
  8
0
 10
2814.3806335229151045
 20
171.4727102826377916
 30
0.0
 40
0.0075767449992355
 50
278.0418365574345216
 51
307.8995226230567255
  0
ARC
  5
B868
  8
0
 10
2814.3763717754741265
 20
171.4437024795143998
 30
0.0
 40
0.0152495521412858
 50
305.7797929632736214
 51
328.2638295100952064
  0
ARC
  5
B869
  8
0
 10
2814.3844545147640019
 20
171.4389085028867896
 30
0.0
 40
0.005856274967565
 50
326.5571773843502115
 51
354.3651719128931177
  0
ARC
  5
B86A
  8
0
 10
2814.3942692744922169
 20
171.4437490117583991
 30
0.0
 40
0.0153256432167427
 50
213.0602865094618892
 51
234.1231396748538032
  0
ARC
  5
B86B
  8
0
 10
2814.3867148536792229
 20
171.4391117151820083
 30
0.0
 40
0.0064688171704399
 50
186.9096720066229977
 51
215.1385771574759929
  0
ARC
  5
B86C
  8
0
 10
2814.3889413588599382
 20
171.4333704123079087
 30
0.0
 40
0.0035652785678729
 50
251.5335004818672076
 51
269.0334162827462023
  0
ARC
  5
B86D
  8
0
 10
2814.3909156703830377
 20
171.4388702477839956
 30
0.0
 40
0.0094081917505271
 50
233.2594059553894112
 51
250.7382520422814878
  0
ARC
  5
B86E
  8
0
 10
2814.3806335229151045
 20
171.4373097019378065
 30
0.0
 40
0.0075767449992355
 50
278.0418365574345216
 51
307.8995226230567255
  0
ARC
  5
B86F
  8
0
 10
2814.3763717754741265
 20
171.4083018987143987
 30
0.0
 40
0.0152495521412858
 50
305.7797929632736214
 51
328.2638295100952064
  0
ARC
  5
B870
  8
0
 10
2814.3844545147640019
 20
171.4035079220867885
 30
0.0
 40
0.005856274967565
 50
326.5571773843502115
 51
354.3651719128931177
  0
ARC
  5
B871
  8
0
 10
2814.3942692744922169
 20
171.408348430958398
 30
0.0
 40
0.0153256432167427
 50
213.0602865094618892
 51
234.1231396748538032
  0
ARC
  5
B872
  8
0
 10
2814.3867148536792229
 20
171.4037111343820072
 30
0.0
 40
0.0064688171704399
 50
186.9096720066229977
 51
215.1385771574759929
  0
ARC
  5
B873
  8
0
 10
2814.3889413588599382
 20
171.3979698315079077
 30
0.0
 40
0.0035652785678729
 50
251.5335004818672076
 51
269.0334162827462023
  0
ARC
  5
B874
  8
0
 10
2814.3909156703830377
 20
171.4034696669839946
 30
0.0
 40
0.0094081917505271
 50
233.2594059553894112
 51
250.7382520422814878
  0
ARC
  5
B875
  8
0
 10
2814.3806335229151045
 20
171.4019091211378054
 30
0.0
 40
0.0075767449992355
 50
278.0418365574345216
 51
307.8995226230567255
  0
ARC
  5
B876
  8
0
 10
2814.3123953975741642
 20
171.4791030602144133
 30
0.0
 40
0.0152495521412858
 50
305.7797929632736214
 51
328.2638295100952064
  0
ARC
  5
B877
  8
0
 10
2814.3204781368649492
 20
171.4743090835868031
 30
0.0
 40
0.005856274967565
 50
326.5571773843502115
 51
354.3651719128931177
  0
ARC
  5
B878
  8
0
 10
2814.3302928965908905
 20
171.4791495924584126
 30
0.0
 40
0.0153256432167427
 50
213.0602865094618892
 51
234.1231396748538032
  0
ARC
  5
B879
  8
0
 10
2814.3227384757788059
 20
171.4745122958819934
 30
0.0
 40
0.0064688171704399
 50
186.9096720066229977
 51
215.1385771574759929
  0
ARC
  5
B87A
  8
0
 10
2814.3249649809599759
 20
171.4687709930078938
 30
0.0
 40
0.0035652785678729
 50
251.5335004818672076
 51
269.0334162827462023
  0
ARC
  5
B87B
  8
0
 10
2814.3269392924821659
 20
171.4742708284840091
 30
0.0
 40
0.0094081917505271
 50
233.2594059553894112
 51
250.7382520422814878
  0
ARC
  5
B87C
  8
0
 10
2814.3166571450151423
 20
171.4727102826377916
 30
0.0
 40
0.0075767449992355
 50
278.0418365574345216
 51
307.8995226230567255
  0
ARC
  5
B87D
  8
0
 10
2814.3123953975741642
 20
171.4437024795143998
 30
0.0
 40
0.0152495521412858
 50
305.7797929632736214
 51
328.2638295100952064
  0
ARC
  5
B87E
  8
0
 10
2814.3204781368649492
 20
171.4389085028867896
 30
0.0
 40
0.005856274967565
 50
326.5571773843502115
 51
354.3651719128931177
  0
ARC
  5
B87F
  8
0
 10
2814.3302928965908905
 20
171.4437490117583991
 30
0.0
 40
0.0153256432167427
 50
213.0602865094618892
 51
234.1231396748538032
  0
ARC
  5
B880
  8
0
 10
2814.3227384757788059
 20
171.4391117151820083
 30
0.0
 40
0.0064688171704399
 50
186.9096720066229977
 51
215.1385771574759929
  0
ARC
  5
B881
  8
0
 10
2814.3249649809599759
 20
171.4333704123079087
 30
0.0
 40
0.0035652785678729
 50
251.5335004818672076
 51
269.0334162827462023
  0
ARC
  5
B882
  8
0
 10
2814.3269392924821659
 20
171.4388702477839956
 30
0.0
 40
0.0094081917505271
 50
233.2594059553894112
 51
250.7382520422814878
  0
ARC
  5
B883
  8
0
 10
2814.3166571450151423
 20
171.4373097019378065
 30
0.0
 40
0.0075767449992355
 50
278.0418365574345216
 51
307.8995226230567255
  0
ARC
  5
B884
  8
0
 10
2814.3123953975741642
 20
171.4083018987143987
 30
0.0
 40
0.0152495521412858
 50
305.7797929632736214
 51
328.2638295100952064
  0
ARC
  5
B885
  8
0
 10
2814.3204781368649492
 20
171.4035079220867885
 30
0.0
 40
0.005856274967565
 50
326.5571773843502115
 51
354.3651719128931177
  0
ARC
  5
B886
  8
0
 10
2814.3302928965908905
 20
171.408348430958398
 30
0.0
 40
0.0153256432167427
 50
213.0602865094618892
 51
234.1231396748538032
  0
ARC
  5
B887
  8
0
 10
2814.3227384757788059
 20
171.4037111343820072
 30
0.0
 40
0.0064688171704399
 50
186.9096720066229977
 51
215.1385771574759929
  0
ARC
  5
B888
  8
0
 10
2814.3249649809599759
 20
171.3979698315079077
 30
0.0
 40
0.0035652785678729
 50
251.5335004818672076
 51
269.0334162827462023
  0
ARC
  5
B889
  8
0
 10
2814.3269392924821659
 20
171.4034696669839946
 30
0.0
 40
0.0094081917505271
 50
233.2594059553894112
 51
250.7382520422814878
  0
ARC
  5
B88A
  8
0
 10
2814.3166433552551098
 20
171.4019320677926999
 30
0.0
 40
0.0076033233908187
 50
278.1246982228008733
 51
307.8753009501260181
  0
ARC
  5
B88B
  8
0
 10
2814.2484190195741576
 20
171.4791030602144133
 30
0.0
 40
0.0152495521412858
 50
305.7797929632736214
 51
328.2638295100952064
  0
ARC
  5
B88C
  8
0
 10
2814.256501758864033
 20
171.4743090835868031
 30
0.0
 40
0.005856274967565
 50
326.5571773843502115
 51
354.3651719128931177
  0
ARC
  5
B88D
  8
0
 10
2814.2663165185917933
 20
171.4791495924584126
 30
0.0
 40
0.0153256432167427
 50
213.0602865094618892
 51
234.1231396748538032
  0
ARC
  5
B88E
  8
0
 10
2814.2587620977787992
 20
171.4745122958819934
 30
0.0
 40
0.0064688171704399
 50
186.9096720066229977
 51
215.1385771574759929
  0
ARC
  5
B88F
  8
0
 10
2814.2609886029599693
 20
171.4687709930078938
 30
0.0
 40
0.0035652785678729
 50
251.5335004818672076
 51
269.0334162827462023
  0
ARC
  5
B890
  8
0
 10
2814.2629629144830687
 20
171.4742708284840091
 30
0.0
 40
0.0094081917505271
 50
233.2594059553894112
 51
250.7382520422814878
  0
ARC
  5
B891
  8
0
 10
2814.252666833515832
 20
171.47273356735829
 30
0.0
 40
0.0076036784913151
 50
278.1254110872627052
 51
307.8745919345961966
  0
ARC
  5
B892
  8
0
 10
2814.2484190195741576
 20
171.4437024795143998
 30
0.0
 40
0.0152495521412858
 50
305.7797929632736214
 51
328.2638295100952064
  0
ARC
  5
B893
  8
0
 10
2814.256501758864033
 20
171.4389085028867896
 30
0.0
 40
0.005856274967565
 50
326.5571773843502115
 51
354.3651719128931177
  0
ARC
  5
B894
  8
0
 10
2814.2663165185917933
 20
171.4437490117583991
 30
0.0
 40
0.0153256432167427
 50
213.0602865094618892
 51
234.1231396748538032
  0
ARC
  5
B895
  8
0
 10
2814.2587620977787992
 20
171.4391117151820083
 30
0.0
 40
0.0064688171704399
 50
186.9096720066229977
 51
215.1385771574759929
  0
ARC
  5
B896
  8
0
 10
2814.2609886029599693
 20
171.4333704123079087
 30
0.0
 40
0.0035652785678729
 50
251.5335004818672076
 51
269.0334162827462023
  0
ARC
  5
B897
  8
0
 10
2814.2629629144830687
 20
171.4388702477839956
 30
0.0
 40
0.0094081917505271
 50
233.2594059553894112
 51
250.7382520422814878
  0
ARC
  5
B898
  8
0
 10
2814.2526669118178688
 20
171.4373328021879956
 30
0.0
 40
0.007603484805747
 50
278.1250234342122098
 51
307.8749795876451003
  0
ARC
  5
B899
  8
0
 10
2814.2484190195741576
 20
171.4083018987143987
 30
0.0
 40
0.0152495521412858
 50
305.7797929632736214
 51
328.2638295100952064
  0
ARC
  5
B89A
  8
0
 10
2814.256501758864033
 20
171.4035079220867885
 30
0.0
 40
0.005856274967565
 50
326.5571773843502115
 51
354.3651719128931177
  0
ARC
  5
B89B
  8
0
 10
2814.2663165185917933
 20
171.408348430958398
 30
0.0
 40
0.0153256432167427
 50
213.0602865094618892
 51
234.1231396748538032
  0
ARC
  5
B89C
  8
0
 10
2814.2587620977787992
 20
171.4037111343820072
 30
0.0
 40
0.0064688171704399
 50
186.9096720066229977
 51
215.1385771574759929
  0
ARC
  5
B89D
  8
0
 10
2814.2609886029599693
 20
171.3979698315079077
 30
0.0
 40
0.0035652785678729
 50
251.5335004818672076
 51
269.0334162827462023
  0
ARC
  5
B89E
  8
0
 10
2814.2629629144830687
 20
171.4034696669839946
 30
0.0
 40
0.0094081917505271
 50
233.2594059553894112
 51
250.7382520422814878
  0
ARC
  5
B89F
  8
0
 10
2814.252666873247108
 20
171.4019323127498069
 30
0.0
 40
0.007603580602889
 50
278.1252139718035892
 51
307.8747863480505771
  0
ARC
  5
B8A0
  8
0
 10
2814.1844426416741953
 20
171.4791030602144133
 30
0.0
 40
0.0152495521412858
 50
305.7797929632736214
 51
328.2638295100952064
  0
ARC
  5
B8A1
  8
0
 10
2814.1925253809649803
 20
171.4743090835868031
 30
0.0
 40
0.005856274967565
 50
326.5571773843502115
 51
354.3651719128931177
  0
ARC
  5
B8A2
  8
0
 10
2814.202340140691831
 20
171.4791495924584126
 30
0.0
 40
0.0153256432167427
 50
213.0602865094618892
 51
234.1231396748538032
  0
ARC
  5
B8A3
  8
0
 10
2814.194785719878837
 20
171.4745122958819934
 30
0.0
 40
0.0064688171704399
 50
186.9096720066229977
 51
215.1385771574759929
  0
ARC
  5
B8A4
  8
0
 10
2814.197012225060007
 20
171.4687709930078938
 30
0.0
 40
0.0035652785678729
 50
251.5335004818672076
 51
269.0334162827462023
  0
ARC
  5
B8A5
  8
0
 10
2814.198986536582197
 20
171.4742708284840091
 30
0.0
 40
0.0094081917505271
 50
233.2594059553894112
 51
250.7382520422814878
  0
ARC
  5
B8A6
  8
0
 10
2814.1887043891151734
 20
171.4727102826377916
 30
0.0
 40
0.0075767449992355
 50
278.0418365574345216
 51
307.8995226230567255
  0
ARC
  5
B8A7
  8
0
 10
2814.1844426416741953
 20
171.4437024795143998
 30
0.0
 40
0.0152495521412858
 50
305.7797929632736214
 51
328.2638295100952064
  0
ARC
  5
B8A8
  8
0
 10
2814.1925253809649803
 20
171.4389085028867896
 30
0.0
 40
0.005856274967565
 50
326.5571773843502115
 51
354.3651719128931177
  0
ARC
  5
B8A9
  8
0
 10
2814.202340140691831
 20
171.4437490117583991
 30
0.0
 40
0.0153256432167427
 50
213.0602865094618892
 51
234.1231396748538032
  0
ARC
  5
B8AA
  8
0
 10
2814.194785719878837
 20
171.4391117151820083
 30
0.0
 40
0.0064688171704399
 50
186.9096720066229977
 51
215.1385771574759929
  0
ARC
  5
B8AB
  8
0
 10
2814.197012225060007
 20
171.4333704123079087
 30
0.0
 40
0.0035652785678729
 50
251.5335004818672076
 51
269.0334162827462023
  0
ARC
  5
B8AC
  8
0
 10
2814.198986536582197
 20
171.4388702477839956
 30
0.0
 40
0.0094081917505271
 50
233.2594059553894112
 51
250.7382520422814878
  0
ARC
  5
B8AD
  8
0
 10
2814.1887043891151734
 20
171.4373097019378065
 30
0.0
 40
0.0075767449992355
 50
278.0418365574345216
 51
307.8995226230567255
  0
ARC
  5
B8AE
  8
0
 10
2814.1844426416741953
 20
171.4083018987143987
 30
0.0
 40
0.0152495521412858
 50
305.7797929632736214
 51
328.2638295100952064
  0
ARC
  5
B8AF
  8
0
 10
2814.1925253809649803
 20
171.4035079220867885
 30
0.0
 40
0.005856274967565
 50
326.5571773843502115
 51
354.3651719128931177
  0
ARC
  5
B8B0
  8
0
 10
2814.202340140691831
 20
171.408348430958398
 30
0.0
 40
0.0153256432167427
 50
213.0602865094618892
 51
234.1231396748538032
  0
ARC
  5
B8B1
  8
0
 10
2814.194785719878837
 20
171.4037111343820072
 30
0.0
 40
0.0064688171704399
 50
186.9096720066229977
 51
215.1385771574759929
  0
ARC
  5
B8B2
  8
0
 10
2814.197012225060007
 20
171.3979698315079077
 30
0.0
 40
0.0035652785678729
 50
251.5335004818672076
 51
269.0334162827462023
  0
ARC
  5
B8B3
  8
0
 10
2814.198986536582197
 20
171.4034696669839946
 30
0.0
 40
0.0094081917505271
 50
233.2594059553894112
 51
250.7382520422814878
  0
ARC
  5
B8B4
  8
0
 10
2814.1886906923059541
 20
171.4019318488149111
 30
0.0
 40
0.0076030934746438
 50
278.1242380090379811
 51
307.8757611638874891
  0
ARC
  5
B8B5
  8
0
 10
2814.1204662636741887
 20
171.4791030602144133
 30
0.0
 40
0.0152495521412858
 50
305.7797929632736214
 51
328.2638295100952064
  0
ARC
  5
B8B6
  8
0
 10
2814.1285490029649736
 20
171.4743090835868031
 30
0.0
 40
0.005856274967565
 50
326.5571773843502115
 51
354.3651719128931177
  0
ARC
  5
B8B7
  8
0
 10
2814.1383637626918244
 20
171.4791495924584126
 30
0.0
 40
0.0153256432167427
 50
213.0602865094618892
 51
234.1231396748538032
  0
ARC
  5
B8B8
  8
0
 10
2814.1308093418788303
 20
171.4745122958819934
 30
0.0
 40
0.0064688171704399
 50
186.9096720066229977
 51
215.1385771574759929
  0
ARC
  5
B8B9
  8
0
 10
2814.1330358470600004
 20
171.4687709930078938
 30
0.0
 40
0.0035652785678729
 50
251.5335004818672076
 51
269.0334162827462023
  0
ARC
  5
B8BA
  8
0
 10
2814.1350101585821903
 20
171.4742708284840091
 30
0.0
 40
0.0094081917505271
 50
233.2594059553894112
 51
250.7382520422814878
  0
ARC
  5
B8BB
  8
0
 10
2814.1247280111151667
 20
171.4727102826377916
 30
0.0
 40
0.0075767449992355
 50
277.9426162940226277
 51
307.8995226230567255
  0
ARC
  5
B8BC
  8
0
 10
2814.1204662636741887
 20
171.4437024795143998
 30
0.0
 40
0.0152495521412858
 50
305.7797929632736214
 51
328.2638295100952064
  0
ARC
  5
B8BD
  8
0
 10
2814.1285490029649736
 20
171.4389085028867896
 30
0.0
 40
0.005856274967565
 50
326.5571773843502115
 51
354.3651719128931177
  0
ARC
  5
B8BE
  8
0
 10
2814.1383637626918244
 20
171.4437490117583991
 30
0.0
 40
0.0153256432167427
 50
213.0602865094618892
 51
234.1231396748538032
  0
ARC
  5
B8BF
  8
0
 10
2814.1308093418788303
 20
171.4391117151820083
 30
0.0
 40
0.0064688171704399
 50
186.9096720066229977
 51
215.1385771574759929
  0
ARC
  5
B8C0
  8
0
 10
2814.1330358470600004
 20
171.4333704123079087
 30
0.0
 40
0.0035652785678729
 50
251.5335004818672076
 51
269.0334162827462023
  0
ARC
  5
B8C1
  8
0
 10
2814.1350101585821903
 20
171.4388702477839956
 30
0.0
 40
0.0094081917505271
 50
233.2594059553894112
 51
250.7382520422814878
  0
ARC
  5
B8C2
  8
0
 10
2814.1247280111151667
 20
171.4373097019378065
 30
0.0
 40
0.0075767449992355
 50
277.9426162940750942
 51
307.8995226230567255
  0
ARC
  5
B8C3
  8
0
 10
2814.1204662636741887
 20
171.4083018987143987
 30
0.0
 40
0.0152495521412858
 50
305.7797929632736214
 51
328.2638295100952064
  0
ARC
  5
B8C4
  8
0
 10
2814.1285490029649736
 20
171.4035079220867885
 30
0.0
 40
0.005856274967565
 50
326.5571773843502115
 51
354.3651719128931177
  0
ARC
  5
B8C5
  8
0
 10
2814.1383637626918244
 20
171.408348430958398
 30
0.0
 40
0.0153256432167427
 50
213.0602865094618892
 51
234.1231396748538032
  0
ARC
  5
B8C6
  8
0
 10
2814.1308093418788303
 20
171.4037111343820072
 30
0.0
 40
0.0064688171704399
 50
186.9096720066229977
 51
215.1385771574759929
  0
ARC
  5
B8C7
  8
0
 10
2814.1330358470600004
 20
171.3979698315079077
 30
0.0
 40
0.0035652785678729
 50
251.5335004818672076
 51
269.0334162827462023
  0
ARC
  5
B8C8
  8
0
 10
2814.1350101585821903
 20
171.4034696669839946
 30
0.0
 40
0.0094081917505271
 50
233.2594059553894112
 51
250.7382520422814878
  0
ARC
  5
B8C9
  8
0
 10
2814.1247280111151667
 20
171.4019091211378054
 30
0.0
 40
0.0075767449992355
 50
277.9426217665553054
 51
307.8995226230567255
  0
ARC
  5
B8CA
  8
0
 10
2814.127182900797834
 20
171.3683409541662002
 30
0.0
 40
0.0027990628629548
 50
182.7175310213214914
 51
221.5103321812468948
  0
ARC
  5
B8CB
  8
0
 10
2814.1285339465989637
 20
171.3695516964635885
 30
0.0
 40
0.0046132142010402
 50
221.6498725733854087
 51
249.8473423423913005
  0
ARC
  5
B8CC
  8
0
 10
2814.1293910969670833
 20
171.3717553351567915
 30
0.0
 40
0.0069773976167231
 50
249.4739526534507945
 51
280.9424164835716056
  0
ARC
  5
B8CD
  8
0
 10
2814.1298605166780362
 20
171.3701320373288866
 30
0.0
 40
0.0052967104367526
 50
279.2898825068216979
 51
312.3679466776465006
  0
ARC
  5
B8CE
  8
0
 10
2814.1314918903967737
 20
171.3683621351169108
 30
0.0
 40
0.0028897116141665
 50
312.1182396918314907
 51
356.9472937666575945
  0
ARC
  5
B8CF
  8
0
 10
2814.1911592787978407
 20
171.3683409541662002
 30
0.0
 40
0.0027990628629548
 50
182.7175310213214914
 51
221.5103321812468948
  0
ARC
  5
B8D0
  8
0
 10
2814.1925103245989703
 20
171.3695516964635885
 30
0.0
 40
0.0046132142010402
 50
221.6498725733854087
 51
249.8473423423913005
  0
ARC
  5
B8D1
  8
0
 10
2814.1933674749670899
 20
171.3717553351567915
 30
0.0
 40
0.0069773976167231
 50
249.4739526534507945
 51
280.9424164835716056
  0
ARC
  5
B8D2
  8
0
 10
2814.1938368946771334
 20
171.3701320373288866
 30
0.0
 40
0.0052967104367526
 50
279.2898825068216979
 51
312.3679466776465006
  0
ARC
  5
B8D3
  8
0
 10
2814.1954682683967803
 20
171.3683621351169108
 30
0.0
 40
0.0028897116141665
 50
312.1182396918314907
 51
356.9472937666575945
  0
ARC
  5
B8D4
  8
0
 10
2814.2551356566978029
 20
171.3683409541662002
 30
0.0
 40
0.0027990628629548
 50
182.7175310213214914
 51
221.5103321812468948
  0
ARC
  5
B8D5
  8
0
 10
2814.2564867024989326
 20
171.3695516964635885
 30
0.0
 40
0.0046132142010402
 50
221.6498725733854087
 51
249.8473423423913005
  0
ARC
  5
B8D6
  8
0
 10
2814.2573438528670522
 20
171.3717553351567915
 30
0.0
 40
0.0069773976167231
 50
249.4739526534507945
 51
280.9424164835716056
  0
ARC
  5
B8D7
  8
0
 10
2814.2578132725780051
 20
171.3701320373288866
 30
0.0
 40
0.0052967104367526
 50
279.2898825068216979
 51
312.3679466776465006
  0
ARC
  5
B8D8
  8
0
 10
2814.2594446462971973
 20
171.3683621351169108
 30
0.0
 40
0.0028897116141665
 50
312.1182396918314907
 51
356.9472937666575945
  0
ARC
  5
B8D9
  8
0
 10
2814.3191120346978096
 20
171.3683409541662002
 30
0.0
 40
0.0027990628629548
 50
182.7175310213214914
 51
221.5103321812468948
  0
ARC
  5
B8DA
  8
0
 10
2814.3204630804989392
 20
171.3695516964635885
 30
0.0
 40
0.0046132142010402
 50
221.6498725733854087
 51
249.8473423423913005
  0
ARC
  5
B8DB
  8
0
 10
2814.3213202308670589
 20
171.3717553351567915
 30
0.0
 40
0.0069773976167231
 50
249.4739526534507945
 51
280.9424164835716056
  0
ARC
  5
B8DC
  8
0
 10
2814.3217896505771023
 20
171.3701320373288866
 30
0.0
 40
0.0052967104367526
 50
279.2898825068216979
 51
312.3679466776465006
  0
ARC
  5
B8DD
  8
0
 10
2814.323421024297204
 20
171.3683621351169108
 30
0.0
 40
0.0028897116141665
 50
312.1182396918314907
 51
356.9472937666575945
  0
ARC
  5
B8DE
  8
0
 10
2814.3830884125982266
 20
171.3683409541662002
 30
0.0
 40
0.0027990628629548
 50
182.7175310213214914
 51
221.5103321812468948
  0
ARC
  5
B8DF
  8
0
 10
2814.3844394583989015
 20
171.3695516964635885
 30
0.0
 40
0.0046132142010402
 50
221.6498725733854087
 51
249.8473423423913005
  0
ARC
  5
B8E0
  8
0
 10
2814.3852966087670211
 20
171.3717553351567915
 30
0.0
 40
0.0069773976167231
 50
249.4739526534507945
 51
280.9424164835716056
  0
ARC
  5
B8E1
  8
0
 10
2814.385766028477974
 20
171.3701320373288866
 30
0.0
 40
0.0052967104367526
 50
279.2898825068216979
 51
312.3679466776465006
  0
ARC
  5
B8E2
  8
0
 10
2814.3873974021971662
 20
171.3683621351169108
 30
0.0
 40
0.0028897116141665
 50
312.1182396918314907
 51
356.9472937666575945
  0
ARC
  5
B8E3
  8
0
 10
2814.4405853043322168
 20
171.3727028856418997
 30
0.0
 40
0.0149422688660855
 50
312.0978177161271105
 51
328.8295720240785727
  0
ARC
  5
B8E4
  8
0
 10
2814.4483476061200236
 20
171.3681455982986108
 30
0.0
 40
0.0059429906142096
 50
327.689017895930192
 51
354.0769625008977073
  0
ARC
  5
B8E5
  8
0
 10
2814.4530356152981767
 20
171.3633021666582863
 30
0.0
 40
0.0043013725955084
 50
247.7372996884274983
 51
267.628006485033211
  0
ARC
  5
B8E6
  8
0
 10
2814.4553465699341359
 20
171.3688086483957136
 30
0.0
 40
0.0102730303868084
 50
233.6953829505604858
 51
247.4442850884082929
  0
ARC
  5
B8E7
  8
0
 10
2814.4578212965830062
 20
171.3726164125127127
 30
0.0
 40
0.0147899844456389
 50
213.1446654075836875
 51
228.071860256641088
  0
ARC
  5
B8E8
  8
0
 10
2814.4540781928899378
 20
171.3700637676824954
 30
0.0
 40
0.0102606412890358
 50
202.4176425652917999
 51
212.6379025360211017
  0
ARC
  5
B8E9
  8
0
 10
2814.4489194721759304
 20
171.3678927840558117
 30
0.0
 40
0.0046640247473475
 50
184.4325063465342964
 51
201.930977840066987
  0
ARC
  5
B8EA
  8
0
 10
2814.4435239516751608
 20
171.3682981491361943
 30
0.0
 40
0.0096590235745235
 50
291.5624325002323189
 51
306.4614488962467931
  0
ARC
  5
B8EB
  8
0
 10
2814.4454102774429884
 20
171.3635052330897111
 30
0.0
 40
0.0045082799824923
 50
273.3112194501908903
 51
291.6533211411637012
  0
ARC
  5
B8EC
  8
0
 10
2814.4449241858619644
 20
171.3600610255734011
 30
0.0
 40
0.0010567051438586
 50
252.5746757764752886
 51
269.0056238897794856
  0
ARC
  5
B8ED
  8
0
 10
2814.4453894900898376
 20
171.3613004177410915
 30
0.0
 40
0.0023796741781214
 50
230.7389506790134988
 51
250.8216095352771049
  0
ARC
  5
B8EE
  8
0
 10
2814.4493538853130303
 20
171.3659010658550983
 30
0.0
 40
0.0084521832007086
 50
212.0922511116064015
 51
229.6680177226762964
  0
ARC
  5
B8EF
  8
0
 10
2814.4554604953377748
 20
171.3700585975662989
 30
0.0
 40
0.0158369336121943
 50
198.351524846001098
 51
213.0976721055185124
  0
ARC
  5
B8F0
  8
0
 10
2814.4489643626889119
 20
171.3680203087004941
 30
0.0
 40
0.0090301072095185
 50
183.0977431339792076
 51
199.0536462099514097
  0
ARC
  5
B8F1
  8
0
 10
2814.473027028038814
 20
171.3719335568067947
 30
0.0
 40
0.0306731934422362
 50
204.9299969731850979
 51
225.0045487274848028
  0
ARC
  5
B8F2
  8
0
 10
2814.4565504397151017
 20
171.3555471715793033
 30
0.0
 40
0.00743585674902
 50
225.5102417923077098
 51
240.763913333261911
  0
ARC
  5
B8F3
  8
0
 10
2814.4541164465358634
 20
171.3515617770314918
 30
0.0
 40
0.0027750364214588
 50
244.4298702666129088
 51
257.7542112019597766
  0
ARC
  5
B8F4
  8
0
 10
2814.4535851414598255
 20
171.3494765930369113
 30
0.0
 40
0.0006293248654626
 50
264.7763187399269782
 51
327.6072261299984802
  0
ARC
  5
B8F5
  8
0
 10
2814.4529046245370409
 20
171.3497454120345083
 30
0.0
 40
0.0013549646739018
 50
333.4348314623592842
 51
358.1324772685970856
  0
ENDSEC
  0
EOF
