  0
SECTION
  2
HEADER
  9
$ACADVER
  1
AC1009
  9
$INSBASE
 10
2815.0710794784590689
 20
171.0188435320092992
 30
0.0
  9
$EXTMIN
 10
2814.1261975887091467
 20
163.427479904232996
 30
0.0
  9
$EXTMAX
 10
2816.0159613683090356
 20
172.5214529104341921
 30
0.0
  9
$LIMMIN
 10
0.0
 20
0.0
  9
$LIMMAX
 10
11.6929133858000007
 20
8.2677165353999982
  9
$ORTHOMODE
 70
     0
  9
$REGENMODE
 70
     1
  9
$FILLMODE
 70
     1
  9
$QTEXTMODE
 70
     0
  9
$MIRRTEXT
 70
     0
  9
$DRAGMODE
 70
     2
  9
$LTSCALE
 40
0.6431102362
  9
$OSMODE
 70
   575
  9
$ATTMODE
 70
     1
  9
$TEXTSIZE
 40
0.2
  9
$TRACEWID
 40
0.05
  9
$TEXTSTYLE
  7
STANDARD
  9
$CLAYER
  8
0
  9
$CELTYPE
  6
BYLAYER
  9
$CECOLOR
 62
   256
  9
$DIMSCALE
 40
1.0
  9
$DIMASZ
 40
0.1875
  9
$DIMEXO
 40
0.0625
  9
$DIMDLI
 40
0.4443307087
  9
$DIMRND
 40
0.0
  9
$DIMDLE
 40
0.0
  9
$DIMEXE
 40
0.125
  9
$DIMTP
 40
0.01
  9
$DIMTM
 40
0.01
  9
$DIMTXT
 40
2.0
  9
$DIMCEN
 40
0.1052362205
  9
$DIMTSZ
 40
0.0
  9
$DIMTOL
 70
     1
  9
$DIMLIM
 70
     0
  9
$DIMTIH
 70
     1
  9
$DIMTOH
 70
     1
  9
$DIMSE1
 70
     0
  9
$DIMSE2
 70
     0
  9
$DIMTAD
 70
     0
  9
$DIMZIN
 70
     0
  9
$DIMBLK
  1

  9
$DIMASO
 70
     1
  9
$DIMSHO
 70
     1
  9
$DIMPOST
  1
\X
  9
$DIMAPOST
  1

  9
$DIMALT
 70
     1
  9
$DIMALTD
 70
     2
  9
$DIMALTF
 40
25.3999999999999986
  9
$DIMLFAC
 40
1.0
  9
$DIMTOFL
 70
     0
  9
$DIMTVP
 40
0.0
  9
$DIMTIX
 70
     0
  9
$DIMSOXD
 70
     0
  9
$DIMSAH
 70
     0
  9
$DIMBLK1
  1

  9
$DIMBLK2
  1

  9
$DIMSTYLE
  2
STANDARD
  9
$DIMCLRD
 70
     0
  9
$DIMCLRE
 70
     0
  9
$DIMCLRT
 70
     0
  9
$DIMTFAC
 40
1.0
  9
$DIMGAP
 40
0.09
  9
$LUNITS
 70
     2
  9
$LUPREC
 70
     4
  9
$SKETCHINC
 40
0.1
  9
$FILLETRAD
 40
0.0
  9
$AUNITS
 70
     0
  9
$AUPREC
 70
     0
  9
$MENU
  1
.
  9
$ELEVATION
 40
0.0
  9
$PELEVATION
 40
0.0
  9
$THICKNESS
 40
0.0
  9
$LIMCHECK
 70
     0
  9
$BLIPMODE
 70
     0
  9
$CHAMFERA
 40
0.0
  9
$CHAMFERB
 40
0.0
  9
$SKPOLY
 70
     0
  9
$TDCREATE
 40
2458060.468368056230247
  9
$TDUPDATE
 40
2459668.7644907408393919
  9
$TDINDWG
 40
1.0817778935
  9
$TDUSRTIMER
 40
1.0817778935
  9
$USRTIMER
 70
     1
  9
$ANGBASE
 50
0.0
  9
$ANGDIR
 70
     0
  9
$PDMODE
 70
     0
  9
$PDSIZE
 40
0.3125
  9
$PLINEWID
 40
0.0
  9
$COORDS
 70
     1
  9
$SPLFRAME
 70
     0
  9
$SPLINETYPE
 70
     6
  9
$SPLINESEGS
 70
     8
  9
$ATTDIA
 70
     1
  9
$ATTREQ
 70
     1
  9
$HANDLING
 70
     1
  9
$HANDSEED
  5
B6F1
  9
$SURFTAB1
 70
     6
  9
$SURFTAB2
 70
     6
  9
$SURFTYPE
 70
     6
  9
$SURFU
 70
     6
  9
$SURFV
 70
     6
  9
$UCSNAME
  2

  9
$UCSORG
 10
0.0
 20
0.0
 30
0.0
  9
$UCSXDIR
 10
1.0
 20
0.0
 30
0.0
  9
$UCSYDIR
 10
0.0
 20
1.0
 30
0.0
  9
$PUCSNAME
  2

  9
$PUCSORG
 10
0.0
 20
0.0
 30
0.0
  9
$PUCSXDIR
 10
1.0
 20
0.0
 30
0.0
  9
$PUCSYDIR
 10
0.0
 20
1.0
 30
0.0
  9
$USERI1
 70
     0
  9
$USERI2
 70
     0
  9
$USERI3
 70
     0
  9
$USERI4
 70
     0
  9
$USERI5
 70
     0
  9
$USERR1
 40
0.0
  9
$USERR2
 40
0.0
  9
$USERR3
 40
0.0
  9
$USERR4
 40
0.0
  9
$USERR5
 40
0.0
  9
$WORLDVIEW
 70
     1
  9
$SHADEDGE
 70
     3
  9
$SHADEDIF
 70
    70
  9
$TILEMODE
 70
     1
  9
$MAXACTVP
 70
    64
  9
$PLIMCHECK
 70
     0
  9
$PEXTMIN
 10
1.0000000000000000E+20
 20
1.0000000000000000E+20
 30
1.0000000000000000E+20
  9
$PEXTMAX
 10
-1.0000000000000000E+20
 20
-1.0000000000000000E+20
 30
-1.0000000000000000E+20
  9
$PLIMMIN
 10
0.0
 20
0.0
  9
$PLIMMAX
 10
12.0
 20
9.0
  9
$UNITMODE
 70
     0
  9
$VISRETAIN
 70
     1
  9
$PLINEGEN
 70
     0
  9
$PSLTSCALE
 70
     1
  0
ENDSEC
  0
SECTION
  2
TABLES
  0
TABLE
  2
VPORT
 70
     1
  0
VPORT
  2
*ACTIVE
 70
     0
 10
0.0
 20
0.0
 11
1.0
 21
1.0
 12
505.689945269701127
 22
29.0942384761496697
 13
0.0
 23
0.0
 14
1.0
 24
1.0
 15
0.0
 25
0.0
 16
0.0
 26
0.0
 36
14.15189873613655
 17
2311.2252197265629547
 27
137.8012416672862912
 37
0.0
 40
13.5756088548026597
 41
2.2268786127167619
 42
50.0
 43
0.0
 44
0.0
 50
0.0
 51
0.0
 71
     0
 72
   100
 73
     1
 74
     1
 75
     0
 76
     0
 77
     0
 78
     0
  0
ENDTAB
  0
TABLE
  2
LTYPE
 70
     2
  0
LTYPE
  2
CONTINUOUS
 70
     0
  3
Solid line
 72
    65
 73
     0
 40
0.0
  0
LTYPE
  2
PHANTOM2
 70
     0
  3
___ _ _ ___ _ _ ___ _ _ ___ _ _
 72
    65
 73
     6
 40
1.25
 49
0.625
 49
-0.125
 49
0.125
 49
-0.125
 49
0.125
 49
-0.125
  0
ENDTAB
  0
TABLE
  2
LAYER
 70
     2
  0
LAYER
  2
0
 70
     0
 62
   255
  6
CONTINUOUS
  0
LAYER
  2
DEFPOINTS
 70
     0
 62
     7
  6
CONTINUOUS
  0
ENDTAB
  0
TABLE
  2
STYLE
 70
     1
  0
STYLE
  2
STANDARD
 70
     0
 40
0.0
 41
0.8
 50
0.0
 71
     0
 42
0.2
  3
txt
  4

  0
ENDTAB
  0
TABLE
  2
VIEW
 70
     0
  0
ENDTAB
  0
TABLE
  2
UCS
 70
     0
  0
ENDTAB
  0
TABLE
  2
APPID
 70
    10
  0
APPID
  2
ACAD
 70
     0
  0
APPID
  2
ACAD_MLEADERVER
 70
     0
  0
APPID
  2
ACAD_EXEMPT_FROM_CAD_STANDARDS
 70
     0
  0
APPID
  2
ACAD_NAV_VCDISPLAY
 70
     0
  0
APPID
  2
ACAECLAYERSTANDARD
 70
     0
  0
APPID
  2
ACCMTRANSPARENCY
 70
     0
  0
APPID
  2
ACAD_DSTYLE_DIMJAG
 70
     0
  0
APPID
  2
ACAD_DSTYLE_DIMTALN
 70
     0
  0
APPID
  2
ACDBATTR
 70
     0
  0
APPID
  2
DCO15
 70
     0
  0
ENDTAB
  0
TABLE
  2
DIMSTYLE
 70
     1
  0
DIMSTYLE
  2
STANDARD
 70
     0
  3

  4

  5

  6

  7

 40
1.0
 41
0.1875
 42
0.0625
 43
0.38
 44
0.125
 45
0.0
 46
0.0
 47
0.01
 48
0.01
140
0.15625
141
0.09
142
0.0
143
25.3999999999999986
144
1.0
145
0.0
146
1.0
147
0.09
 71
     1
 72
     0
 73
     1
 74
     1
 75
     0
 76
     0
 77
     0
 78
     4
170
     0
171
     2
172
     0
173
     0
174
     0
175
     0
176
     0
177
     0
178
     0
  0
ENDTAB
  0
ENDSEC
  0
SECTION
  2
BLOCKS
  0
BLOCK
  8
0
  2
$MODEL_SPACE
 70
     0
 10
0.0
 20
0.0
 30
0.0
  3
$MODEL_SPACE
  1

  0
ENDBLK
  5
21
  8
0
  0
BLOCK
 67
     1
  8
0
  2
$PAPER_SPACE
 70
     0
 10
0.0
 20
0.0
 30
0.0
  3
$PAPER_SPACE
  1

  0
ENDBLK
  5
1D
 67
     1
  8
0
  0
ENDSEC
  0
SECTION
  2
ENTITIES
  0
ATTDEF
  5
3930
  8
DEFPOINTS
 10
2815.0713701151789792
 20
171.0177652546393858
 30
0.0
 40
0.001
  1
K-EX28097K-4
  3

  2
MODELNUMBER
 70
     0
1001
ACDBATTR
1070
     0
1070
     1
  0
ATTDEF
  5
3931
  8
DEFPOINTS
 10
2815.0713701151789792
 20
171.0160985879728059
 30
0.0
 40
0.001
  1
COMPONENTS
  3

  2
TRADENAME
 70
     0
1001
ACDBATTR
1070
     0
1070
     1
  0
ATTDEF
  5
3932
  8
DEFPOINTS
 10
2815.0713701151789792
 20
171.0144319213061124
 30
0.0
 40
0.001
  1
BATHROOM SINK FAUCET
  3

  2
PRODUCT
 70
     0
1001
ACDBATTR
1070
     0
1070
     1
  0
LINE
  5
B5C7
  8
0
 10
2814.4559219981088063
 20
163.4274804989593122
 30
0.0
 11
2815.6862369588088768
 21
163.4274804989593122
 31
0.0
  0
LINE
  5
B5C8
  8
0
 10
2815.641945620208844
 20
168.2038829019593038
 30
0.0
 11
2814.5002133367088391
 21
168.2038829019593038
 31
0.0
  0
LINE
  5
B5C9
  8
0
 10
2814.4460794785090911
 20
163.434317687659302
 30
0.0
 11
2814.4460794785090911
 21
170.471621565911704
 31
0.0
  0
LINE
  5
B5CA
  8
0
 10
2814.4805282974089096
 20
168.2235679413593914
 30
0.0
 11
2814.4805282974089096
 21
170.4089248947593092
 31
0.0
  0
LINE
  5
B5CB
  8
0
 10
2814.9332842029089079
 20
172.1952305849426068
 30
0.0
 11
2814.9332842029089079
 21
172.3936727722426099
 31
0.0
  0
LINE
  5
B5CC
  8
0
 10
2815.0021818407089995
 20
172.084564508668393
 30
0.0
 11
2815.0021818407089995
 21
171.8427394492591134
 31
0.0
  0
LINE
  5
B5CD
  8
0
 10
2815.1399771162091383
 20
172.0847034567412095
 30
0.0
 11
2815.1399771162091383
 21
171.8427394492591134
 31
0.0
  0
LINE
  5
B5CE
  8
0
 10
2815.2088747540087752
 20
172.1952305850425944
 30
0.0
 11
2815.2088747540087752
 21
172.3936727716425992
 31
0.0
  0
LINE
  5
B5CF
  8
0
 10
2815.661630659608818
 20
170.4089248947593092
 30
0.0
 11
2815.661630659608818
 21
168.2235679413593914
 31
0.0
  0
LINE
  5
B5D0
  8
0
 10
2815.6960794785090911
 20
163.434317687659302
 30
0.0
 11
2815.6960794785090911
 21
170.471621565911704
 31
0.0
  0
ARC
  5
B5D1
  8
0
 10
2814.5002133367088391
 20
168.2235679413593914
 30
0.0
 40
0.0196850394
 50
180.0
 51
270.0
  0
ARC
  5
B5D2
  8
0
 10
2815.641945620208844
 20
168.2235679413593914
 30
0.0
 40
0.0196850394
 50
270.0
 51
0.0
  0
ARC
  5
B5D3
  8
0
 10
2815.0710794785090911
 20
171.0188435319593907
 30
0.0
 40
0.9448818898
 50
94.1815282732333685
 51
228.5888113638359869
  0
ARC
  5
B5D4
  8
0
 10
2815.0710794785090911
 20
171.0188435319593907
 30
0.0
 40
0.9448818898
 50
311.4111886361640131
 51
85.8184717328535953
  0
ARC
  5
B5D5
  8
0
 10
2815.0710794785090911
 20
171.0188435319593907
 30
0.0
 40
0.8307086613999999
 50
94.7574845750513504
 51
222.4149249061989906
  0
ARC
  5
B5D6
  8
0
 10
2815.0710794785090911
 20
171.0188435319593907
 30
0.0
 40
0.8307086613999999
 50
316.048997352694812
 51
85.2425154318769955
  0
ARC
  5
B5D7
  8
0
 10
2815.7357259265158973
 20
170.4097929584796134
 30
0.0
 40
0.0741003517366548
 50
153.9831223986398072
 51
180.6712184762606057
  0
ARC
  5
B5D8
  8
0
 10
2814.4529950941841889
 20
163.435109955783588
 30
0.0
 40
0.0069608497283929
 50
186.5354383087831991
 51
248.9276174941659008
  0
ARC
  5
B5D9
  8
0
 10
2814.4558368986758978
 20
163.4406377287448038
 30
0.0
 40
0.0131575049891934
 50
246.0337525261529947
 51
270.3705772736623771
  0
ARC
  5
B5DA
  8
0
 10
2815.6863607562349898
 20
163.4403649551288993
 30
0.0
 40
0.0128850508958838
 50
269.4495032109390991
 51
297.1781866114221202
  0
ARC
  5
B5DB
  8
0
 10
2815.6887861860618614
 20
163.435819400588997
 30
0.0
 40
0.0077339604733288
 50
296.5750279170522958
 51
327.1991053992234129
  0
ARC
  5
B5DC
  8
0
 10
2815.6907807486659294
 20
163.4344435006246954
 30
0.0
 40
0.0053126042895671
 50
328.0190730831849919
 51
348.3506950248519161
  0
ARC
  5
B5DD
  8
0
 10
2815.6912748004410787
 20
163.4343242625189987
 30
0.0
 40
0.0048046825661111
 50
348.553690810007879
 51
359.9215948563804091
  0
ARC
  5
B5DE
  8
0
 10
2815.0588207406422043
 20
172.1970303840554095
 30
0.0
 40
0.1255494387993987
 50
180.8213849969804983
 51
232.5607864921537953
  0
ARC
  5
B5DF
  8
0
 10
2815.0710795491099816
 20
172.2136435212698018
 30
0.0
 40
0.1461930744188263
 50
232.704217024626189
 51
307.2957133616416172
  0
ARC
  5
B5E0
  8
0
 10
2815.08452317953288
 20
172.1964345316505955
 30
0.0
 40
0.1243574025223971
 50
307.1725878530868954
 51
359.4452912683431123
  0
ARC
  5
B5E1
  8
0
 10
2815.07107947848408
 20
172.4050998261369898
 30
0.0
 40
0.1382682737704668
 50
184.7405636822686006
 51
355.2594360683028754
  0
ARC
  5
B5E2
  8
0
 10
2815.0710794784590689
 20
172.38326515221911
 30
0.0
 40
0.1381877582151773
 50
4.3193254556097784
 51
175.6806745443803948
  0
ARC
  5
B5E3
  8
0
 10
2814.3579904344592251
 20
170.3827650175290103
 30
0.0
 40
0.1252991102637188
 50
12.0508335094238301
 51
37.2081374301080601
  0
ARC
  5
B5E5
  8
0
 10
2815.0710794784590689
 20
171.0188435320092992
 30
0.0
 40
0.8267716534500024
 50
317.6573945410524971
 51
222.3426054542734107
  0
ARC
  5
B5E6
  8
0
 10
2814.4017881389590912
 20
170.4089248945911947
 30
0.0
 40
0.0787401583995399
 50
0.0000002927356067
 51
42.3426050994326673
  0
ARC
  5
B5E7
  8
0
 10
2815.7382781837209222
 20
170.4106115314050953
 30
0.0
 40
0.0760575480190367
 50
137.5346976659106986
 51
155.3807734245054917
  0
ENDSEC
  0
EOF
