  0
SECTION
  2
HEADER
  9
$ACADVER
  1
AC1009
  9
$INSBASE
 10
2810.0339125863069967
 20
159.1657281077071957
 30
0.0
  9
$EXTMIN
 10
2809.0890306965561649
 20
159.1657281077071957
 30
0.0
  9
$EXTMAX
 10
2810.9787944760569189
 20
170.4058855888675055
 30
0.0
  9
$LIMMIN
 10
0.0
 20
0.0
  9
$LIMMAX
 10
11.6929133858000007
 20
8.2677165353999982
  9
$ORTHOMODE
 70
     0
  9
$REGENMODE
 70
     1
  9
$FILLMODE
 70
     1
  9
$QTEXTMODE
 70
     0
  9
$MIRRTEXT
 70
     0
  9
$DRAGMODE
 70
     2
  9
$LTSCALE
 40
0.6431102362
  9
$OSMODE
 70
   575
  9
$ATTMODE
 70
     1
  9
$TEXTSIZE
 40
0.2
  9
$TRACEWID
 40
0.05
  9
$TEXTSTYLE
  7
STANDARD
  9
$CLAYER
  8
0
  9
$CELTYPE
  6
BYLAYER
  9
$CECOLOR
 62
   256
  9
$DIMSCALE
 40
1.0
  9
$DIMASZ
 40
0.1875
  9
$DIMEXO
 40
0.0625
  9
$DIMDLI
 40
0.4443307087
  9
$DIMRND
 40
0.0
  9
$DIMDLE
 40
0.0
  9
$DIMEXE
 40
0.125
  9
$DIMTP
 40
0.01
  9
$DIMTM
 40
0.01
  9
$DIMTXT
 40
2.0
  9
$DIMCEN
 40
0.1052362205
  9
$DIMTSZ
 40
0.0
  9
$DIMTOL
 70
     1
  9
$DIMLIM
 70
     0
  9
$DIMTIH
 70
     1
  9
$DIMTOH
 70
     1
  9
$DIMSE1
 70
     0
  9
$DIMSE2
 70
     0
  9
$DIMTAD
 70
     0
  9
$DIMZIN
 70
     0
  9
$DIMBLK
  1

  9
$DIMASO
 70
     1
  9
$DIMSHO
 70
     1
  9
$DIMPOST
  1
\X
  9
$DIMAPOST
  1

  9
$DIMALT
 70
     1
  9
$DIMALTD
 70
     2
  9
$DIMALTF
 40
25.3999999999999986
  9
$DIMLFAC
 40
1.0
  9
$DIMTOFL
 70
     0
  9
$DIMTVP
 40
0.0
  9
$DIMTIX
 70
     0
  9
$DIMSOXD
 70
     0
  9
$DIMSAH
 70
     0
  9
$DIMBLK1
  1

  9
$DIMBLK2
  1

  9
$DIMSTYLE
  2
STANDARD
  9
$DIMCLRD
 70
     0
  9
$DIMCLRE
 70
     0
  9
$DIMCLRT
 70
     0
  9
$DIMTFAC
 40
1.0
  9
$DIMGAP
 40
0.09
  9
$LUNITS
 70
     2
  9
$LUPREC
 70
     4
  9
$SKETCHINC
 40
0.1
  9
$FILLETRAD
 40
0.0
  9
$AUNITS
 70
     0
  9
$AUPREC
 70
     0
  9
$MENU
  1
.
  9
$ELEVATION
 40
0.0
  9
$PELEVATION
 40
0.0
  9
$THICKNESS
 40
0.0
  9
$LIMCHECK
 70
     0
  9
$BLIPMODE
 70
     0
  9
$CHAMFERA
 40
0.0
  9
$CHAMFERB
 40
0.0
  9
$SKPOLY
 70
     0
  9
$TDCREATE
 40
2458060.468368056230247
  9
$TDUPDATE
 40
2459668.7641087961383164
  9
$TDINDWG
 40
1.0810255787
  9
$TDUSRTIMER
 40
1.0810255787
  9
$USRTIMER
 70
     1
  9
$ANGBASE
 50
0.0
  9
$ANGDIR
 70
     0
  9
$PDMODE
 70
     0
  9
$PDSIZE
 40
0.3125
  9
$PLINEWID
 40
0.0
  9
$COORDS
 70
     1
  9
$SPLFRAME
 70
     0
  9
$SPLINETYPE
 70
     6
  9
$SPLINESEGS
 70
     8
  9
$ATTDIA
 70
     1
  9
$ATTREQ
 70
     1
  9
$HANDLING
 70
     1
  9
$HANDSEED
  5
B626
  9
$SURFTAB1
 70
     6
  9
$SURFTAB2
 70
     6
  9
$SURFTYPE
 70
     6
  9
$SURFU
 70
     6
  9
$SURFV
 70
     6
  9
$UCSNAME
  2

  9
$UCSORG
 10
0.0
 20
0.0
 30
0.0
  9
$UCSXDIR
 10
1.0
 20
0.0
 30
0.0
  9
$UCSYDIR
 10
0.0
 20
1.0
 30
0.0
  9
$PUCSNAME
  2

  9
$PUCSORG
 10
0.0
 20
0.0
 30
0.0
  9
$PUCSXDIR
 10
1.0
 20
0.0
 30
0.0
  9
$PUCSYDIR
 10
0.0
 20
1.0
 30
0.0
  9
$USERI1
 70
     0
  9
$USERI2
 70
     0
  9
$USERI3
 70
     0
  9
$USERI4
 70
     0
  9
$USERI5
 70
     0
  9
$USERR1
 40
0.0
  9
$USERR2
 40
0.0
  9
$USERR3
 40
0.0
  9
$USERR4
 40
0.0
  9
$USERR5
 40
0.0
  9
$WORLDVIEW
 70
     1
  9
$SHADEDGE
 70
     3
  9
$SHADEDIF
 70
    70
  9
$TILEMODE
 70
     1
  9
$MAXACTVP
 70
    64
  9
$PLIMCHECK
 70
     0
  9
$PEXTMIN
 10
1.0000000000000000E+20
 20
1.0000000000000000E+20
 30
1.0000000000000000E+20
  9
$PEXTMAX
 10
-1.0000000000000000E+20
 20
-1.0000000000000000E+20
 30
-1.0000000000000000E+20
  9
$PLIMMIN
 10
0.0
 20
0.0
  9
$PLIMMAX
 10
12.0
 20
9.0
  9
$UNITMODE
 70
     0
  9
$VISRETAIN
 70
     1
  9
$PLINEGEN
 70
     0
  9
$PSLTSCALE
 70
     1
  0
ENDSEC
  0
SECTION
  2
TABLES
  0
TABLE
  2
VPORT
 70
     1
  0
VPORT
  2
*ACTIVE
 70
     0
 10
0.0
 20
0.0
 11
1.0
 21
1.0
 12
504.7078977646056046
 22
24.8782193797029905
 13
0.0
 23
0.0
 14
1.0
 24
1.0
 15
0.0
 25
0.0
 16
0.0
 26
0.0
 36
14.15189873613655
 17
2311.2252197265629547
 27
137.8012416672862912
 37
0.0
 40
24.9712914168043412
 41
2.2268786127167619
 42
50.0
 43
0.0
 44
0.0
 50
0.0
 51
0.0
 71
     0
 72
   100
 73
     1
 74
     1
 75
     0
 76
     0
 77
     0
 78
     0
  0
ENDTAB
  0
TABLE
  2
LTYPE
 70
     2
  0
LTYPE
  2
CONTINUOUS
 70
     0
  3
Solid line
 72
    65
 73
     0
 40
0.0
  0
LTYPE
  2
PHANTOM2
 70
     0
  3
___ _ _ ___ _ _ ___ _ _ ___ _ _
 72
    65
 73
     6
 40
1.25
 49
0.625
 49
-0.125
 49
0.125
 49
-0.125
 49
0.125
 49
-0.125
  0
ENDTAB
  0
TABLE
  2
LAYER
 70
     2
  0
LAYER
  2
0
 70
     0
 62
   255
  6
CONTINUOUS
  0
LAYER
  2
DEFPOINTS
 70
     0
 62
     7
  6
CONTINUOUS
  0
ENDTAB
  0
TABLE
  2
STYLE
 70
     1
  0
STYLE
  2
STANDARD
 70
     0
 40
0.0
 41
0.8
 50
0.0
 71
     0
 42
0.2
  3
txt
  4

  0
ENDTAB
  0
TABLE
  2
VIEW
 70
     0
  0
ENDTAB
  0
TABLE
  2
UCS
 70
     0
  0
ENDTAB
  0
TABLE
  2
APPID
 70
    10
  0
APPID
  2
ACAD
 70
     0
  0
APPID
  2
ACAD_MLEADERVER
 70
     0
  0
APPID
  2
ACAD_EXEMPT_FROM_CAD_STANDARDS
 70
     0
  0
APPID
  2
ACAD_NAV_VCDISPLAY
 70
     0
  0
APPID
  2
ACAECLAYERSTANDARD
 70
     0
  0
APPID
  2
ACCMTRANSPARENCY
 70
     0
  0
APPID
  2
ACAD_DSTYLE_DIMJAG
 70
     0
  0
APPID
  2
ACAD_DSTYLE_DIMTALN
 70
     0
  0
APPID
  2
ACDBATTR
 70
     0
  0
APPID
  2
DCO15
 70
     0
  0
ENDTAB
  0
TABLE
  2
DIMSTYLE
 70
     1
  0
DIMSTYLE
  2
STANDARD
 70
     0
  3

  4

  5

  6

  7

 40
1.0
 41
0.1875
 42
0.0625
 43
0.38
 44
0.125
 45
0.0
 46
0.0
 47
0.01
 48
0.01
140
0.15625
141
0.09
142
0.0
143
25.3999999999999986
144
1.0
145
0.0
146
1.0
147
0.09
 71
     1
 72
     0
 73
     1
 74
     1
 75
     0
 76
     0
 77
     0
 78
     4
170
     0
171
     2
172
     0
173
     0
174
     0
175
     0
176
     0
177
     0
178
     0
  0
ENDTAB
  0
ENDSEC
  0
SECTION
  2
BLOCKS
  0
BLOCK
  8
0
  2
$MODEL_SPACE
 70
     0
 10
0.0
 20
0.0
 30
0.0
  3
$MODEL_SPACE
  1

  0
ENDBLK
  5
21
  8
0
  0
BLOCK
 67
     1
  8
0
  2
$PAPER_SPACE
 70
     0
 10
0.0
 20
0.0
 30
0.0
  3
$PAPER_SPACE
  1

  0
ENDBLK
  5
1D
 67
     1
  8
0
  0
ENDSEC
  0
SECTION
  2
ENTITIES
  0
ATTDEF
  5
3930
  8
DEFPOINTS
 10
2810.0338935408249199
 20
159.1692030898744861
 30
0.0
 40
0.001
  1
K-EX28097K-4
  3

  2
MODELNUMBER
 70
     0
1001
ACDBATTR
1070
     0
1070
     1
  0
ATTDEF
  5
3931
  8
DEFPOINTS
 10
2810.0338935408249199
 20
159.1675364232079062
 30
0.0
 40
0.001
  1
COMPONENTS
  3

  2
TRADENAME
 70
     0
1001
ACDBATTR
1070
     0
1070
     1
  0
ATTDEF
  5
3932
  8
DEFPOINTS
 10
2810.0338935408249199
 20
159.1658697565412126
 30
0.0
 40
0.001
  1
BATHROOM SINK FAUCET
  3

  2
PRODUCT
 70
     0
1001
ACDBATTR
1070
     0
1070
     1
  0
LINE
  5
AEBB
  8
0
 10
2809.0890306965561649
 20
159.1657281077071957
 30
0.0
 11
2810.9787944760569189
 21
159.1657281077071957
 31
0.0
  0
LINE
  5
AEBC
  8
0
 10
2809.0973409420571443
 20
159.317913448707202
 30
0.0
 11
2810.9704842305568491
 21
159.317913448707202
 31
0.0
  0
LINE
  5
AEBD
  8
0
 10
2810.8685582556558984
 20
159.3507674778072101
 30
0.0
 11
2809.1992669170567751
 21
159.3507674778072101
 31
0.0
  0
LINE
  5
AEBE
  8
0
 10
2810.8685582556558984
 20
159.3507674778072101
 30
0.0
 11
2810.9704842305568491
 21
159.317913448707202
 31
0.0
  0
LINE
  5
AEBF
  8
0
 10
2809.0890306965561649
 20
159.1657281077071957
 30
0.0
 11
2809.0890306965561649
 21
159.306633163607188
 31
0.0
  0
LINE
  5
AEC0
  8
0
 10
2809.2032039249570516
 20
170.386200548707194
 30
0.0
 11
2809.2032039249570516
 21
169.736594249507192
 31
0.0
  0
LINE
  5
AEC1
  8
0
 10
2809.2032039249570516
 20
169.6263580290072071
 30
0.0
 11
2809.2032039249570516
 21
159.3507674778072101
 31
0.0
  0
LINE
  5
AEC2
  8
0
 10
2809.2287944760569189
 20
169.6592233136072139
 30
0.0
 11
2809.2287944760569189
 21
169.6421060605071887
 31
0.0
  0
LINE
  5
AEC3
  8
0
 10
2809.2996606178558068
 20
169.6381690526071964
 30
0.0
 11
2809.2996606178558068
 21
169.6421060605071887
 31
0.0
  0
LINE
  5
AEC4
  8
0
 10
2809.4972365300559431
 20
167.0945189413072001
 30
0.0
 11
2809.4985841905568122
 21
167.0730972372072074
 31
0.0
  0
LINE
  5
AEC5
  8
0
 10
2809.4985841905568122
 20
167.0730972372072074
 30
0.0
 11
2809.4984795154568928
 21
167.0764263587072094
 31
0.0
  0
LINE
  5
AEC6
  8
0
 10
2809.4971375815571264
 20
167.0977769193071936
 30
0.0
 11
2809.4972365300559431
 21
167.0945189413072001
 31
0.0
  0
LINE
  5
AEC7
  8
0
 10
2809.5810832044571725
 20
167.0476881932071933
 30
0.0
 11
2809.5804199469648665
 21
167.0745609271071999
 31
0.0
  0
LINE
  5
AEC8
  8
0
 10
2809.5810832044571725
 20
167.0830887739072068
 30
0.0
 11
2809.5804199469648665
 21
167.1099615078072134
 31
0.0
  0
LINE
  5
AEC9
  8
0
 10
2809.5810832044571725
 20
167.1184893547072079
 30
0.0
 11
2809.5804199469648665
 21
167.1453620885071985
 31
0.0
  0
LINE
  5
AECA
  8
0
 10
2809.5810832044571725
 20
167.153889935407193
 30
0.0
 11
2809.5807644669448564
 21
167.1668039989820045
 31
0.0
  0
LINE
  5
AECB
  8
0
 10
2809.4089125863570189
 20
168.2070666904072027
 30
0.0
 11
2809.4089125863570189
 21
166.9197516606072043
 31
0.0
  0
LINE
  5
AECC
  8
0
 10
2809.4433614052568373
 20
170.1893501550071903
 30
0.0
 11
2809.4433614052568373
 21
170.386200548707194
 31
0.0
  0
LINE
  5
AECD
  8
0
 10
2809.4610779407571499
 20
167.0811783093072052
 30
0.0
 11
2809.4610779406571055
 21
167.0556898902071907
 31
0.0
  0
LINE
  5
AECE
  8
0
 10
2809.4846999878568568
 20
167.0720991441071988
 30
0.0
 11
2809.4846999878568568
 21
167.0975875614072095
 31
0.0
  0
LINE
  5
AECF
  8
0
 10
2809.4909172194570601
 20
167.0981587601071965
 30
0.0
 11
2809.4909172194570601
 21
167.1248357272102112
 31
0.0
  0
LINE
  5
AED0
  8
0
 10
2809.4971375815571264
 20
167.1260973839071937
 30
0.0
 11
2809.4971375815571264
 21
167.0977769193071936
 31
0.0
  0
LINE
  5
AED1
  8
0
 10
2809.4984795154568928
 20
167.1047468233072095
 30
0.0
 11
2809.4984795154568928
 21
167.0764263587072094
 31
0.0
  0
LINE
  5
AED2
  8
0
 10
2809.5122590429568845
 20
167.0745609271071999
 30
0.0
 11
2809.5122590429568845
 21
167.1047468233072095
 31
0.0
  0
LINE
  5
AED3
  8
0
 10
2809.60084172015695
 20
167.0391603464071864
 30
0.0
 11
2809.60084172015695
 21
167.0127053134071957
 31
0.0
  0
LINE
  5
AED4
  8
0
 10
2809.5914235762638782
 20
167.168107078985912
 30
0.0
 11
2809.5910726768570385
 21
167.153889935407193
 31
0.0
  0
LINE
  5
AED5
  8
0
 10
2809.5917359343488897
 20
167.1453620885071985
 30
0.0
 11
2809.5910726768570385
 21
167.1184893547072079
 31
0.0
  0
LINE
  5
AED6
  8
0
 10
2809.5917359343488897
 20
167.1099615078072134
 30
0.0
 11
2809.5910726768570385
 21
167.0830887739072068
 31
0.0
  0
LINE
  5
AED7
  8
0
 10
2809.5917346774572252
 20
167.0745100025071963
 30
0.0
 11
2809.5910726768570385
 21
167.0476881932071933
 31
0.0
  0
LINE
  5
AED8
  8
0
 10
2809.7083771767679536
 20
167.0745609271071999
 30
0.0
 11
2809.7090354386568833
 21
167.0483641116072135
 31
0.0
  0
LINE
  5
AED9
  8
0
 10
2809.7723535547679603
 20
167.0745609271071999
 30
0.0
 11
2809.77301181665689
 21
167.0483641116072135
 31
0.0
  0
LINE
  5
AEDA
  8
0
 10
2809.836331232656903
 20
167.0745091955072041
 30
0.0
 11
2809.8369881945568522
 21
167.0483641116072135
 31
0.0
  0
LINE
  5
AEDB
  8
0
 10
2809.6450595824571792
 20
167.0476881932071933
 30
0.0
 11
2809.6443963248648288
 21
167.0745609271071999
 31
0.0
  0
LINE
  5
AEDC
  8
0
 10
2809.6450595824571792
 20
167.0830887739072068
 30
0.0
 11
2809.6443975817560386
 21
167.1099105832072098
 31
0.0
  0
LINE
  5
AEDD
  8
0
 10
2809.6450595824571792
 20
167.1184893547072079
 30
0.0
 11
2809.6443963248648288
 21
167.1453620885071985
 31
0.0
  0
LINE
  5
AEDE
  8
0
 10
2809.6450595824571792
 20
167.153889935407193
 30
0.0
 11
2809.6446997781558821
 21
167.1684678686071948
 31
0.0
  0
LINE
  5
AEDF
  8
0
 10
2809.7090359603571414
 20
167.0830887739072068
 30
0.0
 11
2809.7083727028648354
 21
167.1099615078072134
 31
0.0
  0
LINE
  5
AEE0
  8
0
 10
2809.7090359603571414
 20
167.1184893547072079
 30
0.0
 11
2809.7083727028648354
 21
167.1453620885071985
 31
0.0
  0
LINE
  5
AEE1
  8
0
 10
2809.7090359603571414
 20
167.153889935407193
 30
0.0
 11
2809.7086761561567982
 21
167.1684678686071948
 31
0.0
  0
LINE
  5
AEE2
  8
0
 10
2809.7730123383571481
 20
167.0830887739072068
 30
0.0
 11
2809.7723490808648421
 21
167.1099615078072134
 31
0.0
  0
LINE
  5
AEE3
  8
0
 10
2809.7730123383571481
 20
167.1184893547072079
 30
0.0
 11
2809.7723490808648421
 21
167.1453620885071985
 31
0.0
  0
LINE
  5
AEE4
  8
0
 10
2809.7730123383571481
 20
167.153889935407193
 30
0.0
 11
2809.7726525340572152
 21
167.1684678686071948
 31
0.0
  0
LINE
  5
AEE5
  8
0
 10
2809.8369887162571104
 20
167.0830887739072068
 30
0.0
 11
2809.8363254587648044
 21
167.1099615078072134
 31
0.0
  0
LINE
  5
AEE6
  8
0
 10
2809.8369887162571104
 20
167.1184893547072079
 30
0.0
 11
2809.8363254587648044
 21
167.1453620885071985
 31
0.0
  0
LINE
  5
AEE7
  8
0
 10
2809.8369887162571104
 20
167.153889935407193
 30
0.0
 11
2809.8366289120572219
 21
167.1684678686071948
 31
0.0
  0
LINE
  5
AEE8
  8
0
 10
2809.6417125778571062
 20
167.0391603464071864
 30
0.0
 11
2809.6417125778571062
 21
167.0127053134071957
 31
0.0
  0
LINE
  5
AEE9
  8
0
 10
2809.6450595824571792
 20
167.0298571224072077
 30
0.0
 11
2809.6450595824571792
 21
167.0391603464071864
 31
0.0
  0
LINE
  5
AEEA
  8
0
 10
2809.655350773156897
 20
166.999058750807194
 30
0.0
 11
2809.655350773156897
 21
167.0027931508072072
 31
0.0
  0
LINE
  5
AEEB
  8
0
 10
2809.6598968382568273
 20
167.0745609271071999
 30
0.0
 11
2809.6598968382568273
 21
167.0353616851072047
 31
0.0
  0
LINE
  5
AEEC
  8
0
 10
2809.659371001756881
 20
167.0476881932071933
 30
0.0
 11
2809.6597539336571572
 21
167.0745609271071999
 31
0.0
  0
LINE
  5
AEED
  8
0
 10
2809.6554088590569336
 20
167.1684678686071948
 30
0.0
 11
2809.6550490547570007
 21
167.153889935407193
 31
0.0
  0
LINE
  5
AEEE
  8
0
 10
2809.655712312248852
 20
167.1453620885071985
 30
0.0
 11
2809.6550490547570007
 21
167.1184893547072079
 31
0.0
  0
LINE
  5
AEEF
  8
0
 10
2809.6557110553571874
 20
167.1099105832072098
 30
0.0
 11
2809.6550490547570007
 21
167.0830887739072068
 31
0.0
  0
LINE
  5
AEF0
  8
0
 10
2809.655712312248852
 20
167.0745609271071999
 30
0.0
 11
2809.6550490547570007
 21
167.0476881932071933
 31
0.0
  0
LINE
  5
AEF1
  8
0
 10
2809.7193852369559863
 20
167.1684678686071948
 30
0.0
 11
2809.7190254327570074
 21
167.153889935407193
 31
0.0
  0
LINE
  5
AEF2
  8
0
 10
2809.7196886902488586
 20
167.1453620885071985
 30
0.0
 11
2809.7190254327570074
 21
167.1184893547072079
 31
0.0
  0
LINE
  5
AEF3
  8
0
 10
2809.7196886902488586
 20
167.1099615078072134
 30
0.0
 11
2809.7190254327570074
 21
167.0830887739072068
 31
0.0
  0
LINE
  5
AEF4
  8
0
 10
2809.7833616149569025
 20
167.1684678686071948
 30
0.0
 11
2809.7830018106569696
 21
167.153889935407193
 31
0.0
  0
LINE
  5
AEF5
  8
0
 10
2809.7836650681488209
 20
167.1453620885071985
 30
0.0
 11
2809.7830018106569696
 21
167.1184893547072079
 31
0.0
  0
LINE
  5
AEF6
  8
0
 10
2809.7836650681488209
 20
167.1099615078072134
 30
0.0
 11
2809.7830018106569696
 21
167.0830887739072068
 31
0.0
  0
LINE
  5
AEF7
  8
0
 10
2809.7190259544568107
 20
167.0483641116072135
 30
0.0
 11
2809.7196842162447865
 21
167.0745609271071999
 31
0.0
  0
LINE
  5
AEF8
  8
0
 10
2809.783002332356773
 20
167.0483641116072135
 30
0.0
 11
2809.7836592943572214
 21
167.0745091955072041
 31
0.0
  0
LINE
  5
AEF9
  8
0
 10
2809.6417125778571062
 20
167.0127053134071957
 30
0.0
 11
2809.6598968382568273
 21
167.0353616851072047
 31
0.0
  0
LINE
  5
AEFA
  8
0
 10
2809.6735350336562078
 20
167.0183694064072029
 30
0.0
 11
2809.6610333545559115
 21
167.0027931508072072
 31
0.0
  0
LINE
  5
AEFB
  8
0
 10
2810.6517828114951953
 20
166.9126715445071909
 30
0.0
 11
2809.4160423611178885
 21
166.9126715445071909
 31
0.0
  0
LINE
  5
AEFC
  8
0
 10
2809.9003076105559558
 20
167.0745091955072041
 30
0.0
 11
2809.9009645725568589
 21
167.0483641116072135
 31
0.0
  0
LINE
  5
AEFD
  8
0
 10
2809.9642826886679359
 20
167.0745609271071999
 30
0.0
 11
2809.9649409504568212
 21
167.0483641116072135
 31
0.0
  0
LINE
  5
AEFE
  8
0
 10
2810.0282590665678981
 20
167.0745609271071999
 30
0.0
 11
2810.0289173284568278
 21
167.0483641116072135
 31
0.0
  0
LINE
  5
AEFF
  8
0
 10
2809.900965094257117
 20
167.0830887739072068
 30
0.0
 11
2809.900301836764811
 21
167.1099615078072134
 31
0.0
  0
LINE
  5
AF00
  8
0
 10
2809.900965094257117
 20
167.1184893547072079
 30
0.0
 11
2809.900301836764811
 21
167.1453620885071985
 31
0.0
  0
LINE
  5
AF01
  8
0
 10
2809.900965094257117
 20
167.153889935407193
 30
0.0
 11
2809.9006052899571841
 21
167.1684678686071948
 31
0.0
  0
LINE
  5
AF02
  8
0
 10
2809.9649414721570793
 20
167.0830887739072068
 30
0.0
 11
2809.9642782146647733
 21
167.1099615078072134
 31
0.0
  0
LINE
  5
AF03
  8
0
 10
2809.9649414721570793
 20
167.1184893547072079
 30
0.0
 11
2809.9642782146647733
 21
167.1453620885071985
 31
0.0
  0
LINE
  5
AF04
  8
0
 10
2809.9649414721570793
 20
167.153889935407193
 30
0.0
 11
2809.9645816679571908
 21
167.1684678686071948
 31
0.0
  0
LINE
  5
AF05
  8
0
 10
2810.0289178501570859
 20
167.0830887739072068
 30
0.0
 11
2810.0282545926647799
 21
167.1099615078072134
 31
0.0
  0
LINE
  5
AF06
  8
0
 10
2810.0289178501570859
 20
167.1184893547072079
 30
0.0
 11
2810.0282545926647799
 21
167.1453620885071985
 31
0.0
  0
LINE
  5
AF07
  8
0
 10
2810.0289178501570859
 20
167.153889935407193
 30
0.0
 11
2810.028558045857153
 21
167.1684678686071948
 31
0.0
  0
LINE
  5
AF08
  8
0
 10
2809.9778102241070883
 20
167.0183694064072029
 30
0.0
 11
2809.9778102241070883
 21
166.9871377498072036
 31
0.0
  0
LINE
  5
AF09
  8
0
 10
2809.9974952635070622
 20
166.9871377498072036
 30
0.0
 11
2809.9974952635070622
 21
167.0183694064072029
 31
0.0
  0
LINE
  5
AF0A
  8
0
 10
2809.8473379928559552
 20
167.1684678686071948
 30
0.0
 11
2809.8469781886569763
 21
167.153889935407193
 31
0.0
  0
LINE
  5
AF0B
  8
0
 10
2809.8476414461488275
 20
167.1453620885071985
 30
0.0
 11
2809.8469781886569763
 21
167.1184893547072079
 31
0.0
  0
LINE
  5
AF0C
  8
0
 10
2809.8476414461488275
 20
167.1099615078072134
 30
0.0
 11
2809.8469781886569763
 21
167.0830887739072068
 31
0.0
  0
LINE
  5
AF0D
  8
0
 10
2809.9113143708559619
 20
167.1684678686071948
 30
0.0
 11
2809.9109545665569385
 21
167.153889935407193
 31
0.0
  0
LINE
  5
AF0E
  8
0
 10
2809.9116178240478803
 20
167.1453620885071985
 30
0.0
 11
2809.9109545665569385
 21
167.1184893547072079
 31
0.0
  0
LINE
  5
AF0F
  8
0
 10
2809.9116178240478803
 20
167.1099615078072134
 30
0.0
 11
2809.9109545665569385
 21
167.0830887739072068
 31
0.0
  0
LINE
  5
AF10
  8
0
 10
2809.9752907487559241
 20
167.1684678686071948
 30
0.0
 11
2809.9749309445569452
 21
167.153889935407193
 31
0.0
  0
LINE
  5
AF11
  8
0
 10
2809.9755942020487964
 20
167.1453620885071985
 30
0.0
 11
2809.9749309445569452
 21
167.1184893547072079
 31
0.0
  0
LINE
  5
AF12
  8
0
 10
2809.9755942020487964
 20
167.1099615078072134
 30
0.0
 11
2809.9749309445569452
 21
167.0830887739072068
 31
0.0
  0
LINE
  5
AF13
  8
0
 10
2810.0392671267559308
 20
167.1684678686071948
 30
0.0
 11
2810.0389073224569074
 21
167.153889935407193
 31
0.0
  0
LINE
  5
AF14
  8
0
 10
2810.0395693230570942
 20
167.1453111639071949
 30
0.0
 11
2810.0389073224569074
 21
167.1184893547072079
 31
0.0
  0
LINE
  5
AF15
  8
0
 10
2810.0395705799492134
 20
167.1099615078072134
 30
0.0
 11
2810.0389073224569074
 21
167.0830887739072068
 31
0.0
  0
LINE
  5
AF16
  8
0
 10
2809.8469787103567796
 20
167.0483641116072135
 30
0.0
 11
2809.8476356722571836
 21
167.0745091955072041
 31
0.0
  0
LINE
  5
AF17
  8
0
 10
2809.9109550882571966
 20
167.0483641116072135
 30
0.0
 11
2809.9116120502571903
 21
167.0745091955072041
 31
0.0
  0
LINE
  5
AF18
  8
0
 10
2809.9749314662572033
 20
167.0483641116072135
 30
0.0
 11
2809.9755884281571525
 21
167.0745091955072041
 31
0.0
  0
LINE
  5
AF19
  8
0
 10
2810.0389078441571655
 20
167.0483641116072135
 30
0.0
 11
2810.0395661060451857
 21
167.0745609271071999
 31
0.0
  0
LINE
  5
AF1A
  8
0
 10
2809.6028102234558901
 20
166.9537362182072116
 30
0.0
 11
2810.4650149491571938
 21
166.9537362182072116
 31
0.0
  0
LINE
  5
AF1B
  8
0
 10
2809.6028102244558795
 20
166.9871377498072036
 30
0.0
 11
2810.4650149476569823
 21
166.9871377498072036
 31
0.0
  0
LINE
  5
AF1C
  8
0
 10
2809.60084172015695
 20
166.999058750807194
 30
0.0
 11
2809.655350773156897
 21
166.999058750807194
 31
0.0
  0
LINE
  5
AF1D
  8
0
 10
2809.60084172015695
 20
167.0027931508072072
 30
0.0
 11
2809.6610333545559115
 21
167.0027931508072072
 31
0.0
  0
LINE
  5
AF1E
  8
0
 10
2809.60084172015695
 20
167.0127053134071957
 30
0.0
 11
2809.6417125778571062
 21
167.0127053134071957
 31
0.0
  0
LINE
  5
AF1F
  8
0
 10
2810.0703299091069312
 20
167.0183694064072029
 30
0.0
 11
2809.9974952635070622
 21
167.0183694064072029
 31
0.0
  0
LINE
  5
AF20
  8
0
 10
2809.9778102241070883
 20
167.0183694064072029
 30
0.0
 11
2809.6735350336562078
 21
167.0183694064072029
 31
0.0
  0
LINE
  5
AF21
  8
0
 10
2809.6598968382568273
 20
167.0353616851072047
 30
0.0
 11
2810.4079283343558018
 21
167.0353616851072047
 31
0.0
  0
LINE
  5
AF22
  8
0
 10
2809.6544126044568657
 20
167.0391603464071864
 30
0.0
 11
2809.6536477784570707
 21
167.0391603464071864
 31
0.0
  0
LINE
  5
AF23
  8
0
 10
2809.6464608587571092
 20
167.0391603464071864
 30
0.0
 11
2809.589671400457064
 21
167.0391603464071864
 31
0.0
  0
LINE
  5
AF24
  8
0
 10
2809.582484480857147
 20
167.0391603464071864
 30
0.0
 11
2809.5424186899567758
 21
167.0391603464071864
 31
0.0
  0
LINE
  5
AF25
  8
0
 10
2809.53388506645706
 20
167.0476881932071933
 30
0.0
 11
2809.5810832044571725
 21
167.0476881932071933
 31
0.0
  0
LINE
  5
AF26
  8
0
 10
2809.5910726768570385
 20
167.0476881932071933
 30
0.0
 11
2809.6450595823571348
 21
167.0476881932071933
 31
0.0
  0
LINE
  5
AF27
  8
0
 10
2810.0938474283798314
 20
167.0745609271071999
 30
0.0
 11
2810.0375060461569774
 21
167.0745609271071999
 31
0.0
  0
LINE
  5
AF28
  8
0
 10
2810.030319126457016
 20
167.0745609271071999
 30
0.0
 11
2809.9735296681569707
 21
167.0745609271071999
 31
0.0
  0
LINE
  5
AF29
  8
0
 10
2809.9663427485570537
 20
167.0745609271071999
 30
0.0
 11
2809.9095532902570085
 21
167.0745609271071999
 31
0.0
  0
LINE
  5
AF2A
  8
0
 10
2809.902366370557047
 20
167.0745609271071999
 30
0.0
 11
2809.8455769122570018
 21
167.0745609271071999
 31
0.0
  0
LINE
  5
AF2B
  8
0
 10
2809.8383899926570848
 20
167.0745609271071999
 30
0.0
 11
2809.7816005343570396
 21
167.0745609271071999
 31
0.0
  0
LINE
  5
AF2C
  8
0
 10
2809.7744136146570781
 20
167.0745609271071999
 30
0.0
 11
2809.7176241563570329
 21
167.0745609271071999
 31
0.0
  0
LINE
  5
AF2D
  8
0
 10
2809.7104372367571159
 20
167.0745609271071999
 30
0.0
 11
2809.6536477784570707
 21
167.0745609271071999
 31
0.0
  0
LINE
  5
AF2E
  8
0
 10
2809.6464608587571092
 20
167.0745609271071999
 30
0.0
 11
2809.589671400457064
 21
167.0745609271071999
 31
0.0
  0
LINE
  5
AF2F
  8
0
 10
2809.582484480857147
 20
167.0745609271071999
 30
0.0
 11
2809.5122590429568845
 21
167.0745609271071999
 31
0.0
  0
LINE
  5
AF30
  8
0
 10
2809.5122590429568845
 20
167.0830887739072068
 30
0.0
 11
2809.5810832044571725
 21
167.0830887739072068
 31
0.0
  0
LINE
  5
AF31
  8
0
 10
2809.5910726768570385
 20
167.0830887739072068
 30
0.0
 11
2809.6450595823571348
 21
167.0830887739072068
 31
0.0
  0
LINE
  5
AF32
  8
0
 10
2809.6550490547570007
 20
167.0830887739072068
 30
0.0
 11
2809.7090359603571414
 21
167.0830887739072068
 31
0.0
  0
LINE
  5
AF33
  8
0
 10
2809.7190254327570074
 20
167.0830887739072068
 30
0.0
 11
2809.7730123382571037
 21
167.0830887739072068
 31
0.0
  0
LINE
  5
AF34
  8
0
 10
2809.7830018106569696
 20
167.0830887739072068
 30
0.0
 11
2809.8369887162571104
 21
167.0830887739072068
 31
0.0
  0
LINE
  5
AF35
  8
0
 10
2809.8469781886569763
 20
167.0830887739072068
 30
0.0
 11
2809.900965094257117
 21
167.0830887739072068
 31
0.0
  0
LINE
  5
AF36
  8
0
 10
2809.9109545665569385
 20
167.0830887739072068
 30
0.0
 11
2809.9649414721570793
 21
167.0830887739072068
 31
0.0
  0
LINE
  5
AF37
  8
0
 10
2809.9749309445569452
 20
167.0830887739072068
 30
0.0
 11
2810.0289178501570859
 21
167.0830887739072068
 31
0.0
  0
LINE
  5
AF38
  8
0
 10
2810.0389073224569074
 20
167.0830887739072068
 30
0.0
 11
2810.0924599599229623
 21
167.0830887739072068
 31
0.0
  0
LINE
  5
AF39
  8
0
 10
2810.0938474276640591
 20
167.1099615078072134
 30
0.0
 11
2810.0375060461569774
 21
167.1099615078072134
 31
0.0
  0
LINE
  5
AF3A
  8
0
 10
2810.030319126457016
 20
167.1099615078072134
 30
0.0
 11
2809.9735296681569707
 21
167.1099615078072134
 31
0.0
  0
LINE
  5
AF3B
  8
0
 10
2809.9663427485570537
 20
167.1099615078072134
 30
0.0
 11
2809.9095532902570085
 21
167.1099615078072134
 31
0.0
  0
LINE
  5
AF3C
  8
0
 10
2809.902366370557047
 20
167.1099615078072134
 30
0.0
 11
2809.8455769122570018
 21
167.1099615078072134
 31
0.0
  0
LINE
  5
AF3D
  8
0
 10
2809.8383899926570848
 20
167.1099615078072134
 30
0.0
 11
2809.7816005343570396
 21
167.1099615078072134
 31
0.0
  0
LINE
  5
AF3E
  8
0
 10
2809.7744136146570781
 20
167.1099615078072134
 30
0.0
 11
2809.7176241563570329
 21
167.1099615078072134
 31
0.0
  0
LINE
  5
AF3F
  8
0
 10
2809.7104372367571159
 20
167.1099615078072134
 30
0.0
 11
2809.6536477784570707
 21
167.1099615078072134
 31
0.0
  0
LINE
  5
AF40
  8
0
 10
2809.6464608587571092
 20
167.1099615078072134
 30
0.0
 11
2809.589671400457064
 21
167.1099615078072134
 31
0.0
  0
LINE
  5
AF41
  8
0
 10
2809.582484480857147
 20
167.1099615078072134
 30
0.0
 11
2809.5125590843658756
 21
167.1099615078072134
 31
0.0
  0
LINE
  5
AF42
  8
0
 10
2809.514365370473115
 20
167.1184893547072079
 30
0.0
 11
2809.5810832044571725
 21
167.1184893547072079
 31
0.0
  0
LINE
  5
AF43
  8
0
 10
2809.5910726768570385
 20
167.1184893547072079
 30
0.0
 11
2809.6450595823571348
 21
167.1184893547072079
 31
0.0
  0
LINE
  5
AF44
  8
0
 10
2809.6550490547570007
 20
167.1184893547072079
 30
0.0
 11
2809.7090359603571414
 21
167.1184893547072079
 31
0.0
  0
LINE
  5
AF45
  8
0
 10
2809.7190254327570074
 20
167.1184893547072079
 30
0.0
 11
2809.7730123382571037
 21
167.1184893547072079
 31
0.0
  0
LINE
  5
AF46
  8
0
 10
2809.7830018106569696
 20
167.1184893547072079
 30
0.0
 11
2809.8369887162571104
 21
167.1184893547072079
 31
0.0
  0
LINE
  5
AF47
  8
0
 10
2809.8469781886569763
 20
167.1184893547072079
 30
0.0
 11
2809.900965094257117
 21
167.1184893547072079
 31
0.0
  0
LINE
  5
AF48
  8
0
 10
2809.9109545665569385
 20
167.1184893547072079
 30
0.0
 11
2809.9649414721570793
 21
167.1184893547072079
 31
0.0
  0
LINE
  5
AF49
  8
0
 10
2809.9749309445569452
 20
167.1184893547072079
 30
0.0
 11
2810.0289178501570859
 21
167.1184893547072079
 31
0.0
  0
LINE
  5
AF4A
  8
0
 10
2810.0389073224569074
 20
167.1184893547072079
 30
0.0
 11
2810.0924599599229623
 21
167.1184893547072079
 31
0.0
  0
LINE
  5
AF4B
  8
0
 10
2810.0938474276640591
 20
167.1453620885071985
 30
0.0
 11
2810.0375060461569774
 21
167.1453620885071985
 31
0.0
  0
LINE
  5
AF4C
  8
0
 10
2810.030319126457016
 20
167.1453620885071985
 30
0.0
 11
2809.9735296681569707
 21
167.1453620885071985
 31
0.0
  0
LINE
  5
AF4D
  8
0
 10
2809.9663427485570537
 20
167.1453620885071985
 30
0.0
 11
2809.9095532902570085
 21
167.1453620885071985
 31
0.0
  0
LINE
  5
AF4E
  8
0
 10
2809.902366370557047
 20
167.1453620885071985
 30
0.0
 11
2809.8455769122570018
 21
167.1453620885071985
 31
0.0
  0
LINE
  5
AF4F
  8
0
 10
2809.8383899926570848
 20
167.1453620885071985
 30
0.0
 11
2809.7816005343570396
 21
167.1453620885071985
 31
0.0
  0
LINE
  5
AF50
  8
0
 10
2809.7744136146570781
 20
167.1453620885071985
 30
0.0
 11
2809.7176241563570329
 21
167.1453620885071985
 31
0.0
  0
LINE
  5
AF51
  8
0
 10
2809.7104372367571159
 20
167.1453620885071985
 30
0.0
 11
2809.6536477784570707
 21
167.1453620885071985
 31
0.0
  0
LINE
  5
AF52
  8
0
 10
2809.6464608587571092
 20
167.1453620885071985
 30
0.0
 11
2809.589671400457064
 21
167.1453620885071985
 31
0.0
  0
LINE
  5
AF53
  8
0
 10
2809.582484480857147
 20
167.1453620885071985
 30
0.0
 11
2809.5325098092280314
 21
167.1453620885071985
 31
0.0
  0
LINE
  5
AF54
  8
0
 10
2809.5445258820741401
 20
167.153889935407193
 30
0.0
 11
2809.5810832044571725
 21
167.153889935407193
 31
0.0
  0
LINE
  5
AF55
  8
0
 10
2809.5910726768570385
 20
167.153889935407193
 30
0.0
 11
2809.6450595823571348
 21
167.153889935407193
 31
0.0
  0
LINE
  5
AF56
  8
0
 10
2809.6550490547570007
 20
167.153889935407193
 30
0.0
 11
2809.7090359603571414
 21
167.153889935407193
 31
0.0
  0
LINE
  5
AF57
  8
0
 10
2809.7190254327570074
 20
167.153889935407193
 30
0.0
 11
2809.7730123382571037
 21
167.153889935407193
 31
0.0
  0
LINE
  5
AF58
  8
0
 10
2809.7830018106569696
 20
167.153889935407193
 30
0.0
 11
2809.8369887162571104
 21
167.153889935407193
 31
0.0
  0
LINE
  5
AF59
  8
0
 10
2809.8469781886569763
 20
167.153889935407193
 30
0.0
 11
2809.900965094257117
 21
167.153889935407193
 31
0.0
  0
LINE
  5
AF5A
  8
0
 10
2809.9109545665569385
 20
167.153889935407193
 30
0.0
 11
2809.9649414721570793
 21
167.153889935407193
 31
0.0
  0
LINE
  5
AF5B
  8
0
 10
2809.9749309445569452
 20
167.153889935407193
 30
0.0
 11
2810.0289178501570859
 21
167.153889935407193
 31
0.0
  0
LINE
  5
AF5C
  8
0
 10
2810.0389073224569074
 20
167.153889935407193
 30
0.0
 11
2810.0924599599229623
 21
167.153889935407193
 31
0.0
  0
LINE
  5
AF5D
  8
0
 10
2810.4669834524570433
 20
167.1684678686071948
 30
0.0
 11
2809.60084172015695
 21
167.1684678686071948
 31
0.0
  0
LINE
  5
AF5E
  8
0
 10
2810.0703299091069312
 20
166.9871377498072036
 30
0.0
 11
2810.0703299091069312
 21
167.0183694064072029
 31
0.0
  0
LINE
  5
AF5F
  8
0
 10
2810.4669834524570433
 20
167.1783800312072117
 30
0.0
 11
2809.60084172015695
 21
167.1783800312072117
 31
0.0
  0
LINE
  5
AF60
  8
0
 10
2810.4650149492567834
 20
167.1831319812071968
 30
0.0
 11
2809.602810223556844
 21
167.1831319812071968
 31
0.0
  0
LINE
  5
AF61
  8
0
 10
2809.4170400869829791
 20
167.224196654907189
 30
0.0
 11
2810.6507850856310142
 21
167.224196654907189
 31
0.0
  0
LINE
  5
AF62
  8
0
 10
2810.6244637674572004
 20
170.386200548707194
 30
0.0
 11
2810.6244637674572004
 21
170.1893501550071903
 31
0.0
  0
LINE
  5
AF63
  8
0
 10
2810.6589125863570189
 20
166.9197516606072043
 30
0.0
 11
2810.6589125863570189
 21
168.2070666904072027
 31
0.0
  0
LINE
  5
AF64
  8
0
 10
2810.7681645548559572
 20
169.6381690526071964
 30
0.0
 11
2810.7681645548559572
 21
169.6421060605071887
 31
0.0
  0
LINE
  5
AF65
  8
0
 10
2810.8390306965570744
 20
169.6592233136072139
 30
0.0
 11
2810.8390306965570744
 21
169.6421060605071887
 31
0.0
  0
LINE
  5
AF66
  8
0
 10
2810.8646212477569861
 20
170.386200548707194
 30
0.0
 11
2810.8646212477569861
 21
169.736594249507192
 31
0.0
  0
LINE
  5
AF67
  8
0
 10
2810.8646212477569861
 20
169.6263580290072071
 30
0.0
 11
2810.8646212477569861
 21
159.3507674778072101
 31
0.0
  0
LINE
  5
AF68
  8
0
 10
2810.9787944760569189
 20
159.1657281077071957
 30
0.0
 11
2810.9787944760569189
 21
159.306633163607188
 31
0.0
  0
LINE
  5
AF69
  8
0
 10
2809.4187551059571888
 20
168.2169092101071897
 30
0.0
 11
2810.6490700666568046
 21
168.2169092101071897
 31
0.0
  0
LINE
  5
AF6A
  8
0
 10
2810.8528102240570661
 20
169.6381690526071964
 30
0.0
 11
2809.2150149486569717
 21
169.6381690526071964
 31
0.0
  0
LINE
  5
AF6B
  8
0
 10
2809.2287944760569189
 20
169.6421060605071887
 30
0.0
 11
2810.8390306965570744
 21
169.6421060605071887
 31
0.0
  0
LINE
  5
AF6C
  8
0
 10
2810.8390306965570744
 20
169.6592233136072139
 30
0.0
 11
2809.2287944760569189
 21
169.6592233136072139
 31
0.0
  0
LINE
  5
AF6D
  8
0
 10
2809.1992669170567751
 20
159.3507674778072101
 30
0.0
 11
2809.0973409420571443
 21
159.317913448707202
 31
0.0
  0
LINE
  5
AF6E
  8
0
 10
2809.2032039249570516
 20
169.736594249507192
 30
0.0
 11
2810.8646212477569861
 21
169.736594249507192
 31
0.0
  0
LINE
  5
AF6F
  8
0
 10
2810.6047787280572265
 20
170.169665115607188
 30
0.0
 11
2809.4630464445572215
 21
170.169665115607188
 31
0.0
  0
LINE
  5
AF70
  8
0
 10
2809.2228947850071563
 20
170.4058855880072088
 30
0.0
 11
2810.8449303876059275
 21
170.4058855880072088
 31
0.0
  0
ARC
  5
AF71
  8
0
 10
2809.55455794255613
 20
167.1000308080072045
 30
0.0
 40
0.0639249452
 50
200.4528096563037138
 51
209.9277444387840035
  0
ARC
  5
AF72
  8
0
 10
2808.6351271778198679
 20
166.9734388498065982
 30
0.0
 40
0.8570469728985525
 50
6.6382710813148771
 51
7.5723855712249462
  0
ARC
  5
AF73
  8
0
 10
2809.5476832544559329
 20
167.0981686774071875
 30
0.0
 40
0.0567660359
 50
180.0100098258996013
 51
184.8428800198001909
  0
ARC
  5
AF74
  8
0
 10
2809.5514091943568928
 20
167.1260510291072023
 30
0.0
 40
0.0542716326
 50
168.4160118097416898
 51
179.9510621741997056
  0
ARC
  5
AF75
  8
0
 10
2809.5580451602568246
 20
167.1047283657071887
 30
0.0
 40
0.0457861210004235
 50
173.4370146719535057
 51
179.9769025794637116
  0
ARC
  5
AF76
  8
0
 10
2809.6588192154567878
 20
167.0528569178071905
 30
0.0
 40
0.0149987485
 50
227.6535261090029962
 51
234.2411358432983945
  0
ARC
  5
AF77
  8
0
 10
2809.10084172015695
 20
159.306633163607188
 30
0.0
 40
0.0118110236
 50
107.2414593988897025
 51
180.0
  0
ARC
  5
AF78
  8
0
 10
2810.0338899196049169
 20
168.6185136055214002
 30
0.0
 40
1.3157717772194331
 50
121.8152161866520942
 51
127.725619216091701
  0
ARC
  5
AF79
  8
0
 10
2809.4630464445572215
 20
170.1893501550071903
 30
0.0
 40
0.0196850394
 50
179.999999999200412
 51
270.0
  0
ARC
  5
AF7A
  8
0
 10
2809.4630464445572215
 20
170.386200548707194
 30
0.0
 40
0.0196850394
 50
90.0
 51
180.000000000400604
  0
ARC
  5
AF7B
  8
0
 10
2809.2228889652092221
 20
170.3862005486159035
 30
0.0
 40
0.0196850402516721
 50
89.983060746507249
 51
179.9999997340441098
  0
ARC
  5
AF7C
  8
0
 10
2809.2150149485569273
 20
169.6263580290072071
 30
0.0
 40
0.0118110236
 50
90.0
 51
180.0
  0
ARC
  5
AF7D
  8
0
 10
2809.4187551059571888
 20
168.2070666904072027
 30
0.0
 40
0.0098425197
 50
90.0
 51
180.0
  0
ARC
  5
AF7E
  8
0
 10
2810.9669834524570433
 20
159.306633163607188
 30
0.0
 40
0.0118110236
 50
0.0
 51
72.7585406011102691
  0
ARC
  5
AF7F
  8
0
 10
2810.0339125863570189
 20
168.618484013207194
 30
0.0
 40
1.315809052499999
 50
52.2743885658930978
 51
58.1846118069679719
  0
ARC
  5
AF80
  8
0
 10
2810.6047787280572265
 20
170.1893501550071903
 30
0.0
 40
0.0196850394
 50
270.0
 51
0.0
  0
ARC
  5
AF81
  8
0
 10
2810.6047787280572265
 20
170.386200548707194
 30
0.0
 40
0.0196850394
 50
0.0
 51
90.0
  0
ARC
  5
AF82
  8
0
 10
2810.8449362070591633
 20
170.3862005481697111
 30
0.0
 40
0.0196850406977367
 50
0.0000015645813087
 51
90.0169382458375935
  0
ARC
  5
AF83
  8
0
 10
2810.8528102241571105
 20
169.6263580290072071
 30
0.0
 40
0.0118110236
 50
0.0
 51
90.0
  0
ARC
  5
AF84
  8
0
 10
2810.6490700666568046
 20
168.2070666904072027
 30
0.0
 40
0.0098425197
 50
0.0
 51
90.0
  0
LINE
  5
AF85
  8
0
 10
2809.4942682172568311
 20
167.1281813565072127
 30
0.0
 11
2809.4924947133299611
 21
167.127970987719209
 31
0.0
  0
LINE
  5
AF86
  8
0
 10
2809.6500543185570677
 20
167.0406856796072077
 30
0.0
 11
2809.6513797938569041
 21
167.0417687755071938
 31
0.0
  0
ARC
  5
AF87
  8
0
 10
2809.6007602853092067
 20
167.0474864598386091
 30
0.0
 40
0.1209814361762993
 50
89.9614331456910321
 51
102.9038323104807944
  0
ARC
  5
AF88
  8
0
 10
2809.5951206058662137
 20
167.068403977010604
 30
0.0
 40
0.099336172457752
 50
102.4273695817085041
 51
124.2703154438180064
  0
ARC
  5
AF89
  8
0
 10
2809.5770027868361467
 20
167.094403705875493
 30
0.0
 40
0.067648960205214
 50
123.9891310056506057
 51
145.4647733901499862
  0
ARC
  5
AF8A
  8
0
 10
2809.5630206192990954
 20
167.1037284516808938
 30
0.0
 40
0.0508450341383223
 50
145.1885182958727967
 51
172.9584390421537137
  0
ARC
  5
AF8B
  8
0
 10
2809.5445771520749076
 20
167.0498538961082886
 30
0.0
 40
0.0109092146338016
 50
191.4504560665110944
 51
258.5883425260100807
  0
ARC
  5
AF8C
  8
0
 10
2873.2029845140800717
 20
168.4087973375808076
 30
0.0
 40
63.6836465866797212
 50
181.2004920100731056
 51
181.2246746567305138
  0
ARC
  5
AF8D
  8
0
 10
2809.5949939206020645
 20
167.0530571848559021
 30
0.0
 40
0.0152495521412858
 50
211.7361704899047936
 51
234.2202070367264071
  0
ARC
  5
AF8E
  8
0
 10
2809.5869111813108248
 20
167.0482632082282919
 30
0.0
 40
0.005856274967565
 50
185.6348280871067971
 51
213.4428226156497885
  0
ARC
  5
AF8F
  8
0
 10
2809.5770964215848835
 20
167.0531037170999014
 30
0.0
 40
0.0153256432167427
 50
305.8768603251460831
 51
326.9397134905381108
  0
ARC
  5
AF90
  8
0
 10
2809.5846508423969681
 20
167.0484664205235106
 30
0.0
 40
0.0064688171704399
 50
324.8614228425238935
 51
353.0903279933770023
  0
ARC
  5
AF91
  8
0
 10
2809.5824243372171622
 20
167.042725117649411
 30
0.0
 40
0.0035652785678729
 50
270.966583717253684
 51
288.4664995181327072
  0
ARC
  5
AF92
  8
0
 10
2809.5804500256931533
 20
167.0482249531254979
 30
0.0
 40
0.0094081917505271
 50
289.2617479577185122
 51
306.7405940446105888
  0
ARC
  5
AF93
  8
0
 10
2809.5907467652277774
 20
167.0466892439804951
 30
0.0
 40
0.007605307887255
 50
232.1286699228683972
 51
261.8713297573024192
  0
LINE
  5
AF94
  8
0
 10
2809.5807862281781127
 20
167.0391603464071864
 30
0.0
 11
2809.5810832044571725
 21
167.0272923273072081
 31
0.0
  0
LINE
  5
AF95
  8
0
 10
2809.5914021125418003
 20
167.0391603464071864
 30
0.0
 11
2809.5910726767410779
 21
167.0260756529494017
 31
0.0
  0
ARC
  5
AF96
  8
0
 10
2809.5841102488780052
 20
167.0274419008823941
 30
0.0
 40
0.0030307375636774
 50
182.8288220604792969
 51
211.983090671672386
  0
ARC
  5
AF97
  8
0
 10
2809.5860919951369397
 20
167.0287336799196112
 30
0.0
 40
0.0053960750933579
 50
212.4717735733258905
 51
245.6402622141733048
  0
ARC
  5
AF98
  8
0
 10
2809.5869025761348894
 20
167.0301121111762086
 30
0.0
 40
0.0069881903217736
 50
244.247418043050402
 51
275.1029950141460745
  0
ARC
  5
AF99
  8
0
 10
2809.5872554848278924
 20
167.0275795229431139
 30
0.0
 40
0.0044360470388848
 50
273.472195057454428
 51
314.2454166636579771
  0
ARC
  5
AF9A
  8
0
 10
2809.5884844578331467
 20
167.0261993527103073
 30
0.0
 40
0.0025911732369388
 50
316.0723064094780739
 51
357.2637224901216086
  0
ARC
  5
AF9B
  8
0
 10
2809.5996950924031808
 20
167.0479100521513089
 30
0.0
 40
0.1304750174939839
 50
89.496472367860477
 51
118.0357827172114042
  0
ARC
  5
AF9C
  8
0
 10
2809.5791179338339134
 20
167.0869266970377964
 30
0.0
 40
0.0863652551984371
 50
118.1526763772615993
 51
142.4808885802009968
  0
ARC
  5
AF9D
  8
0
 10
2809.5570216368500951
 20
167.103822832073007
 30
0.0
 40
0.0585494128421246
 50
142.4260422662673875
 51
179.0957545504649033
  0
ARC
  5
AF9E
  8
0
 10
2809.6027556202839151
 20
166.9880198658447057
 30
0.0
 40
0.195112123003081
 50
89.9839654396024713
 51
99.5953210335757433
  0
ARC
  5
AF9F
  8
0
 10
2809.5978599613299593
 20
167.0120003699719859
 30
0.0
 40
0.1706530836937127
 50
99.3166860813241499
 51
119.6057588933204983
  0
ARC
  5
AFA0
  8
0
 10
2809.5721775035531209
 20
167.0569648079165859
 30
0.0
 40
0.1188711362143747
 50
119.5499705208919039
 51
142.1948534258002894
  0
ARC
  5
AFA1
  8
0
 10
2809.5422753131379068
 20
167.0798657553262103
 30
0.0
 40
0.0812079803929386
 50
142.0288047847330972
 51
179.0738954734443951
  0
ARC
  5
AFA2
  8
0
 10
2809.5501874813858194
 20
167.0969786154659005
 30
0.0
 40
0.0654903246581104
 50
149.6183085316984887
 51
179.4672413773899962
  0
ARC
  5
AFA3
  8
0
 10
2809.5725497445259862
 20
167.0826151153993067
 30
0.0
 40
0.092052503304992
 50
123.4575726234662056
 51
148.9453640153276126
  0
ARC
  5
AFA4
  8
0
 10
2809.5941609316992071
 20
167.0507013750087992
 30
0.0
 40
0.1305933464859088
 50
106.6821114325967983
 51
123.6486101266009001
  0
ARC
  5
AFA5
  8
0
 10
2809.6092058239200924
 20
166.9940981114484089
 30
0.0
 40
0.1891420302841167
 50
91.9377542538451991
 51
106.1256512919220967
  0
ARC
  5
AFA6
  8
0
 10
2809.5474837662040954
 20
167.0585996902129011
 30
0.0
 40
0.0864548068334077
 50
181.9287620657682965
 51
227.4200766006426022
  0
ARC
  5
AFA7
  8
0
 10
2809.5886151114118547
 20
167.1026122018290039
 30
0.0
 40
0.1466938090440546
 50
227.2221456738996039
 51
254.367712621777514
  0
ARC
  5
AFA8
  8
0
 10
2809.6024838735061167
 20
167.1449132212277959
 30
0.0
 40
0.1911772815692569
 50
253.7811215133941971
 51
270.0978070394355086
  0
ARC
  5
AFA9
  8
0
 10
2809.4172085270101888
 20
166.9209758385871964
 30
0.0
 40
0.0083857762345171
 50
188.3941873957745088
 51
262.0062688959972093
  0
ARC
  5
AFAA
  8
0
 10
2809.6019544937980754
 20
167.1414430061649909
 30
0.0
 40
0.154307629251137
 50
247.3472005053816929
 51
270.3177418721896856
  0
ARC
  5
AFAB
  8
0
 10
2809.5826115486020171
 20
167.0981476945570989
 30
0.0
 40
0.1069089135436829
 50
219.249262159489291
 51
247.9773254498483084
  0
ARC
  5
AFAC
  8
0
 10
2809.5520113269221838
 20
167.073025929962995
 30
0.0
 40
0.0673177190551782
 50
180.7888353377502995
 51
219.1695149390457118
  0
ARC
  5
AFAD
  8
0
 10
2809.6002704312991227
 20
167.1515996191664044
 30
0.0
 40
0.1525419381374211
 50
250.0722112508190946
 51
270.2145804447625892
  0
ARC
  5
AFAE
  8
0
 10
2809.5820914747278039
 20
167.1081019512220109
 30
0.0
 40
0.1054770681790178
 50
219.2390202855507084
 51
251.3026143176597884
  0
ARC
  5
AFAF
  8
0
 10
2809.553565968150906
 20
167.0839396503245098
 30
0.0
 40
0.0681029330312836
 50
189.6581707019711871
 51
218.6753065851675899
  0
ARC
  5
AFB0
  8
0
 10
2809.600465574296777
 20
167.1400189904844069
 30
0.0
 40
0.1372263551975937
 50
254.9522400926670116
 51
270.157051443810019
  0
ARC
  5
AFB1
  8
0
 10
2809.5931218917730803
 20
167.1161392087394972
 30
0.0
 40
0.1122623646954961
 50
234.498419269732409
 51
255.4075486564966013
  0
ARC
  5
AFB2
  8
0
 10
2809.5732283084012124
 20
167.0883273155864117
 30
0.0
 40
0.0780680195457435
 50
212.6438298138538983
 51
234.5309195026696898
  0
ARC
  5
AFB3
  8
0
 10
2809.556046845894798
 20
167.0772226003153094
 30
0.0
 40
0.0576105492010685
 50
184.1063375899564107
 51
212.5616070064758958
  0
ARC
  5
AFB4
  8
0
 10
2809.5502077196078972
 20
167.09848288163559
 30
0.0
 40
0.059308099136761
 50
184.9394465882961924
 51
200.5202201426598094
  0
ARC
  5
AFB5
  8
0
 10
2809.4944773920678927
 20
167.1254520028280126
 30
0.0
 40
0.0027373574132872
 50
13.6369065444247806
 51
94.3825217227823572
  0
ARC
  5
AFB6
  8
0
 10
2809.6002142467668818
 20
167.1284261637389932
 30
0.0
 40
0.1157225514943487
 50
246.9767968632008035
 51
270.3106719712349104
  0
ARC
  5
AFB7
  8
0
 10
2809.5840022657871486
 20
167.0934984121618072
 30
0.0
 40
0.07724662862839
 50
215.7288579830083961
 51
247.9116063271642076
  0
ARC
  5
AFB8
  8
0
 10
2809.5625813126121102
 20
167.0772892651912116
 30
0.0
 40
0.0503961769582465
 50
183.103384591347691
 51
214.9902496251139894
  0
ARC
  5
AFB9
  8
0
 10
2809.4176189051058827
 20
167.215327238248193
 30
0.0
 40
0.0088882834276628
 50
93.7338278927261115
 51
168.3864244572050097
  0
ARC
  5
AFBA
  8
0
 10
2809.5949939206020645
 20
167.0884577655558871
 30
0.0
 40
0.0152495521412858
 50
211.7361704899047936
 51
234.2202070367264071
  0
ARC
  5
AFBB
  8
0
 10
2809.5869111813108248
 20
167.0836637889283054
 30
0.0
 40
0.005856274967565
 50
185.6348280871067971
 51
213.4428226156497885
  0
ARC
  5
AFBC
  8
0
 10
2809.5770964215848835
 20
167.0885042977998864
 30
0.0
 40
0.0153256432167427
 50
305.8768603251460831
 51
326.9397134905381108
  0
ARC
  5
AFBD
  8
0
 10
2809.5846508423969681
 20
167.0838670012234957
 30
0.0
 40
0.0064688171704399
 50
324.8614228425238935
 51
353.0903279933770023
  0
ARC
  5
AFBE
  8
0
 10
2809.5824243372171622
 20
167.0781256983493961
 30
0.0
 40
0.0035652785678729
 50
270.966583717253684
 51
288.4664995181327072
  0
ARC
  5
AFBF
  8
0
 10
2809.5804500256931533
 20
167.0836255338255114
 30
0.0
 40
0.0094081917505271
 50
289.2617479577185122
 51
306.7405940446105888
  0
ARC
  5
AFC0
  8
0
 10
2809.590745930122921
 20
167.0820878572972958
 30
0.0
 40
0.0076032422091332
 50
232.1245363407342097
 51
261.8754633398260125
  0
ARC
  5
AFC1
  8
0
 10
2809.5949939206020645
 20
167.1238583463558882
 30
0.0
 40
0.0152495521412858
 50
211.7361704899047936
 51
234.2202070367264071
  0
ARC
  5
AFC2
  8
0
 10
2809.5869111813108248
 20
167.1190643697283065
 30
0.0
 40
0.005856274967565
 50
185.6348280871067971
 51
213.4428226156497885
  0
ARC
  5
AFC3
  8
0
 10
2809.5770964215848835
 20
167.1239048785998875
 30
0.0
 40
0.0153256432167427
 50
305.8768603251460831
 51
326.9397134905381108
  0
ARC
  5
AFC4
  8
0
 10
2809.5846508423969681
 20
167.1192675820234967
 30
0.0
 40
0.0064688171704399
 50
324.8614228425238935
 51
353.0903279933770023
  0
ARC
  5
AFC5
  8
0
 10
2809.5824243372171622
 20
167.1135262791493972
 30
0.0
 40
0.0035652785678729
 50
270.966583717253684
 51
288.4664995181327072
  0
ARC
  5
AFC6
  8
0
 10
2809.5804500256931533
 20
167.1190261146255125
 30
0.0
 40
0.0094081917505271
 50
289.2617479577185122
 51
306.7405940446105888
  0
ARC
  5
AFC7
  8
0
 10
2809.5907467659831127
 20
167.1174904067653131
 30
0.0
 40
0.0076053093648651
 50
232.1286713757868085
 51
261.8713256027897955
  0
ARC
  5
AFC8
  8
0
 10
2809.5949939206020645
 20
167.1592589270559017
 30
0.0
 40
0.0152495521412858
 50
211.7361704899047936
 51
234.2202070367264071
  0
ARC
  5
AFC9
  8
0
 10
2809.5869111813108248
 20
167.1544649504282916
 30
0.0
 40
0.005856274967565
 50
185.6348280871067971
 51
213.4428226156497885
  0
ARC
  5
AFCA
  8
0
 10
2809.5770964215848835
 20
167.159305459299901
 30
0.0
 40
0.0153256432167427
 50
305.8768603251460831
 51
326.9397134905381108
  0
ARC
  5
AFCB
  8
0
 10
2809.5846508423969681
 20
167.1546681627235102
 30
0.0
 40
0.0064688171704399
 50
324.8614228425238935
 51
353.0903279933770023
  0
ARC
  5
AFCC
  8
0
 10
2809.5824243372171622
 20
167.1489268598494107
 30
0.0
 40
0.0035652785678729
 50
270.966583717253684
 51
288.4664995181327072
  0
ARC
  5
AFCD
  8
0
 10
2809.5804500256931533
 20
167.1544266953254976
 30
0.0
 40
0.0094081917505271
 50
289.2617479577185122
 51
306.7405940446105888
  0
ARC
  5
AFCE
  8
0
 10
2809.5907467659831127
 20
167.1528909874652982
 30
0.0
 40
0.0076053093648774
 50
232.1286713757918108
 51
261.8713256027376133
  0
ARC
  5
AFCF
  8
0
 10
2809.6589702985020267
 20
167.1592589270559017
 30
0.0
 40
0.0152495521412858
 50
211.7361704899047936
 51
234.2202070367264071
  0
ARC
  5
AFD0
  8
0
 10
2809.650887559210787
 20
167.1544649504282916
 30
0.0
 40
0.005856274967565
 50
185.6348280871067971
 51
213.4428226156497885
  0
ARC
  5
AFD1
  8
0
 10
2809.6410727994848457
 20
167.159305459299901
 30
0.0
 40
0.0153256432167427
 50
305.8768603251460831
 51
326.9397134905381108
  0
ARC
  5
AFD2
  8
0
 10
2809.6486272202969303
 20
167.1546681627235102
 30
0.0
 40
0.0064688171704399
 50
324.8614228425238935
 51
353.0903279933770023
  0
ARC
  5
AFD3
  8
0
 10
2809.646400715116215
 20
167.1489268598494107
 30
0.0
 40
0.0035652785678729
 50
270.966583717253684
 51
288.4664995181327072
  0
ARC
  5
AFD4
  8
0
 10
2809.644426403594025
 20
167.1544266953254976
 30
0.0
 40
0.0094081917505271
 50
289.2617479577185122
 51
306.7405940446105888
  0
ARC
  5
AFD5
  8
0
 10
2809.6547225045110281
 20
167.1528894812709041
 30
0.0
 40
0.0076037278956354
 50
232.1255071575403122
 51
261.8744909679488728
  0
ARC
  5
AFD6
  8
0
 10
2809.6589702985020267
 20
167.1238583463558882
 30
0.0
 40
0.0152495521412858
 50
211.7361704899047936
 51
234.2202070367264071
  0
ARC
  5
AFD7
  8
0
 10
2809.650887559210787
 20
167.1190643697283065
 30
0.0
 40
0.005856274967565
 50
185.6348280871067971
 51
213.4428226156497885
  0
ARC
  5
AFD8
  8
0
 10
2809.6410727994848457
 20
167.1239048785998875
 30
0.0
 40
0.0153256432167427
 50
305.8768603251460831
 51
326.9397134905381108
  0
ARC
  5
AFD9
  8
0
 10
2809.6486272202969303
 20
167.1192675820234967
 30
0.0
 40
0.0064688171704399
 50
324.8614228425238935
 51
353.0903279933770023
  0
ARC
  5
AFDA
  8
0
 10
2809.646400715116215
 20
167.1135262791493972
 30
0.0
 40
0.0035652785678729
 50
270.966583717253684
 51
288.4664995181327072
  0
ARC
  5
AFDB
  8
0
 10
2809.644426403594025
 20
167.1190261146255125
 30
0.0
 40
0.0094081917505271
 50
289.2617479577185122
 51
306.7405940446105888
  0
ARC
  5
AFDC
  8
0
 10
2809.6547085510610486
 20
167.1174655687792949
 30
0.0
 40
0.0075767449992355
 50
232.1004773769433029
 51
261.9581634425654784
  0
ARC
  5
AFDD
  8
0
 10
2809.6589702985020267
 20
167.0884577655558871
 30
0.0
 40
0.0152495521412858
 50
211.7361704899047936
 51
234.2202070367264071
  0
ARC
  5
AFDE
  8
0
 10
2809.650887559210787
 20
167.0836637889283054
 30
0.0
 40
0.005856274967565
 50
185.6348280871067971
 51
213.4428226156497885
  0
ARC
  5
AFDF
  8
0
 10
2809.6410727994848457
 20
167.0885042977998864
 30
0.0
 40
0.0153256432167427
 50
305.8768603251460831
 51
326.9397134905381108
  0
ARC
  5
AFE0
  8
0
 10
2809.6486272202969303
 20
167.0838670012234957
 30
0.0
 40
0.0064688171704399
 50
324.8614228425238935
 51
353.0903279933770023
  0
ARC
  5
AFE1
  8
0
 10
2809.646400715116215
 20
167.0781256983493961
 30
0.0
 40
0.0035652785678729
 50
270.966583717253684
 51
288.4664995181327072
  0
ARC
  5
AFE2
  8
0
 10
2809.644426403594025
 20
167.0836255338255114
 30
0.0
 40
0.0094081917505271
 50
289.2617479577185122
 51
306.7405940446105888
  0
ARC
  5
AFE3
  8
0
 10
2809.6547085510610486
 20
167.0820649879792938
 30
0.0
 40
0.0075767449992355
 50
232.1004773769433029
 51
261.9581634425654784
  0
ARC
  5
AFE4
  8
0
 10
2809.7229466765020334
 20
167.1592589270559017
 30
0.0
 40
0.0152495521412858
 50
211.7361704899047936
 51
234.2202070367264071
  0
ARC
  5
AFE5
  8
0
 10
2809.7148639372107937
 20
167.1544649504282916
 30
0.0
 40
0.005856274967565
 50
185.6348280871067971
 51
213.4428226156497885
  0
ARC
  5
AFE6
  8
0
 10
2809.7050491774848524
 20
167.159305459299901
 30
0.0
 40
0.0153256432167427
 50
305.8768603251460831
 51
326.9397134905381108
  0
ARC
  5
AFE7
  8
0
 10
2809.712603598296937
 20
167.1546681627235102
 30
0.0
 40
0.006468817170448
 50
324.8614228425536226
 51
353.0903279933608019
  0
ARC
  5
AFE8
  8
0
 10
2809.7103770931171312
 20
167.1489268598494107
 30
0.0
 40
0.0035652785678729
 50
270.966583717253684
 51
288.4664995181327072
  0
ARC
  5
AFE9
  8
0
 10
2809.7084027815931222
 20
167.1544266953254976
 30
0.0
 40
0.0094081917505271
 50
289.2617479577185122
 51
306.7405940446105888
  0
ARC
  5
AFEA
  8
0
 10
2809.7186849290610553
 20
167.1528661494793084
 30
0.0
 40
0.0075767449992355
 50
232.1004773769433029
 51
261.9581634425654784
  0
ARC
  5
AFEB
  8
0
 10
2809.7229466765020334
 20
167.1238583463558882
 30
0.0
 40
0.0152495521412858
 50
211.7361704899047936
 51
234.2202070367264071
  0
ARC
  5
AFEC
  8
0
 10
2809.7148639372107937
 20
167.1190643697283065
 30
0.0
 40
0.005856274967565
 50
185.6348280871067971
 51
213.4428226156497885
  0
ARC
  5
AFED
  8
0
 10
2809.7050491774848524
 20
167.1239048785998875
 30
0.0
 40
0.0153256432167427
 50
305.8768603251460831
 51
326.9397134905381108
  0
ARC
  5
AFEE
  8
0
 10
2809.712603598296937
 20
167.1192675820234967
 30
0.0
 40
0.0064688171704399
 50
324.8614228425238935
 51
353.0903279933770023
  0
ARC
  5
AFEF
  8
0
 10
2809.7103770931171312
 20
167.1135262791493972
 30
0.0
 40
0.0035652785678729
 50
270.966583717253684
 51
288.4664995181327072
  0
ARC
  5
AFF0
  8
0
 10
2809.7084027815931222
 20
167.1190261146255125
 30
0.0
 40
0.0094081917505271
 50
289.2617479577185122
 51
306.7405940446105888
  0
ARC
  5
AFF1
  8
0
 10
2809.7186849290610553
 20
167.1174655687792949
 30
0.0
 40
0.0075767449992355
 50
232.1004773769433029
 51
261.9581634425654784
  0
ARC
  5
AFF2
  8
0
 10
2809.7229466765020334
 20
167.0884577655558871
 30
0.0
 40
0.0152495521412858
 50
211.7361704899047936
 51
234.2202070367264071
  0
ARC
  5
AFF3
  8
0
 10
2809.7148639372107937
 20
167.0836637889283054
 30
0.0
 40
0.005856274967565
 50
185.6348280871052054
 51
213.4428226156497885
  0
ARC
  5
AFF4
  8
0
 10
2809.7050491774848524
 20
167.0885042977998864
 30
0.0
 40
0.0153256432167427
 50
305.8768603251460831
 51
326.9397134905381108
  0
ARC
  5
AFF5
  8
0
 10
2809.712603598296937
 20
167.0838670012234957
 30
0.0
 40
0.0064688171704399
 50
324.8614228425238935
 51
353.0903279933770023
  0
ARC
  5
AFF6
  8
0
 10
2809.7103770931171312
 20
167.0781256983493961
 30
0.0
 40
0.0035652785678729
 50
270.966583717253684
 51
288.4664995181327072
  0
ARC
  5
AFF7
  8
0
 10
2809.7084027815931222
 20
167.0836255338255114
 30
0.0
 40
0.0094081917505271
 50
289.2617479577185122
 51
306.7405940446105888
  0
ARC
  5
AFF8
  8
0
 10
2809.7186849290610553
 20
167.0820649879792938
 30
0.0
 40
0.0075767449992355
 50
232.1004773769433029
 51
261.9581634425654784
  0
ARC
  5
AFF9
  8
0
 10
2809.7869230544019956
 20
167.1592589270559017
 30
0.0
 40
0.0152495521412858
 50
211.7361704899047936
 51
234.2202070367264071
  0
ARC
  5
AFFA
  8
0
 10
2809.7788403151121202
 20
167.1544649504282916
 30
0.0
 40
0.005856274967565
 50
185.6348280871052054
 51
213.4428226156497885
  0
ARC
  5
AFFB
  8
0
 10
2809.7690255553848147
 20
167.159305459299901
 30
0.0
 40
0.0153256432167427
 50
305.8768603251460831
 51
326.9397134905381108
  0
ARC
  5
AFFC
  8
0
 10
2809.7765799761968992
 20
167.1546681627235102
 30
0.0
 40
0.0064688171704399
 50
324.8614228425238935
 51
353.0903279933770023
  0
ARC
  5
AFFD
  8
0
 10
2809.7743534710161839
 20
167.1489268598494107
 30
0.0
 40
0.0035652785678729
 50
270.966583717253684
 51
288.4664995181327072
  0
ARC
  5
AFFE
  8
0
 10
2809.7723791594939939
 20
167.1544266953254976
 30
0.0
 40
0.0094081917505271
 50
289.2617479577185122
 51
306.7405940446105888
  0
ARC
  5
AFFF
  8
0
 10
2809.7826613069610175
 20
167.1528661494793084
 30
0.0
 40
0.0075767449992355
 50
232.1004773769433029
 51
261.9581634425654784
  0
ARC
  5
B000
  8
0
 10
2809.7869230544019956
 20
167.1238583463558882
 30
0.0
 40
0.0152495521412858
 50
211.7361704899047936
 51
234.2202070367264071
  0
ARC
  5
B001
  8
0
 10
2809.7788403151121202
 20
167.1190643697283065
 30
0.0
 40
0.005856274967565
 50
185.6348280871052054
 51
213.4428226156497885
  0
ARC
  5
B002
  8
0
 10
2809.7690255553848147
 20
167.1239048785998875
 30
0.0
 40
0.0153256432167427
 50
305.8768603251460831
 51
326.9397134905381108
  0
ARC
  5
B003
  8
0
 10
2809.7765799761968992
 20
167.1192675820234967
 30
0.0
 40
0.0064688171704399
 50
324.8614228425238935
 51
353.0903279933770023
  0
ARC
  5
B004
  8
0
 10
2809.7743534710161839
 20
167.1135262791493972
 30
0.0
 40
0.0035652785678729
 50
270.966583717253684
 51
288.4664995181327072
  0
ARC
  5
B005
  8
0
 10
2809.7723791594939939
 20
167.1190261146255125
 30
0.0
 40
0.0094081917505271
 50
289.2617479577185122
 51
306.7405940446105888
  0
ARC
  5
B006
  8
0
 10
2809.7826613069610175
 20
167.1174655687792949
 30
0.0
 40
0.0075767449992355
 50
232.1004773769433029
 51
261.9581634425654784
  0
ARC
  5
B007
  8
0
 10
2809.7869230544019956
 20
167.0884577655558871
 30
0.0
 40
0.0152495521412858
 50
211.7361704899047936
 51
234.2202070367264071
  0
ARC
  5
B008
  8
0
 10
2809.7788403151121202
 20
167.0836637889283054
 30
0.0
 40
0.005856274967565
 50
185.6348280871052054
 51
213.4428226156497885
  0
ARC
  5
B009
  8
0
 10
2809.7690255553848147
 20
167.0885042977998864
 30
0.0
 40
0.0153256432167427
 50
305.8768603251460831
 51
326.9397134905381108
  0
ARC
  5
B00A
  8
0
 10
2809.7765799761968992
 20
167.0838670012234957
 30
0.0
 40
0.0064688171704399
 50
324.8614228425238935
 51
353.0903279933770023
  0
ARC
  5
B00B
  8
0
 10
2809.7743534710161839
 20
167.0781256983493961
 30
0.0
 40
0.0035652785678729
 50
270.966583717253684
 51
288.4664995181327072
  0
ARC
  5
B00C
  8
0
 10
2809.7723791594939939
 20
167.0836255338255114
 30
0.0
 40
0.0094081917505271
 50
289.2617479577185122
 51
306.7405940446105888
  0
ARC
  5
B00D
  8
0
 10
2809.7826750967210501
 20
167.0820879346341883
 30
0.0
 40
0.0076033233908187
 50
232.1246990498740104
 51
261.8753017771991267
  0
ARC
  5
B00E
  8
0
 10
2809.8508994324020023
 20
167.1592589270559017
 30
0.0
 40
0.0152495521412858
 50
211.7361704899047936
 51
234.2202070367264071
  0
ARC
  5
B00F
  8
0
 10
2809.8428166931121268
 20
167.1544649504282916
 30
0.0
 40
0.005856274967565
 50
185.6348280871052054
 51
213.4428226156497885
  0
ARC
  5
B010
  8
0
 10
2809.8330019333848213
 20
167.159305459299901
 30
0.0
 40
0.0153256432167427
 50
305.8768603251460831
 51
326.9397134905381108
  0
ARC
  5
B011
  8
0
 10
2809.8405563541969059
 20
167.1546681627235102
 30
0.0
 40
0.0064688171704399
 50
324.8614228425238935
 51
353.0903279933770023
  0
ARC
  5
B012
  8
0
 10
2809.8383298490161906
 20
167.1489268598494107
 30
0.0
 40
0.0035652785678729
 50
270.966583717253684
 51
288.4664995181327072
  0
ARC
  5
B013
  8
0
 10
2809.8363555374930911
 20
167.1544266953254976
 30
0.0
 40
0.0094081917505271
 50
289.2617479577185122
 51
306.7405940446105888
  0
ARC
  5
B014
  8
0
 10
2809.8466516184607826
 20
167.1528894341998068
 30
0.0
 40
0.0076036784913151
 50
232.125408065402695
 51
261.8745889127374085
  0
ARC
  5
B015
  8
0
 10
2809.8508994324020023
 20
167.1238583463558882
 30
0.0
 40
0.0152495521412858
 50
211.7361704899047936
 51
234.2202070367264071
  0
ARC
  5
B016
  8
0
 10
2809.8428166931121268
 20
167.1190643697283065
 30
0.0
 40
0.005856274967565
 50
185.6348280871052054
 51
213.4428226156497885
  0
ARC
  5
B017
  8
0
 10
2809.8330019333848213
 20
167.1239048785998875
 30
0.0
 40
0.0153256432167427
 50
305.8768603251460831
 51
326.9397134905381108
  0
ARC
  5
B018
  8
0
 10
2809.8405563541969059
 20
167.1192675820234967
 30
0.0
 40
0.0064688171704399
 50
324.8614228425238935
 51
353.0903279933770023
  0
ARC
  5
B019
  8
0
 10
2809.8383298490161906
 20
167.1135262791493972
 30
0.0
 40
0.0035652785678729
 50
270.966583717253684
 51
288.4664995181327072
  0
ARC
  5
B01A
  8
0
 10
2809.8363555374930911
 20
167.1190261146255125
 30
0.0
 40
0.0094081917505271
 50
289.2617479577185122
 51
306.7405940446105888
  0
ARC
  5
B01B
  8
0
 10
2809.8466515401578363
 20
167.1174886690295125
 30
0.0
 40
0.007603484805747
 50
232.1250204123548997
 51
261.8749765657877902
  0
ARC
  5
B01C
  8
0
 10
2809.8508994324020023
 20
167.0884577655558871
 30
0.0
 40
0.0152495521412858
 50
211.7361704899047936
 51
234.2202070367264071
  0
ARC
  5
B01D
  8
0
 10
2809.8428166931121268
 20
167.0836637889283054
 30
0.0
 40
0.005856274967565
 50
185.6348280871052054
 51
213.4428226156497885
  0
ARC
  5
B01E
  8
0
 10
2809.8330019333848213
 20
167.0885042977998864
 30
0.0
 40
0.0153256432167427
 50
305.8768603251460831
 51
326.9397134905381108
  0
ARC
  5
B01F
  8
0
 10
2809.8405563541969059
 20
167.0838670012234957
 30
0.0
 40
0.0064688171704399
 50
324.8614228425238935
 51
353.0903279933770023
  0
ARC
  5
B020
  8
0
 10
2809.8383298490161906
 20
167.0781256983493961
 30
0.0
 40
0.0035652785678729
 50
270.966583717253684
 51
288.4664995181327072
  0
ARC
  5
B021
  8
0
 10
2809.8363555374930911
 20
167.0836255338255114
 30
0.0
 40
0.0094081917505271
 50
289.2617479577185122
 51
306.7405940446105888
  0
ARC
  5
B022
  8
0
 10
2809.8466515787290518
 20
167.0820881795912101
 30
0.0
 40
0.007603580602889
 50
232.1252136519493945
 51
261.8747860281964108
  0
ARC
  5
B023
  8
0
 10
2809.914875810302874
 20
167.1592589270559017
 30
0.0
 40
0.0152495521412858
 50
211.7361704899047936
 51
234.2202070367264071
  0
ARC
  5
B024
  8
0
 10
2809.9067930710120891
 20
167.1544649504282916
 30
0.0
 40
0.005856274967565
 50
185.6348280871052054
 51
213.4428226156497885
  0
ARC
  5
B025
  8
0
 10
2809.8969783112847836
 20
167.159305459299901
 30
0.0
 40
0.0153256432167427
 50
305.8768603251460831
 51
326.9397134905381108
  0
ARC
  5
B026
  8
0
 10
2809.9045327320968681
 20
167.1546681627235102
 30
0.0
 40
0.0064688171704399
 50
324.8614228425238935
 51
353.0903279933770023
  0
ARC
  5
B027
  8
0
 10
2809.9023062269161528
 20
167.1489268598494107
 30
0.0
 40
0.0035652785678729
 50
270.966583717253684
 51
288.4664995181327072
  0
ARC
  5
B028
  8
0
 10
2809.9003319153939628
 20
167.1544266953254976
 30
0.0
 40
0.0094081917505271
 50
289.2617479577185122
 51
306.7405940446105888
  0
ARC
  5
B029
  8
0
 10
2809.9106140628609865
 20
167.1528661494793084
 30
0.0
 40
0.0075767449992355
 50
232.1004773769433029
 51
261.9581634425654784
  0
ARC
  5
B02A
  8
0
 10
2809.914875810302874
 20
167.1238583463558882
 30
0.0
 40
0.0152495521412858
 50
211.7361704899047936
 51
234.2202070367264071
  0
ARC
  5
B02B
  8
0
 10
2809.9067930710120891
 20
167.1190643697283065
 30
0.0
 40
0.005856274967565
 50
185.6348280871052054
 51
213.4428226156497885
  0
ARC
  5
B02C
  8
0
 10
2809.8969783112847836
 20
167.1239048785998875
 30
0.0
 40
0.0153256432167427
 50
305.8768603251460831
 51
326.9397134905381108
  0
ARC
  5
B02D
  8
0
 10
2809.9045327320968681
 20
167.1192675820234967
 30
0.0
 40
0.0064688171704399
 50
324.8614228425238935
 51
353.0903279933770023
  0
ARC
  5
B02E
  8
0
 10
2809.9023062269161528
 20
167.1135262791493972
 30
0.0
 40
0.0035652785678729
 50
270.966583717253684
 51
288.4664995181327072
  0
ARC
  5
B02F
  8
0
 10
2809.9003319153939628
 20
167.1190261146255125
 30
0.0
 40
0.0094081917505271
 50
289.2617479577185122
 51
306.7405940446105888
  0
ARC
  5
B030
  8
0
 10
2809.9106140628609865
 20
167.1174655687792949
 30
0.0
 40
0.0075767449992355
 50
232.1004773769433029
 51
261.9581634425654784
  0
ARC
  5
B031
  8
0
 10
2809.914875810302874
 20
167.0884577655558871
 30
0.0
 40
0.0152495521412858
 50
211.7361704899047936
 51
234.2202070367264071
  0
ARC
  5
B032
  8
0
 10
2809.9067930710120891
 20
167.0836637889283054
 30
0.0
 40
0.005856274967565
 50
185.6348280871052054
 51
213.4428226156497885
  0
ARC
  5
B033
  8
0
 10
2809.8969783112847836
 20
167.0885042977998864
 30
0.0
 40
0.0153256432167427
 50
305.8768603251460831
 51
326.9397134905381108
  0
ARC
  5
B034
  8
0
 10
2809.9045327320968681
 20
167.0838670012234957
 30
0.0
 40
0.0064688171704399
 50
324.8614228425238935
 51
353.0903279933770023
  0
ARC
  5
B035
  8
0
 10
2809.9023062269161528
 20
167.0781256983493961
 30
0.0
 40
0.0035652785678729
 50
270.966583717253684
 51
288.4664995181327072
  0
ARC
  5
B036
  8
0
 10
2809.9003319153939628
 20
167.0836255338255114
 30
0.0
 40
0.0094081917505271
 50
289.2617479577185122
 51
306.7405940446105888
  0
ARC
  5
B037
  8
0
 10
2809.9106277596702057
 20
167.0820877156563995
 30
0.0
 40
0.0076030934746438
 50
232.1242388361123972
 51
261.8757619909620189
  0
ARC
  5
B038
  8
0
 10
2809.9788521883028807
 20
167.1592589270559017
 30
0.0
 40
0.0152495521412858
 50
211.7361704899047936
 51
234.2202070367264071
  0
ARC
  5
B039
  8
0
 10
2809.9707694490120957
 20
167.1544649504282916
 30
0.0
 40
0.005856274967565
 50
185.6348280871052054
 51
213.4428226156497885
  0
ARC
  5
B03A
  8
0
 10
2809.9609546892847902
 20
167.159305459299901
 30
0.0
 40
0.0153256432167427
 50
305.8768603251460831
 51
326.9397134905381108
  0
ARC
  5
B03B
  8
0
 10
2809.9685091100968748
 20
167.1546681627235102
 30
0.0
 40
0.0064688171704399
 50
324.8614228425238935
 51
353.0903279933770023
  0
ARC
  5
B03C
  8
0
 10
2809.9662826049161595
 20
167.1489268598494107
 30
0.0
 40
0.0035652785678729
 50
270.966583717253684
 51
288.4664995181327072
  0
ARC
  5
B03D
  8
0
 10
2809.9643082933939695
 20
167.1544266953254976
 30
0.0
 40
0.0094081917505271
 50
289.2617479577185122
 51
306.7405940446105888
  0
ARC
  5
B03E
  8
0
 10
2809.9745904408609931
 20
167.1528661494793084
 30
0.0
 40
0.0075767449992355
 50
232.1004773769433029
 51
261.9581634425654784
  0
ARC
  5
B03F
  8
0
 10
2809.9788521883028807
 20
167.1238583463558882
 30
0.0
 40
0.0152495521412858
 50
211.7361704899047936
 51
234.2202070367264071
  0
ARC
  5
B040
  8
0
 10
2809.9707694490120957
 20
167.1190643697283065
 30
0.0
 40
0.005856274967565
 50
185.6348280871052054
 51
213.4428226156497885
  0
ARC
  5
B041
  8
0
 10
2809.9609546892847902
 20
167.1239048785998875
 30
0.0
 40
0.0153256432167427
 50
305.8768603251460831
 51
326.9397134905381108
  0
ARC
  5
B042
  8
0
 10
2809.9685091100968748
 20
167.1192675820234967
 30
0.0
 40
0.0064688171704399
 50
324.8614228425238935
 51
353.0903279933770023
  0
ARC
  5
B043
  8
0
 10
2809.9662826049161595
 20
167.1135262791493972
 30
0.0
 40
0.0035652785678729
 50
270.966583717253684
 51
288.4664995181327072
  0
ARC
  5
B044
  8
0
 10
2809.9643082933939695
 20
167.1190261146255125
 30
0.0
 40
0.0094081917505271
 50
289.2617479577185122
 51
306.7405940446105888
  0
ARC
  5
B045
  8
0
 10
2809.9745904408609931
 20
167.1174655687792949
 30
0.0
 40
0.0075767449992355
 50
232.1004773769433029
 51
261.9581634425654784
  0
ARC
  5
B046
  8
0
 10
2809.9788521883028807
 20
167.0884577655558871
 30
0.0
 40
0.0152495521412858
 50
211.7361704899047936
 51
234.2202070367264071
  0
ARC
  5
B047
  8
0
 10
2809.9707694490120957
 20
167.0836637889283054
 30
0.0
 40
0.005856274967565
 50
185.6348280871052054
 51
213.4428226156497885
  0
ARC
  5
B048
  8
0
 10
2809.9609546892847902
 20
167.0885042977998864
 30
0.0
 40
0.0153256432167427
 50
305.8768603251460831
 51
326.9397134905381108
  0
ARC
  5
B049
  8
0
 10
2809.9685091100968748
 20
167.0838670012234957
 30
0.0
 40
0.0064688171704399
 50
324.8614228425238935
 51
353.0903279933770023
  0
ARC
  5
B04A
  8
0
 10
2809.9662826049161595
 20
167.0781256983493961
 30
0.0
 40
0.0035652785678729
 50
270.966583717253684
 51
288.4664995181327072
  0
ARC
  5
B04B
  8
0
 10
2809.9643082933939695
 20
167.0836255338255114
 30
0.0
 40
0.0094081917505271
 50
289.2617479577185122
 51
306.7405940446105888
  0
ARC
  5
B04C
  8
0
 10
2809.9745904408609931
 20
167.0820649879792938
 30
0.0
 40
0.0075767449992355
 50
232.1004773769433029
 51
261.9581634425654784
  0
ARC
  5
B04D
  8
0
 10
2810.0428285662019334
 20
167.1592589270559017
 30
0.0
 40
0.0152495521412858
 50
211.7361704899047936
 51
234.2202070367264071
  0
ARC
  5
B04E
  8
0
 10
2810.034745826912058
 20
167.1544649504282916
 30
0.0
 40
0.005856274967565
 50
185.6348280871052054
 51
213.4428226156497885
  0
ARC
  5
B04F
  8
0
 10
2810.0249310671852072
 20
167.159305459299901
 30
0.0
 40
0.0153256432167427
 50
305.8768603251460831
 51
326.9397134905381108
  0
ARC
  5
B050
  8
0
 10
2810.032485487996837
 20
167.1546681627235102
 30
0.0
 40
0.0064688171704399
 50
324.8614228425238935
 51
353.0903279933770023
  0
ARC
  5
B051
  8
0
 10
2810.0302589828161217
 20
167.1489268598494107
 30
0.0
 40
0.0035652785678729
 50
270.966583717253684
 51
288.4664995181327072
  0
ARC
  5
B052
  8
0
 10
2810.0282846712930223
 20
167.1544266953254976
 30
0.0
 40
0.0094081917505271
 50
289.2617479577185122
 51
306.7405940446105888
  0
ARC
  5
B053
  8
0
 10
2810.0385814114752066
 20
167.1528909872820066
 30
0.0
 40
0.007605309154067
 50
232.1286711685073101
 51
261.8713269564825055
  0
ARC
  5
B054
  8
0
 10
2810.0428285662019334
 20
167.1238583463558882
 30
0.0
 40
0.0152495521412858
 50
211.7361704899047936
 51
234.2202070367264071
  0
ARC
  5
B055
  8
0
 10
2810.034745826912058
 20
167.1190643697283065
 30
0.0
 40
0.005856274967565
 50
185.6348280871052054
 51
213.4428226156497885
  0
ARC
  5
B056
  8
0
 10
2810.0249310671852072
 20
167.1239048785998875
 30
0.0
 40
0.0153256432167427
 50
305.8768603251460831
 51
326.9397134905381108
  0
ARC
  5
B057
  8
0
 10
2810.032485487996837
 20
167.1192675820234967
 30
0.0
 40
0.0064688171704399
 50
324.8614228425238935
 51
353.0903279933770023
  0
ARC
  5
B058
  8
0
 10
2810.0302589828161217
 20
167.1135262791493972
 30
0.0
 40
0.0035652785678729
 50
270.966583717253684
 51
288.4664995181327072
  0
ARC
  5
B059
  8
0
 10
2810.0282846712930223
 20
167.1190261146255125
 30
0.0
 40
0.0094081917505271
 50
289.2617479577185122
 51
306.7405940446105888
  0
ARC
  5
B05A
  8
0
 10
2810.0385814114752066
 20
167.1174904065819931
 30
0.0
 40
0.0076053091540533
 50
232.1286711684797979
 51
261.8713269565089945
  0
ARC
  5
B05B
  8
0
 10
2810.0428285662019334
 20
167.0884577655558871
 30
0.0
 40
0.0152495521412858
 50
211.7361704899047936
 51
234.2202070367264071
  0
ARC
  5
B05C
  8
0
 10
2810.034745826912058
 20
167.0836637889283054
 30
0.0
 40
0.005856274967565
 50
185.6348280871052054
 51
213.4428226156497885
  0
ARC
  5
B05D
  8
0
 10
2810.0249310671852072
 20
167.0885042977998864
 30
0.0
 40
0.0153256432167427
 50
305.8768603251460831
 51
326.9397134905381108
  0
ARC
  5
B05E
  8
0
 10
2810.032485487996837
 20
167.0838670012234957
 30
0.0
 40
0.0064688171704399
 50
324.8614228425238935
 51
353.0903279933770023
  0
ARC
  5
B05F
  8
0
 10
2810.0302589828161217
 20
167.0781256983493961
 30
0.0
 40
0.0035652785678729
 50
270.966583717253684
 51
288.4664995181327072
  0
ARC
  5
B060
  8
0
 10
2810.0282846712930223
 20
167.0836255338255114
 30
0.0
 40
0.0094081917505271
 50
289.2617479577185122
 51
306.7405940446105888
  0
ARC
  5
B061
  8
0
 10
2810.0385814107198712
 20
167.0820898244969896
 30
0.0
 40
0.0076053076762239
 50
232.1286697153589103
 51
261.8713311116529212
  0
ARC
  5
B062
  8
0
 10
2810.0361119290791976
 20
167.0484968210076886
 30
0.0
 40
0.0027990628629548
 50
318.4896678187531052
 51
357.2824689786767749
  0
ARC
  5
B063
  8
0
 10
2810.0347608832780679
 20
167.0497075633051054
 30
0.0
 40
0.0046132142010402
 50
290.1526576576085859
 51
318.350127426614506
  0
ARC
  5
B064
  8
0
 10
2810.0339037329090388
 20
167.0519112019983083
 30
0.0
 40
0.0069773976167231
 50
259.0575835164285081
 51
290.5260473465492055
  0
ARC
  5
B065
  8
0
 10
2810.0334343131989954
 20
167.0502879041704034
 30
0.0
 40
0.0052967104367526
 50
227.6320533223534142
 51
260.7101174931781884
  0
ARC
  5
B066
  8
0
 10
2810.0318029394788937
 20
167.0485180019583993
 30
0.0
 40
0.0028897116141665
 50
183.0527062333424055
 51
227.8817603081674008
  0
ARC
  5
B067
  8
0
 10
2809.9721355511778711
 20
167.0484968210076886
 30
0.0
 40
0.0027990628629548
 50
318.4896678187531052
 51
357.2824689786767749
  0
ARC
  5
B068
  8
0
 10
2809.9707845053771962
 20
167.0497075633051054
 30
0.0
 40
0.0046132142010402
 50
290.1526576576085859
 51
318.350127426614506
  0
ARC
  5
B069
  8
0
 10
2809.9699273550099861
 20
167.0519112019983083
 30
0.0
 40
0.0069773976167231
 50
259.0575835164285081
 51
290.5260473465492055
  0
ARC
  5
B06A
  8
0
 10
2809.9694579352990331
 20
167.0502879041704034
 30
0.0
 40
0.0052967104367526
 50
227.6320533223534142
 51
260.7101174931781884
  0
ARC
  5
B06B
  8
0
 10
2809.9678265615789314
 20
167.0485180019583993
 30
0.0
 40
0.0028897116141665
 50
183.0527062333424055
 51
227.8817603081674008
  0
ARC
  5
B06C
  8
0
 10
2809.9081591731787739
 20
167.0484968210076886
 30
0.0
 40
0.0027990628629548
 50
318.4896678187531052
 51
357.2824689786767749
  0
ARC
  5
B06D
  8
0
 10
2809.9068081273771895
 20
167.0497075633051054
 30
0.0
 40
0.0046132142010402
 50
290.1526576576085859
 51
318.350127426614506
  0
ARC
  5
B06E
  8
0
 10
2809.9059509770099794
 20
167.0519112019983083
 30
0.0
 40
0.0069773976167231
 50
259.0575835164285081
 51
290.5260473465492055
  0
ARC
  5
B06F
  8
0
 10
2809.9054815572990265
 20
167.0502879041704034
 30
0.0
 40
0.0052967104367526
 50
227.6320533223534142
 51
260.7101174931781884
  0
ARC
  5
B070
  8
0
 10
2809.9038501835789248
 20
167.0485180019583993
 30
0.0
 40
0.0028897116141665
 50
183.0527062333424055
 51
227.8817603081674008
  0
ARC
  5
B071
  8
0
 10
2809.8441827952788117
 20
167.0484968210076886
 30
0.0
 40
0.0027990628629548
 50
318.4896678187531052
 51
357.2824689786767749
  0
ARC
  5
B072
  8
0
 10
2809.8428317494772273
 20
167.0497075633051054
 30
0.0
 40
0.0046132142010402
 50
290.1526576576085859
 51
318.350127426614506
  0
ARC
  5
B073
  8
0
 10
2809.8419745991091077
 20
167.0519112019983083
 30
0.0
 40
0.0069773976167231
 50
259.0575835164285081
 51
290.5260473465492055
  0
ARC
  5
B074
  8
0
 10
2809.8415051793990642
 20
167.0502879041704034
 30
0.0
 40
0.0052967104367526
 50
227.6320533223534142
 51
260.7101174931781884
  0
ARC
  5
B075
  8
0
 10
2809.8398738056789625
 20
167.0485180019583993
 30
0.0
 40
0.0028897116141665
 50
183.0527062333424055
 51
227.8817603081674008
  0
ARC
  5
B076
  8
0
 10
2809.7802064172778955
 20
167.0484968210076886
 30
0.0
 40
0.0027990628629548
 50
318.4896678187531052
 51
357.2824689786767749
  0
ARC
  5
B077
  8
0
 10
2809.7788553714772206
 20
167.0497075633051054
 30
0.0
 40
0.0046132142010402
 50
290.1526576576085859
 51
318.350127426614506
  0
ARC
  5
B078
  8
0
 10
2809.7779982211100105
 20
167.0519112019983083
 30
0.0
 40
0.0069773976167231
 50
259.0575835164285081
 51
290.5260473465492055
  0
ARC
  5
B079
  8
0
 10
2809.7775288013990576
 20
167.0502879041704034
 30
0.0
 40
0.0052967104367526
 50
227.6320533223534142
 51
260.7101174931781884
  0
ARC
  5
B07A
  8
0
 10
2809.7758974276789559
 20
167.0485180019583993
 30
0.0
 40
0.0028897116141665
 50
183.0527062333424055
 51
227.8817603081674008
  0
ARC
  5
B07B
  8
0
 10
2809.7162300393779333
 20
167.0484968210076886
 30
0.0
 40
0.0027990628629548
 50
318.4896678187531052
 51
357.2824689786767749
  0
ARC
  5
B07C
  8
0
 10
2809.7148789935768036
 20
167.0497075633051054
 30
0.0
 40
0.0046132142010402
 50
290.1526576576085859
 51
318.350127426614506
  0
ARC
  5
B07D
  8
0
 10
2809.7140218432091388
 20
167.0519112019983083
 30
0.0
 40
0.0069773976167231
 50
259.0575835164285081
 51
290.5260473465492055
  0
ARC
  5
B07E
  8
0
 10
2809.7135524234990953
 20
167.0502879041704034
 30
0.0
 40
0.0052967104367526
 50
227.6320533223534142
 51
260.7101174931781884
  0
ARC
  5
B07F
  8
0
 10
2809.7119210497789936
 20
167.0485180019583993
 30
0.0
 40
0.0028897116141665
 50
183.0527062333424055
 51
227.8817603081674008
  0
ARC
  5
B080
  8
0
 10
2809.6587331476448526
 20
167.0528587524833881
 30
0.0
 40
0.0149422688660855
 50
211.1704279759213989
 51
227.9021822838728895
  0
ARC
  5
B081
  8
0
 10
2809.6509708458561363
 20
167.0483014651400993
 30
0.0
 40
0.0059429906142096
 50
185.9230374991022927
 51
212.3109821040559098
  0
ARC
  5
B082
  8
0
 10
2809.6462828366788926
 20
167.0434580334996895
 30
0.0
 40
0.0043013725955084
 50
272.371993514966789
 51
292.262700311572587
  0
ARC
  5
B083
  8
0
 10
2809.6439718820420239
 20
167.048964515237202
 30
0.0
 40
0.0102730303868084
 50
292.5557149115916786
 51
306.3046170494394005
  0
ARC
  5
B084
  8
0
 10
2809.6414971553940632
 20
167.0527722793542011
 30
0.0
 40
0.0147899844456389
 50
311.9281397433589973
 51
326.8553345924162272
  0
ARC
  5
B085
  8
0
 10
2809.6452402590848578
 20
167.0502196345238985
 30
0.0
 40
0.0102606412890358
 50
327.3620974639788983
 51
337.5823574347081717
  0
ARC
  5
B086
  8
0
 10
2809.6503989797997747
 20
167.0480486508973001
 30
0.0
 40
0.0046640247473475
 50
338.069022159933013
 51
355.5674936534657036
  0
ARC
  5
B087
  8
0
 10
2809.6557945003000896
 20
167.0484540159777112
 30
0.0
 40
0.0096590235745235
 50
233.5385511037532069
 51
248.4375674997677095
  0
ARC
  5
B088
  8
0
 10
2809.6539081745340809
 20
167.0436610999311995
 30
0.0
 40
0.0045082799824923
 50
248.3466788588362988
 51
266.6887805498091097
  0
ARC
  5
B089
  8
0
 10
2809.654394266115105
 20
167.0402168924148896
 30
0.0
 40
0.0010567051438586
 50
270.9943761102205144
 51
287.425324223524683
  0
ARC
  5
B08A
  8
0
 10
2809.653928961886777
 20
167.0414562845826083
 30
0.0
 40
0.0023796741781214
 50
289.1783904647228951
 51
309.2610493209865012
  0
ARC
  5
B08B
  8
0
 10
2809.6499645666631295
 20
167.0460569326965015
 30
0.0
 40
0.0084521832007086
 50
310.3319822773236751
 51
327.9077488883935985
  0
ARC
  5
B08C
  8
0
 10
2809.6438579566379303
 20
167.0502144644077873
 30
0.0
 40
0.0158369336121943
 50
326.9023278944814024
 51
341.648475153998902
  0
ARC
  5
B08D
  8
0
 10
2809.6503540892867932
 20
167.0481761755420109
 30
0.0
 40
0.0090301072095185
 50
340.9463537900485903
 51
356.9022568660208208
  0
ARC
  5
B08E
  8
0
 10
2809.6262914239368911
 20
167.0520894236483116
 30
0.0
 40
0.0306731934422362
 50
314.9954512725150835
 51
335.0700030268149021
  0
ARC
  5
B08F
  8
0
 10
2809.6427680122610582
 20
167.0357030384207064
 30
0.0
 40
0.00743585674902
 50
299.2360866667381174
 51
314.4897582076923186
  0
ARC
  5
B090
  8
0
 10
2809.6452020054398417
 20
167.0317176438730087
 30
0.0
 40
0.0027750364214588
 50
282.2457887980402234
 51
295.5701297333870912
  0
ARC
  5
B091
  8
0
 10
2809.6457333105158796
 20
167.0296324598783997
 30
0.0
 40
0.0006293248654626
 50
212.3927738700014913
 51
275.2236812600730218
  0
ARC
  5
B092
  8
0
 10
2809.6464138274400284
 20
167.0299012788759967
 30
0.0
 40
0.0013549646739018
 50
181.8675227314028859
 51
206.5651685376406874
  0
ARC
  5
B093
  8
0
 10
2810.6502295420568771
 20
166.9213656573301989
 30
0.0
 40
0.0088317746646574
 50
280.1294569567522785
 51
349.470085947920893
  0
ARC
  5
B094
  8
0
 10
2810.6496213802670354
 20
167.2136972576820995
 30
0.0
 40
0.0105636902767474
 50
28.412871865419099
 51
83.6754106172150642
  0
LINE
  5
B095
  8
0
 10
2810.5701543744239643
 20
167.0945189413072001
 30
0.0
 11
2810.5688067139240047
 21
167.0730972372072074
 31
0.0
  0
LINE
  5
B096
  8
0
 10
2810.5688067139240047
 20
167.0730972372072074
 30
0.0
 11
2810.5689113890239241
 21
167.0764263587072094
 31
0.0
  0
LINE
  5
B097
  8
0
 10
2810.5702533229241453
 20
167.0977769193071936
 30
0.0
 11
2810.5701543744239643
 21
167.0945189413072001
 31
0.0
  0
LINE
  5
B098
  8
0
 10
2810.4863077000240992
 20
167.0476881932071933
 30
0.0
 11
2810.4869709575159504
 21
167.0745609271071999
 31
0.0
  0
LINE
  5
B099
  8
0
 10
2810.4863077000240992
 20
167.0830887739072068
 30
0.0
 11
2810.4869709575159504
 21
167.1099615078072134
 31
0.0
  0
LINE
  5
B09A
  8
0
 10
2810.4863077000240992
 20
167.1184893547072079
 30
0.0
 11
2810.4869709575159504
 21
167.1453620885071985
 31
0.0
  0
LINE
  5
B09B
  8
0
 10
2810.4863077000240992
 20
167.153889935407193
 30
0.0
 11
2810.4866264375350511
 21
167.1668039989820045
 31
0.0
  0
LINE
  5
B09C
  8
0
 10
2810.6063129637241218
 20
167.0811783093072052
 30
0.0
 11
2810.6063129638241662
 21
167.0556898902071907
 31
0.0
  0
LINE
  5
B09D
  8
0
 10
2810.5826909166230507
 20
167.0720991441071988
 30
0.0
 11
2810.5826909166230507
 21
167.0975875614072095
 31
0.0
  0
LINE
  5
B09E
  8
0
 10
2810.5764736850242116
 20
167.0981587601071965
 30
0.0
 11
2810.5764736850242116
 21
167.1248357272102112
 31
0.0
  0
LINE
  5
B09F
  8
0
 10
2810.5702533229241453
 20
167.1260973839071937
 30
0.0
 11
2810.5702533229241453
 21
167.0977769193071936
 31
0.0
  0
LINE
  5
B0A0
  8
0
 10
2810.5689113890239241
 20
167.1047468233072095
 30
0.0
 11
2810.5689113890239241
 21
167.0764263587072094
 31
0.0
  0
LINE
  5
B0A1
  8
0
 10
2810.555131861523023
 20
167.0745609271071999
 30
0.0
 11
2810.555131861523023
 21
167.1047468233072095
 31
0.0
  0
LINE
  5
B0A2
  8
0
 10
2810.4665491843238669
 20
167.0391603464071864
 30
0.0
 11
2810.4665491843238669
 21
167.0127053134071957
 31
0.0
  0
LINE
  5
B0A3
  8
0
 10
2810.4759673282160293
 20
167.168107078985912
 30
0.0
 11
2810.4763182276237785
 21
167.153889935407193
 31
0.0
  0
LINE
  5
B0A4
  8
0
 10
2810.4756549701319273
 20
167.1453620885071985
 30
0.0
 11
2810.4763182276237785
 21
167.1184893547072079
 31
0.0
  0
LINE
  5
B0A5
  8
0
 10
2810.4756549701319273
 20
167.1099615078072134
 30
0.0
 11
2810.4763182276237785
 21
167.0830887739072068
 31
0.0
  0
LINE
  5
B0A6
  8
0
 10
2810.4756562270240465
 20
167.0745100025071963
 30
0.0
 11
2810.4763182276237785
 21
167.0476881932071933
 31
0.0
  0
LINE
  5
B0A7
  8
0
 10
2810.3590137277119538
 20
167.0745609271071999
 30
0.0
 11
2810.3583554658239336
 21
167.0483641116072135
 31
0.0
  0
LINE
  5
B0A8
  8
0
 10
2810.2950373497119472
 20
167.0745609271071999
 30
0.0
 11
2810.294379087823927
 21
167.0483641116072135
 31
0.0
  0
LINE
  5
B0A9
  8
0
 10
2810.231059671823914
 20
167.0745091955072041
 30
0.0
 11
2810.2304027099239647
 21
167.0483641116072135
 31
0.0
  0
LINE
  5
B0AA
  8
0
 10
2810.4223313220240925
 20
167.0476881932071933
 30
0.0
 11
2810.4229945796159882
 21
167.0745609271071999
 31
0.0
  0
LINE
  5
B0AB
  8
0
 10
2810.4223313220240925
 20
167.0830887739072068
 30
0.0
 11
2810.4229933227238689
 21
167.1099105832072098
 31
0.0
  0
LINE
  5
B0AC
  8
0
 10
2810.4223313220240925
 20
167.1184893547072079
 30
0.0
 11
2810.4229945796159882
 21
167.1453620885071985
 31
0.0
  0
LINE
  5
B0AD
  8
0
 10
2810.4223313220240925
 20
167.153889935407193
 30
0.0
 11
2810.4226911263240254
 21
167.1684678686071948
 31
0.0
  0
LINE
  5
B0AE
  8
0
 10
2810.3583549441241303
 20
167.0830887739072068
 30
0.0
 11
2810.3590182016159815
 21
167.1099615078072134
 31
0.0
  0
LINE
  5
B0AF
  8
0
 10
2810.3583549441241303
 20
167.1184893547072079
 30
0.0
 11
2810.3590182016159815
 21
167.1453620885071985
 31
0.0
  0
LINE
  5
B0B0
  8
0
 10
2810.3583549441241303
 20
167.153889935407193
 30
0.0
 11
2810.3587147483231092
 21
167.1684678686071948
 31
0.0
  0
LINE
  5
B0B1
  8
0
 10
2810.2943785661241236
 20
167.0830887739072068
 30
0.0
 11
2810.2950418236159749
 21
167.1099615078072134
 31
0.0
  0
LINE
  5
B0B2
  8
0
 10
2810.2943785661241236
 20
167.1184893547072079
 30
0.0
 11
2810.2950418236159749
 21
167.1453620885071985
 31
0.0
  0
LINE
  5
B0B3
  8
0
 10
2810.2943785661241236
 20
167.153889935407193
 30
0.0
 11
2810.2947383704240565
 21
167.1684678686071948
 31
0.0
  0
LINE
  5
B0B4
  8
0
 10
2810.2304021882241614
 20
167.0830887739072068
 30
0.0
 11
2810.2310654457160126
 21
167.1099615078072134
 31
0.0
  0
LINE
  5
B0B5
  8
0
 10
2810.2304021882241614
 20
167.1184893547072079
 30
0.0
 11
2810.2310654457160126
 21
167.1453620885071985
 31
0.0
  0
LINE
  5
B0B6
  8
0
 10
2810.2304021882241614
 20
167.153889935407193
 30
0.0
 11
2810.2307619924231403
 21
167.1684678686071948
 31
0.0
  0
LINE
  5
B0B7
  8
0
 10
2810.4256783266241655
 20
167.0391603464071864
 30
0.0
 11
2810.4256783266241655
 21
167.0127053134071957
 31
0.0
  0
LINE
  5
B0B8
  8
0
 10
2810.4223313220240925
 20
167.0298571224072077
 30
0.0
 11
2810.4223313220240925
 21
167.0391603464071864
 31
0.0
  0
LINE
  5
B0B9
  8
0
 10
2810.4120401313230104
 20
166.999058750807194
 30
0.0
 11
2810.4120401313230104
 21
167.0027931508072072
 31
0.0
  0
LINE
  5
B0BA
  8
0
 10
2810.4074940662239896
 20
167.0745609271071999
 30
0.0
 11
2810.4074940662239896
 21
167.0353616851072047
 31
0.0
  0
LINE
  5
B0BB
  8
0
 10
2810.408019902723936
 20
167.0476881932071933
 30
0.0
 11
2810.4076369708241145
 21
167.0745609271071999
 31
0.0
  0
LINE
  5
B0BC
  8
0
 10
2810.4119820454229739
 20
167.1684678686071948
 30
0.0
 11
2810.4123418497238163
 21
167.153889935407193
 31
0.0
  0
LINE
  5
B0BD
  8
0
 10
2810.4116785922310555
 20
167.1453620885071985
 30
0.0
 11
2810.4123418497238163
 21
167.1184893547072079
 31
0.0
  0
LINE
  5
B0BE
  8
0
 10
2810.4116798491240843
 20
167.1099105832072098
 30
0.0
 11
2810.4123418497238163
 21
167.0830887739072068
 31
0.0
  0
LINE
  5
B0BF
  8
0
 10
2810.4116785922310555
 20
167.0745609271071999
 30
0.0
 11
2810.4123418497238163
 21
167.0476881932071933
 31
0.0
  0
LINE
  5
B0C0
  8
0
 10
2810.3480056675239211
 20
167.1684678686071948
 30
0.0
 11
2810.3483654717238096
 21
167.153889935407193
 31
0.0
  0
LINE
  5
B0C1
  8
0
 10
2810.3477022142319584
 20
167.1453620885071985
 30
0.0
 11
2810.3483654717238096
 21
167.1184893547072079
 31
0.0
  0
LINE
  5
B0C2
  8
0
 10
2810.3477022142319584
 20
167.1099615078072134
 30
0.0
 11
2810.3483654717238096
 21
167.0830887739072068
 31
0.0
  0
LINE
  5
B0C3
  8
0
 10
2810.284029289523005
 20
167.1684678686071948
 30
0.0
 11
2810.2843890938238474
 21
167.153889935407193
 31
0.0
  0
LINE
  5
B0C4
  8
0
 10
2810.2837258363310866
 20
167.1453620885071985
 30
0.0
 11
2810.2843890938238474
 21
167.1184893547072079
 31
0.0
  0
LINE
  5
B0C5
  8
0
 10
2810.2837258363310866
 20
167.1099615078072134
 30
0.0
 11
2810.2843890938238474
 21
167.0830887739072068
 31
0.0
  0
LINE
  5
B0C6
  8
0
 10
2810.3483649500240062
 20
167.0483641116072135
 30
0.0
 11
2810.347706688235121
 21
167.0745609271071999
 31
0.0
  0
LINE
  5
B0C7
  8
0
 10
2810.284388572124044
 20
167.0483641116072135
 30
0.0
 11
2810.2837316101240503
 21
167.0745091955072041
 31
0.0
  0
LINE
  5
B0C8
  8
0
 10
2810.4256783266241655
 20
167.0127053134071957
 30
0.0
 11
2810.4074940662239896
 21
167.0353616851072047
 31
0.0
  0
LINE
  5
B0C9
  8
0
 10
2810.3938558708241544
 20
167.0183694064072029
 30
0.0
 11
2810.406357549923996
 21
167.0027931508072072
 31
0.0
  0
LINE
  5
B0CA
  8
0
 10
2810.1670832939239517
 20
167.0745091955072041
 30
0.0
 11
2810.1664263319239581
 21
167.0483641116072135
 31
0.0
  0
LINE
  5
B0CB
  8
0
 10
2810.1031082158119716
 20
167.0745609271071999
 30
0.0
 11
2810.1024499540239958
 21
167.0483641116072135
 31
0.0
  0
LINE
  5
B0CC
  8
0
 10
2810.1664258102241547
 20
167.0830887739072068
 30
0.0
 11
2810.167089067716006
 21
167.1099615078072134
 31
0.0
  0
LINE
  5
B0CD
  8
0
 10
2810.1664258102241547
 20
167.1184893547072079
 30
0.0
 11
2810.167089067716006
 21
167.1453620885071985
 31
0.0
  0
LINE
  5
B0CE
  8
0
 10
2810.1664258102241547
 20
167.153889935407193
 30
0.0
 11
2810.1667856145240876
 21
167.1684678686071948
 31
0.0
  0
LINE
  5
B0CF
  8
0
 10
2810.1024494323241925
 20
167.0830887739072068
 30
0.0
 11
2810.1031126898160437
 21
167.1099615078072134
 31
0.0
  0
LINE
  5
B0D0
  8
0
 10
2810.1024494323241925
 20
167.1184893547072079
 30
0.0
 11
2810.1031126898160437
 21
167.1453620885071985
 31
0.0
  0
LINE
  5
B0D1
  8
0
 10
2810.1024494323241925
 20
167.153889935407193
 30
0.0
 11
2810.1028092365240809
 21
167.1684678686071948
 31
0.0
  0
LINE
  5
B0D2
  8
0
 10
2810.0915491842729352
 20
167.0183694064072029
 30
0.0
 11
2810.0915491842729352
 21
166.9871377498072036
 31
0.0
  0
LINE
  5
B0D3
  8
0
 10
2810.2200529116239522
 20
167.1684678686071948
 30
0.0
 11
2810.2204127158229312
 21
167.153889935407193
 31
0.0
  0
LINE
  5
B0D4
  8
0
 10
2810.2197494583319894
 20
167.1453620885071985
 30
0.0
 11
2810.2204127158229312
 21
167.1184893547072079
 31
0.0
  0
LINE
  5
B0D5
  8
0
 10
2810.2197494583319894
 20
167.1099615078072134
 30
0.0
 11
2810.2204127158229312
 21
167.0830887739072068
 31
0.0
  0
LINE
  5
B0D6
  8
0
 10
2810.1560765336230361
 20
167.1684678686071948
 30
0.0
 11
2810.1564363379238785
 21
167.153889935407193
 31
0.0
  0
LINE
  5
B0D7
  8
0
 10
2810.1557730804311177
 20
167.1453620885071985
 30
0.0
 11
2810.1564363379238785
 21
167.1184893547072079
 31
0.0
  0
LINE
  5
B0D8
  8
0
 10
2810.1557730804311177
 20
167.1099615078072134
 30
0.0
 11
2810.1564363379238785
 21
167.0830887739072068
 31
0.0
  0
LINE
  5
B0D9
  8
0
 10
2810.0921001557239833
 20
167.1684678686071948
 30
0.0
 11
2810.0924599599229623
 21
167.153889935407193
 31
0.0
  0
LINE
  5
B0DA
  8
0
 10
2810.0917967024320205
 20
167.1453620885071985
 30
0.0
 11
2810.0924599599229623
 21
167.1184893547072079
 31
0.0
  0
LINE
  5
B0DB
  8
0
 10
2810.0917967024320205
 20
167.1099615078072134
 30
0.0
 11
2810.0924599599229623
 21
167.0830887739072068
 31
0.0
  0
LINE
  5
B0DC
  8
0
 10
2810.2204121941240373
 20
167.0483641116072135
 30
0.0
 11
2810.2197552322240881
 21
167.0745091955072041
 31
0.0
  0
LINE
  5
B0DD
  8
0
 10
2810.1564358162240751
 20
167.0483641116072135
 30
0.0
 11
2810.1557788542240814
 21
167.0745091955072041
 31
0.0
  0
LINE
  5
B0DE
  8
0
 10
2810.0924594382231589
 20
167.0483641116072135
 30
0.0
 11
2810.0918024763241192
 21
167.0745091955072041
 31
0.0
  0
LINE
  5
B0DF
  8
0
 10
2810.4665491843238669
 20
166.999058750807194
 30
0.0
 11
2810.4120401313230104
 21
166.999058750807194
 31
0.0
  0
LINE
  5
B0E0
  8
0
 10
2810.4665491843238669
 20
167.0027931508072072
 30
0.0
 11
2810.406357549923996
 21
167.0027931508072072
 31
0.0
  0
LINE
  5
B0E1
  8
0
 10
2810.4665491843238669
 20
167.0127053134071957
 30
0.0
 11
2810.4256783266241655
 21
167.0127053134071957
 31
0.0
  0
LINE
  5
B0E2
  8
0
 10
2810.0915491842729352
 20
167.0183694064072029
 30
0.0
 11
2810.3938558708241544
 21
167.0183694064072029
 31
0.0
  0
LINE
  5
B0E3
  8
0
 10
2810.4129783000230418
 20
167.0391603464071864
 30
0.0
 11
2810.413743126024201
 21
167.0391603464071864
 31
0.0
  0
LINE
  5
B0E4
  8
0
 10
2810.4209300457241625
 20
167.0391603464071864
 30
0.0
 11
2810.4777195040242077
 21
167.0391603464071864
 31
0.0
  0
LINE
  5
B0E5
  8
0
 10
2810.4849064236241247
 20
167.0391603464071864
 30
0.0
 11
2810.5249722145240412
 21
167.0391603464071864
 31
0.0
  0
LINE
  5
B0E6
  8
0
 10
2810.5335058380242117
 20
167.0476881932071933
 30
0.0
 11
2810.4863077000240992
 21
167.0476881932071933
 31
0.0
  0
LINE
  5
B0E7
  8
0
 10
2810.4763182276237785
 20
167.0476881932071933
 30
0.0
 11
2810.4223313221241369
 21
167.0476881932071933
 31
0.0
  0
LINE
  5
B0E8
  8
0
 10
2810.101048155924218
 20
167.0745609271071999
 30
0.0
 11
2810.1578376142238085
 21
167.0745609271071999
 31
0.0
  0
LINE
  5
B0E9
  8
0
 10
2810.1650245339242247
 20
167.0745609271071999
 30
0.0
 11
2810.2218139922238151
 21
167.0745609271071999
 31
0.0
  0
LINE
  5
B0EA
  8
0
 10
2810.2290009118241869
 20
167.0745609271071999
 30
0.0
 11
2810.2857903701237774
 21
167.0745609271071999
 31
0.0
  0
LINE
  5
B0EB
  8
0
 10
2810.2929772898241936
 20
167.0745609271071999
 30
0.0
 11
2810.3497667481237841
 21
167.0745609271071999
 31
0.0
  0
LINE
  5
B0EC
  8
0
 10
2810.3569536677241558
 20
167.0745609271071999
 30
0.0
 11
2810.413743126024201
 21
167.0745609271071999
 31
0.0
  0
LINE
  5
B0ED
  8
0
 10
2810.4209300457241625
 20
167.0745609271071999
 30
0.0
 11
2810.4777195040242077
 21
167.0745609271071999
 31
0.0
  0
LINE
  5
B0EE
  8
0
 10
2810.4849064236241247
 20
167.0745609271071999
 30
0.0
 11
2810.555131861523023
 21
167.0745609271071999
 31
0.0
  0
LINE
  5
B0EF
  8
0
 10
2810.555131861523023
 20
167.0830887739072068
 30
0.0
 11
2810.4863077000240992
 21
167.0830887739072068
 31
0.0
  0
LINE
  5
B0F0
  8
0
 10
2810.4763182276237785
 20
167.0830887739072068
 30
0.0
 11
2810.4223313221241369
 21
167.0830887739072068
 31
0.0
  0
LINE
  5
B0F1
  8
0
 10
2810.4123418497238163
 20
167.0830887739072068
 30
0.0
 11
2810.3583549441241303
 21
167.0830887739072068
 31
0.0
  0
LINE
  5
B0F2
  8
0
 10
2810.3483654717238096
 20
167.0830887739072068
 30
0.0
 11
2810.294378566224168
 21
167.0830887739072068
 31
0.0
  0
LINE
  5
B0F3
  8
0
 10
2810.2843890938238474
 20
167.0830887739072068
 30
0.0
 11
2810.2304021882241614
 21
167.0830887739072068
 31
0.0
  0
LINE
  5
B0F4
  8
0
 10
2810.2204127158229312
 20
167.0830887739072068
 30
0.0
 11
2810.1664258102241547
 21
167.0830887739072068
 31
0.0
  0
LINE
  5
B0F5
  8
0
 10
2810.1564363379238785
 20
167.0830887739072068
 30
0.0
 11
2810.1024494323241925
 21
167.0830887739072068
 31
0.0
  0
LINE
  5
B0F6
  8
0
 10
2810.101048155924218
 20
167.1099615078072134
 30
0.0
 11
2810.1578376142238085
 21
167.1099615078072134
 31
0.0
  0
LINE
  5
B0F7
  8
0
 10
2810.1650245339242247
 20
167.1099615078072134
 30
0.0
 11
2810.2218139922238151
 21
167.1099615078072134
 31
0.0
  0
LINE
  5
B0F8
  8
0
 10
2810.2290009118241869
 20
167.1099615078072134
 30
0.0
 11
2810.2857903701237774
 21
167.1099615078072134
 31
0.0
  0
LINE
  5
B0F9
  8
0
 10
2810.2929772898241936
 20
167.1099615078072134
 30
0.0
 11
2810.3497667481237841
 21
167.1099615078072134
 31
0.0
  0
LINE
  5
B0FA
  8
0
 10
2810.3569536677241558
 20
167.1099615078072134
 30
0.0
 11
2810.413743126024201
 21
167.1099615078072134
 31
0.0
  0
LINE
  5
B0FB
  8
0
 10
2810.4209300457241625
 20
167.1099615078072134
 30
0.0
 11
2810.4777195040242077
 21
167.1099615078072134
 31
0.0
  0
LINE
  5
B0FC
  8
0
 10
2810.4849064236241247
 20
167.1099615078072134
 30
0.0
 11
2810.5548318201149414
 21
167.1099615078072134
 31
0.0
  0
LINE
  5
B0FD
  8
0
 10
2810.5530255340081567
 20
167.1184893547072079
 30
0.0
 11
2810.4863077000240992
 21
167.1184893547072079
 31
0.0
  0
LINE
  5
B0FE
  8
0
 10
2810.4763182276237785
 20
167.1184893547072079
 30
0.0
 11
2810.4223313221241369
 21
167.1184893547072079
 31
0.0
  0
LINE
  5
B0FF
  8
0
 10
2810.4123418497238163
 20
167.1184893547072079
 30
0.0
 11
2810.3583549441241303
 21
167.1184893547072079
 31
0.0
  0
LINE
  5
B100
  8
0
 10
2810.3483654717238096
 20
167.1184893547072079
 30
0.0
 11
2810.294378566224168
 21
167.1184893547072079
 31
0.0
  0
LINE
  5
B101
  8
0
 10
2810.2843890938238474
 20
167.1184893547072079
 30
0.0
 11
2810.2304021882241614
 21
167.1184893547072079
 31
0.0
  0
LINE
  5
B102
  8
0
 10
2810.2204127158229312
 20
167.1184893547072079
 30
0.0
 11
2810.1664258102241547
 21
167.1184893547072079
 31
0.0
  0
LINE
  5
B103
  8
0
 10
2810.1564363379238785
 20
167.1184893547072079
 30
0.0
 11
2810.1024494323241925
 21
167.1184893547072079
 31
0.0
  0
LINE
  5
B104
  8
0
 10
2810.101048155924218
 20
167.1453620885071985
 30
0.0
 11
2810.1578376142238085
 21
167.1453620885071985
 31
0.0
  0
LINE
  5
B105
  8
0
 10
2810.1650245339242247
 20
167.1453620885071985
 30
0.0
 11
2810.2218139922238151
 21
167.1453620885071985
 31
0.0
  0
LINE
  5
B106
  8
0
 10
2810.2290009118241869
 20
167.1453620885071985
 30
0.0
 11
2810.2857903701237774
 21
167.1453620885071985
 31
0.0
  0
LINE
  5
B107
  8
0
 10
2810.2929772898241936
 20
167.1453620885071985
 30
0.0
 11
2810.3497667481237841
 21
167.1453620885071985
 31
0.0
  0
LINE
  5
B108
  8
0
 10
2810.3569536677241558
 20
167.1453620885071985
 30
0.0
 11
2810.413743126024201
 21
167.1453620885071985
 31
0.0
  0
LINE
  5
B109
  8
0
 10
2810.4209300457241625
 20
167.1453620885071985
 30
0.0
 11
2810.4777195040242077
 21
167.1453620885071985
 31
0.0
  0
LINE
  5
B10A
  8
0
 10
2810.4849064236241247
 20
167.1453620885071985
 30
0.0
 11
2810.5348810952518761
 21
167.1453620885071985
 31
0.0
  0
LINE
  5
B10B
  8
0
 10
2810.5228650224062221
 20
167.153889935407193
 30
0.0
 11
2810.4863077000240992
 21
167.153889935407193
 31
0.0
  0
LINE
  5
B10C
  8
0
 10
2810.4763182276237785
 20
167.153889935407193
 30
0.0
 11
2810.4223313221241369
 21
167.153889935407193
 31
0.0
  0
LINE
  5
B10D
  8
0
 10
2810.4123418497238163
 20
167.153889935407193
 30
0.0
 11
2810.3583549441241303
 21
167.153889935407193
 31
0.0
  0
LINE
  5
B10E
  8
0
 10
2810.3483654717238096
 20
167.153889935407193
 30
0.0
 11
2810.294378566224168
 21
167.153889935407193
 31
0.0
  0
LINE
  5
B10F
  8
0
 10
2810.2843890938238474
 20
167.153889935407193
 30
0.0
 11
2810.2304021882241614
 21
167.153889935407193
 31
0.0
  0
LINE
  5
B110
  8
0
 10
2810.2204127158229312
 20
167.153889935407193
 30
0.0
 11
2810.1664258102241547
 21
167.153889935407193
 31
0.0
  0
LINE
  5
B111
  8
0
 10
2810.1564363379238785
 20
167.153889935407193
 30
0.0
 11
2810.1024494323241925
 21
167.153889935407193
 31
0.0
  0
ARC
  5
B112
  8
0
 10
2810.5128329619237775
 20
167.1000308080072045
 30
0.0
 40
0.0639249452
 50
330.0722555612160818
 51
339.5471903436963999
  0
ARC
  5
B113
  8
0
 10
2811.432263726660949
 20
166.9734388498065982
 30
0.0
 40
0.8570469728985525
 50
172.4276144287750867
 51
173.3617289186850883
  0
ARC
  5
B114
  8
0
 10
2810.5197076500239746
 20
167.0981686774071875
 30
0.0
 40
0.0567660359
 50
355.1571199801996954
 51
359.989990174100285
  0
ARC
  5
B115
  8
0
 10
2810.5159817101230146
 20
167.1260510291072023
 30
0.0
 40
0.0542716326
 50
0.0489378258002677
 51
11.5839881902582196
  0
ARC
  5
B116
  8
0
 10
2810.5093457442230829
 20
167.1047283657071887
 30
0.0
 40
0.0457861210004235
 50
0.0230974205362692
 51
6.5629853280464916
  0
ARC
  5
B117
  8
0
 10
2810.4085716890240292
 20
167.0528569178071905
 30
0.0
 40
0.0149987485
 50
305.758864156701577
 51
312.3464738909968901
  0
LINE
  5
B118
  8
0
 10
2810.5731226872239858
 20
167.1281813565072127
 30
0.0
 11
2810.5748961911508559
 21
167.127970987719209
 31
0.0
  0
LINE
  5
B119
  8
0
 10
2810.417336585924204
 20
167.0406856796072077
 30
0.0
 11
2810.4160111106230033
 21
167.0417687755071938
 31
0.0
  0
ARC
  5
B11A
  8
0
 10
2810.4666306191711556
 20
167.0474864598386091
 30
0.0
 40
0.1209814361762993
 50
77.0961676895191488
 51
90.0385668543089821
  0
ARC
  5
B11B
  8
0
 10
2810.472270298615058
 20
167.068403977010604
 30
0.0
 40
0.099336172457752
 50
55.7296845561819509
 51
77.5726304182914959
  0
ARC
  5
B11C
  8
0
 10
2810.490388117645125
 20
167.094403705875493
 30
0.0
 40
0.067648960205214
 50
34.5352266098499427
 51
56.0108689943493516
  0
ARC
  5
B11D
  8
0
 10
2810.5043702851808121
 20
167.1037284516808938
 30
0.0
 40
0.0508450341383223
 50
7.0415609578462481
 51
34.8114817041272318
  0
ARC
  5
B11E
  8
0
 10
2810.5228137524059093
 20
167.0498538961082886
 30
0.0
 40
0.0109092146338016
 50
281.4116574739899193
 51
348.5495439334889056
  0
ARC
  5
B11F
  8
0
 10
2746.8644063904012
 20
168.4087973375808076
 30
0.0
 40
63.6836465866797212
 50
358.7753253432694009
 51
358.7995079899267807
  0
ARC
  5
B120
  8
0
 10
2810.472396983877843
 20
167.0530571848559021
 30
0.0
 40
0.0152495521412858
 50
305.7797929632736214
 51
328.2638295100952064
  0
ARC
  5
B121
  8
0
 10
2810.4804797231690827
 20
167.0482632082282919
 30
0.0
 40
0.005856274967565
 50
326.5571773843502115
 51
354.3651719128931177
  0
ARC
  5
B122
  8
0
 10
2810.4902944828959335
 20
167.0531037170999014
 30
0.0
 40
0.0153256432167427
 50
213.0602865094618892
 51
234.1231396748538032
  0
ARC
  5
B123
  8
0
 10
2810.4827400620829394
 20
167.0484664205235106
 30
0.0
 40
0.0064688171704399
 50
186.9096720066229977
 51
215.1385771574759929
  0
ARC
  5
B124
  8
0
 10
2810.4849665672641095
 20
167.042725117649411
 30
0.0
 40
0.0035652785678729
 50
251.5335004818672076
 51
269.0334162827462023
  0
ARC
  5
B125
  8
0
 10
2810.4869408787872089
 20
167.0482249531254979
 30
0.0
 40
0.0094081917505271
 50
233.2594059553894112
 51
250.7382520422814878
  0
ARC
  5
B126
  8
0
 10
2810.4766441392530396
 20
167.0466892439804951
 30
0.0
 40
0.007605307887255
 50
278.1286702426975808
 51
307.8713300771315744
  0
LINE
  5
B127
  8
0
 10
2810.4866046763031591
 20
167.0391603464071864
 30
0.0
 11
2810.4863077000240992
 21
167.0272923273072081
 31
0.0
  0
LINE
  5
B128
  8
0
 10
2810.4759887919390167
 20
167.0391603464071864
 30
0.0
 11
2810.4763182277401938
 21
167.0260756529494017
 31
0.0
  0
ARC
  5
B129
  8
0
 10
2810.4832806556028117
 20
167.0274419008823941
 30
0.0
 40
0.0030307375636774
 50
328.0169093283275856
 51
357.1711779395207031
  0
ARC
  5
B12A
  8
0
 10
2810.4812989093438773
 20
167.0287336799196112
 30
0.0
 40
0.0053960750933579
 50
294.3597377858267237
 51
327.5282264266742231
  0
ARC
  5
B12B
  8
0
 10
2810.4804883283459276
 20
167.0301121111762086
 30
0.0
 40
0.0069881903217736
 50
264.8970049858539255
 51
295.7525819569497116
  0
ARC
  5
B12C
  8
0
 10
2810.4801354196520151
 20
167.0275795229431139
 30
0.0
 40
0.0044360470388848
 50
225.7545833363408008
 51
266.527804942545572
  0
ARC
  5
B12D
  8
0
 10
2810.4789064466472155
 20
167.0261993527103073
 30
0.0
 40
0.0025911732369388
 50
182.7362775098783914
 51
223.9276935905218977
  0
ARC
  5
B12E
  8
0
 10
2810.4676958120771815
 20
167.0479100521513089
 30
0.0
 40
0.1304750174939839
 50
61.9642172827885602
 51
90.5035276321394946
  0
ARC
  5
B12F
  8
0
 10
2810.4882729706469036
 20
167.0869266970377964
 30
0.0
 40
0.0863652551984371
 50
37.5191114197989535
 51
61.8473236227383509
  0
ARC
  5
B130
  8
0
 10
2810.5103692676298124
 20
167.103822832073007
 30
0.0
 40
0.0585494128421246
 50
0.9042454495350482
 51
37.5739577337326267
  0
ARC
  5
B131
  8
0
 10
2810.4646352841959924
 20
166.9880198658447057
 30
0.0
 40
0.195112123003081
 50
80.4046789664242709
 51
90.0160345603975429
  0
ARC
  5
B132
  8
0
 10
2810.4695309431508576
 20
167.0120003699719859
 30
0.0
 40
0.1706530836937127
 50
60.3942411066795515
 51
80.6833139186758643
  0
ARC
  5
B133
  8
0
 10
2810.4952134009281508
 20
167.0569648079165859
 30
0.0
 40
0.1188711362143747
 50
37.8051465741996608
 51
60.4500294791081316
  0
ARC
  5
B134
  8
0
 10
2810.5251155913429102
 20
167.0798657553262103
 30
0.0
 40
0.0812079803929386
 50
0.9261045265556264
 51
37.9711952152668673
  0
ARC
  5
B135
  8
0
 10
2810.5172034230949976
 20
167.0969786154659005
 30
0.0
 40
0.0654903246581104
 50
0.5327586226100057
 51
30.3816914683014296
  0
ARC
  5
B136
  8
0
 10
2810.4948411599539213
 20
167.0826151153993067
 30
0.0
 40
0.092052503304992
 50
31.0546359846724016
 51
56.5424273765338086
  0
ARC
  5
B137
  8
0
 10
2810.4732299727811551
 20
167.0507013750087992
 30
0.0
 40
0.1305933464859088
 50
56.3513898733990928
 51
73.3178885674031875
  0
ARC
  5
B138
  8
0
 10
2810.4581850805598151
 20
166.9940981114484089
 30
0.0
 40
0.1891420302841167
 50
73.8743487080778323
 51
88.0622457461547725
  0
ARC
  5
B139
  8
0
 10
2810.5199071382771763
 20
167.0585996902129011
 30
0.0
 40
0.0864548068334077
 50
312.5799233993574262
 51
358.0712379342315899
  0
ARC
  5
B13A
  8
0
 10
2810.4787757930680527
 20
167.1026122018290039
 30
0.0
 40
0.1466938090440546
 50
285.632287378222486
 51
312.7778543261002824
  0
ARC
  5
B13B
  8
0
 10
2810.4649094300298202
 20
167.1449026517674099
 30
0.0
 40
0.1911664626820854
 50
270.0316258448573876
 51
286.219072868474484
  0
ARC
  5
B13C
  8
0
 10
2810.465448264690167
 20
167.1414066955553039
 30
0.0
 40
0.1542695543063739
 50
269.839065654203921
 51
292.65393053741019
  0
ARC
  5
B13D
  8
0
 10
2810.4847793558787998
 20
167.0981476945570989
 30
0.0
 40
0.1069089135436829
 50
292.0226745501516916
 51
320.750737840494196
  0
ARC
  5
B13E
  8
0
 10
2810.5153795775581784
 20
167.073025929962995
 30
0.0
 40
0.0673177190551782
 50
320.8304850609542882
 51
359.2111646622495869
  0
ARC
  5
B13F
  8
0
 10
2810.4671204731807848
 20
167.1515996191664044
 30
0.0
 40
0.1525419381374211
 50
269.7854195552374108
 51
289.9277887491808769
  0
ARC
  5
B140
  8
0
 10
2810.4852994297521036
 20
167.1081019512220109
 30
0.0
 40
0.1054770681790178
 50
288.6973856823403253
 51
320.76097971444932
  0
ARC
  5
B141
  8
0
 10
2810.5138249363290015
 20
167.0839396503245098
 30
0.0
 40
0.0681029330312836
 50
321.3246934148323817
 51
350.3418292980288129
  0
ARC
  5
B142
  8
0
 10
2810.4669253301831304
 20
167.1400189904844069
 30
0.0
 40
0.1372263551975937
 50
269.842948556189981
 51
285.0477599073329884
  0
ARC
  5
B143
  8
0
 10
2810.4742690127081914
 20
167.1161392087394972
 30
0.0
 40
0.1122623646954961
 50
284.5924513434781034
 51
305.5015807302676194
  0
ARC
  5
B144
  8
0
 10
2810.4941625960800593
 20
167.0883273155864117
 30
0.0
 40
0.0780680195457435
 50
305.4690804973301965
 51
327.3561701861460165
  0
ARC
  5
B145
  8
0
 10
2810.5113440585860189
 20
167.0772226003153094
 30
0.0
 40
0.0576105492010685
 50
327.4383929935240758
 51
355.8936624100434756
  0
ARC
  5
B146
  8
0
 10
2810.5171831848720103
 20
167.09848288163559
 30
0.0
 40
0.059308099136761
 50
339.4797798573400769
 51
355.0605534117037223
  0
ARC
  5
B147
  8
0
 10
2810.5729135124129243
 20
167.1254520028280126
 30
0.0
 40
0.0027373574132872
 50
85.617478277217657
 51
166.3630934555752106
  0
ARC
  5
B148
  8
0
 10
2810.4671766577139351
 20
167.1284261637389932
 30
0.0
 40
0.1157225514943487
 50
269.6893280287650896
 51
293.0232031367992249
  0
ARC
  5
B149
  8
0
 10
2810.4833886386941231
 20
167.0934984121618072
 30
0.0
 40
0.07724662862839
 50
292.0883936728358208
 51
324.2711420169915755
  0
ARC
  5
B14A
  8
0
 10
2810.5048095918677973
 20
167.0772892651912116
 30
0.0
 40
0.0503961769582465
 50
325.0097503748859253
 51
356.8966154086522238
  0
ARC
  5
B14B
  8
0
 10
2810.472396983877843
 20
167.0884577655558871
 30
0.0
 40
0.0152495521412858
 50
305.7797929632736214
 51
328.2638295100952064
  0
ARC
  5
B14C
  8
0
 10
2810.4804797231690827
 20
167.0836637889283054
 30
0.0
 40
0.005856274967565
 50
326.5571773843502115
 51
354.3651719128931177
  0
ARC
  5
B14D
  8
0
 10
2810.4902944828959335
 20
167.0885042977998864
 30
0.0
 40
0.0153256432167427
 50
213.0602865094618892
 51
234.1231396748538032
  0
ARC
  5
B14E
  8
0
 10
2810.4827400620829394
 20
167.0838670012234957
 30
0.0
 40
0.0064688171704399
 50
186.9096720066229977
 51
215.1385771574759929
  0
ARC
  5
B14F
  8
0
 10
2810.4849665672641095
 20
167.0781256983493961
 30
0.0
 40
0.0035652785678729
 50
251.5335004818672076
 51
269.0334162827462023
  0
ARC
  5
B150
  8
0
 10
2810.4869408787872089
 20
167.0836255338255114
 30
0.0
 40
0.0094081917505271
 50
233.2594059553894112
 51
250.7382520422814878
  0
ARC
  5
B151
  8
0
 10
2810.4766449743569865
 20
167.0820878572972958
 30
0.0
 40
0.0076032422091332
 50
278.1245366601739875
 51
307.8754636592656766
  0
ARC
  5
B152
  8
0
 10
2810.472396983877843
 20
167.1238583463558882
 30
0.0
 40
0.0152495521412858
 50
305.7797929632736214
 51
328.2638295100952064
  0
ARC
  5
B153
  8
0
 10
2810.4804797231690827
 20
167.1190643697283065
 30
0.0
 40
0.005856274967565
 50
326.5571773843502115
 51
354.3651719128931177
  0
ARC
  5
B154
  8
0
 10
2810.4902944828959335
 20
167.1239048785998875
 30
0.0
 40
0.0153256432167427
 50
213.0602865094618892
 51
234.1231396748538032
  0
ARC
  5
B155
  8
0
 10
2810.4827400620829394
 20
167.1192675820234967
 30
0.0
 40
0.0064688171704399
 50
186.9096720066229977
 51
215.1385771574759929
  0
ARC
  5
B156
  8
0
 10
2810.4849665672641095
 20
167.1135262791493972
 30
0.0
 40
0.0035652785678729
 50
251.5335004818672076
 51
269.0334162827462023
  0
ARC
  5
B157
  8
0
 10
2810.4869408787872089
 20
167.1190261146255125
 30
0.0
 40
0.0094081917505271
 50
233.2594059553894112
 51
250.7382520422814878
  0
ARC
  5
B158
  8
0
 10
2810.476644138498159
 20
167.1174904067653131
 30
0.0
 40
0.0076053093648651
 50
278.1286743972100908
 51
307.8713286242121967
  0
ARC
  5
B159
  8
0
 10
2810.472396983877843
 20
167.1592589270559017
 30
0.0
 40
0.0152495521412858
 50
305.7797929632736214
 51
328.2638295100952064
  0
ARC
  5
B15A
  8
0
 10
2810.4804797231690827
 20
167.1544649504282916
 30
0.0
 40
0.005856274967565
 50
326.5571773843502115
 51
354.3651719128931177
  0
ARC
  5
B15B
  8
0
 10
2810.4902944828959335
 20
167.159305459299901
 30
0.0
 40
0.0153256432167427
 50
213.0602865094618892
 51
234.1231396748538032
  0
ARC
  5
B15C
  8
0
 10
2810.4827400620829394
 20
167.1546681627235102
 30
0.0
 40
0.0064688171704399
 50
186.9096720066229977
 51
215.1385771574759929
  0
ARC
  5
B15D
  8
0
 10
2810.4849665672641095
 20
167.1489268598494107
 30
0.0
 40
0.0035652785678729
 50
251.5335004818672076
 51
269.0334162827462023
  0
ARC
  5
B15E
  8
0
 10
2810.4869408787872089
 20
167.1544266953254976
 30
0.0
 40
0.0094081917505271
 50
233.2594059553894112
 51
250.7382520422814878
  0
ARC
  5
B15F
  8
0
 10
2810.476644138498159
 20
167.1528909874652982
 30
0.0
 40
0.0076053093648774
 50
278.1286743972623867
 51
307.8713286242082177
  0
ARC
  5
B160
  8
0
 10
2810.4084206059778808
 20
167.1592589270559017
 30
0.0
 40
0.0152495521412858
 50
305.7797929632736214
 51
328.2638295100952064
  0
ARC
  5
B161
  8
0
 10
2810.4165033452691205
 20
167.1544649504282916
 30
0.0
 40
0.005856274967565
 50
326.5571773843502115
 51
354.3651719128931177
  0
ARC
  5
B162
  8
0
 10
2810.4263181049959712
 20
167.159305459299901
 30
0.0
 40
0.0153256432167427
 50
213.0602865094618892
 51
234.1231396748538032
  0
ARC
  5
B163
  8
0
 10
2810.4187636841838867
 20
167.1546681627235102
 30
0.0
 40
0.0064688171704399
 50
186.9096720066229977
 51
215.1385771574759929
  0
ARC
  5
B164
  8
0
 10
2810.4209901893641472
 20
167.1489268598494107
 30
0.0
 40
0.0035652785678729
 50
251.5335004818672076
 51
269.0334162827462023
  0
ARC
  5
B165
  8
0
 10
2810.4229645008867919
 20
167.1544266953254976
 30
0.0
 40
0.0094081917505271
 50
233.2594059553894112
 51
250.7382520422814878
  0
ARC
  5
B166
  8
0
 10
2810.4126683999688794
 20
167.1528894812709041
 30
0.0
 40
0.0076037278956354
 50
278.1255090320511272
 51
307.8744928424596878
  0
ARC
  5
B167
  8
0
 10
2810.4084206059778808
 20
167.1238583463558882
 30
0.0
 40
0.0152495521412858
 50
305.7797929632736214
 51
328.2638295100952064
  0
ARC
  5
B168
  8
0
 10
2810.4165033452691205
 20
167.1190643697283065
 30
0.0
 40
0.005856274967565
 50
326.5571773843502115
 51
354.3651719128931177
  0
ARC
  5
B169
  8
0
 10
2810.4263181049959712
 20
167.1239048785998875
 30
0.0
 40
0.0153256432167427
 50
213.0602865094618892
 51
234.1231396748538032
  0
ARC
  5
B16A
  8
0
 10
2810.4187636841838867
 20
167.1192675820234967
 30
0.0
 40
0.0064688171704399
 50
186.9096720066229977
 51
215.1385771574759929
  0
ARC
  5
B16B
  8
0
 10
2810.4209901893641472
 20
167.1135262791493972
 30
0.0
 40
0.0035652785678729
 50
251.5335004818672076
 51
269.0334162827462023
  0
ARC
  5
B16C
  8
0
 10
2810.4229645008867919
 20
167.1190261146255125
 30
0.0
 40
0.0094081917505271
 50
233.2594059553894112
 51
250.7382520422814878
  0
ARC
  5
B16D
  8
0
 10
2810.4126823534188588
 20
167.1174655687792949
 30
0.0
 40
0.0075767449992355
 50
278.0418365574345216
 51
307.8995226230567255
  0
ARC
  5
B16E
  8
0
 10
2810.4084206059778808
 20
167.0884577655558871
 30
0.0
 40
0.0152495521412858
 50
305.7797929632736214
 51
328.2638295100952064
  0
ARC
  5
B16F
  8
0
 10
2810.4165033452691205
 20
167.0836637889283054
 30
0.0
 40
0.005856274967565
 50
326.5571773843502115
 51
354.3651719128931177
  0
ARC
  5
B170
  8
0
 10
2810.4263181049959712
 20
167.0885042977998864
 30
0.0
 40
0.0153256432167427
 50
213.0602865094618892
 51
234.1231396748538032
  0
ARC
  5
B171
  8
0
 10
2810.4187636841838867
 20
167.0838670012234957
 30
0.0
 40
0.0064688171704399
 50
186.9096720066229977
 51
215.1385771574759929
  0
ARC
  5
B172
  8
0
 10
2810.4209901893641472
 20
167.0781256983493961
 30
0.0
 40
0.0035652785678729
 50
251.5335004818672076
 51
269.0334162827462023
  0
ARC
  5
B173
  8
0
 10
2810.4229645008867919
 20
167.0836255338255114
 30
0.0
 40
0.0094081917505271
 50
233.2594059553894112
 51
250.7382520422814878
  0
ARC
  5
B174
  8
0
 10
2810.4126823534188588
 20
167.0820649879792938
 30
0.0
 40
0.0075767449992355
 50
278.0418365574345216
 51
307.8995226230567255
  0
ARC
  5
B175
  8
0
 10
2810.3444442279778741
 20
167.1592589270559017
 30
0.0
 40
0.0152495521412858
 50
305.7797929632736214
 51
328.2638295100952064
  0
ARC
  5
B176
  8
0
 10
2810.3525269672691138
 20
167.1544649504282916
 30
0.0
 40
0.005856274967565
 50
326.5571773843502115
 51
354.3651719128931177
  0
ARC
  5
B177
  8
0
 10
2810.3623417269959646
 20
167.159305459299901
 30
0.0
 40
0.0153256432167427
 50
213.0602865094618892
 51
234.1231396748538032
  0
ARC
  5
B178
  8
0
 10
2810.35478730618388
 20
167.1546681627235102
 30
0.0
 40
0.006468817170448
 50
186.9096720066391129
 51
215.1385771574464059
  0
ARC
  5
B179
  8
0
 10
2810.3570138113641406
 20
167.1489268598494107
 30
0.0
 40
0.0035652785678729
 50
251.5335004818672076
 51
269.0334162827462023
  0
ARC
  5
B17A
  8
0
 10
2810.3589881228867853
 20
167.1544266953254976
 30
0.0
 40
0.0094081917505271
 50
233.2594059553894112
 51
250.7382520422814878
  0
ARC
  5
B17B
  8
0
 10
2810.3487059754188522
 20
167.1528661494793084
 30
0.0
 40
0.0075767449992355
 50
278.0418365574345216
 51
307.8995226230567255
  0
ARC
  5
B17C
  8
0
 10
2810.3444442279778741
 20
167.1238583463558882
 30
0.0
 40
0.0152495521412858
 50
305.7797929632736214
 51
328.2638295100952064
  0
ARC
  5
B17D
  8
0
 10
2810.3525269672691138
 20
167.1190643697283065
 30
0.0
 40
0.005856274967565
 50
326.5571773843502115
 51
354.3651719128931177
  0
ARC
  5
B17E
  8
0
 10
2810.3623417269959646
 20
167.1239048785998875
 30
0.0
 40
0.0153256432167427
 50
213.0602865094618892
 51
234.1231396748538032
  0
ARC
  5
B17F
  8
0
 10
2810.35478730618388
 20
167.1192675820234967
 30
0.0
 40
0.0064688171704399
 50
186.9096720066229977
 51
215.1385771574759929
  0
ARC
  5
B180
  8
0
 10
2810.3570138113641406
 20
167.1135262791493972
 30
0.0
 40
0.0035652785678729
 50
251.5335004818672076
 51
269.0334162827462023
  0
ARC
  5
B181
  8
0
 10
2810.3589881228867853
 20
167.1190261146255125
 30
0.0
 40
0.0094081917505271
 50
233.2594059553894112
 51
250.7382520422814878
  0
ARC
  5
B182
  8
0
 10
2810.3487059754188522
 20
167.1174655687792949
 30
0.0
 40
0.0075767449992355
 50
278.0418365574345216
 51
307.8995226230567255
  0
ARC
  5
B183
  8
0
 10
2810.3444442279778741
 20
167.0884577655558871
 30
0.0
 40
0.0152495521412858
 50
305.7797929632736214
 51
328.2638295100952064
  0
ARC
  5
B184
  8
0
 10
2810.3525269672691138
 20
167.0836637889283054
 30
0.0
 40
0.005856274967565
 50
326.5571773843502115
 51
354.3651719128931177
  0
ARC
  5
B185
  8
0
 10
2810.3623417269959646
 20
167.0885042977998864
 30
0.0
 40
0.0153256432167427
 50
213.0602865094618892
 51
234.1231396748538032
  0
ARC
  5
B186
  8
0
 10
2810.35478730618388
 20
167.0838670012234957
 30
0.0
 40
0.0064688171704399
 50
186.9096720066229977
 51
215.1385771574759929
  0
ARC
  5
B187
  8
0
 10
2810.3570138113641406
 20
167.0781256983493961
 30
0.0
 40
0.0035652785678729
 50
251.5335004818672076
 51
269.0334162827462023
  0
ARC
  5
B188
  8
0
 10
2810.3589881228867853
 20
167.0836255338255114
 30
0.0
 40
0.0094081917505271
 50
233.2594059553894112
 51
250.7382520422814878
  0
ARC
  5
B189
  8
0
 10
2810.3487059754188522
 20
167.0820649879792938
 30
0.0
 40
0.0075767449992355
 50
278.0418365574345216
 51
307.8995226230567255
  0
ARC
  5
B18A
  8
0
 10
2810.2804678500779119
 20
167.1592589270559017
 30
0.0
 40
0.0152495521412858
 50
305.7797929632736214
 51
328.2638295100952064
  0
ARC
  5
B18B
  8
0
 10
2810.2885505893691516
 20
167.1544649504282916
 30
0.0
 40
0.005856274967565
 50
326.5571773843502115
 51
354.3651719128931177
  0
ARC
  5
B18C
  8
0
 10
2810.2983653490960023
 20
167.159305459299901
 30
0.0
 40
0.0153256432167427
 50
213.0602865094618892
 51
234.1231396748538032
  0
ARC
  5
B18D
  8
0
 10
2810.2908109282839177
 20
167.1546681627235102
 30
0.0
 40
0.0064688171704399
 50
186.9096720066229977
 51
215.1385771574759929
  0
ARC
  5
B18E
  8
0
 10
2810.2930374334641783
 20
167.1489268598494107
 30
0.0
 40
0.0035652785678729
 50
251.5335004818672076
 51
269.0334162827462023
  0
ARC
  5
B18F
  8
0
 10
2810.295011744986823
 20
167.1544266953254976
 30
0.0
 40
0.0094081917505271
 50
233.2594059553894112
 51
250.7382520422814878
  0
ARC
  5
B190
  8
0
 10
2810.2847295975188899
 20
167.1528661494793084
 30
0.0
 40
0.0075767449992355
 50
278.0418365574345216
 51
307.8995226230567255
  0
ARC
  5
B191
  8
0
 10
2810.2804678500779119
 20
167.1238583463558882
 30
0.0
 40
0.0152495521412858
 50
305.7797929632736214
 51
328.2638295100952064
  0
ARC
  5
B192
  8
0
 10
2810.2885505893691516
 20
167.1190643697283065
 30
0.0
 40
0.005856274967565
 50
326.5571773843502115
 51
354.3651719128931177
  0
ARC
  5
B193
  8
0
 10
2810.2983653490960023
 20
167.1239048785998875
 30
0.0
 40
0.0153256432167427
 50
213.0602865094618892
 51
234.1231396748538032
  0
ARC
  5
B194
  8
0
 10
2810.2908109282839177
 20
167.1192675820234967
 30
0.0
 40
0.0064688171704399
 50
186.9096720066229977
 51
215.1385771574759929
  0
ARC
  5
B195
  8
0
 10
2810.2930374334641783
 20
167.1135262791493972
 30
0.0
 40
0.0035652785678729
 50
251.5335004818672076
 51
269.0334162827462023
  0
ARC
  5
B196
  8
0
 10
2810.295011744986823
 20
167.1190261146255125
 30
0.0
 40
0.0094081917505271
 50
233.2594059553894112
 51
250.7382520422814878
  0
ARC
  5
B197
  8
0
 10
2810.2847295975188899
 20
167.1174655687792949
 30
0.0
 40
0.0075767449992355
 50
278.0418365574345216
 51
307.8995226230567255
  0
ARC
  5
B198
  8
0
 10
2810.2804678500779119
 20
167.0884577655558871
 30
0.0
 40
0.0152495521412858
 50
305.7797929632736214
 51
328.2638295100952064
  0
ARC
  5
B199
  8
0
 10
2810.2885505893691516
 20
167.0836637889283054
 30
0.0
 40
0.005856274967565
 50
326.5571773843502115
 51
354.3651719128931177
  0
ARC
  5
B19A
  8
0
 10
2810.2983653490960023
 20
167.0885042977998864
 30
0.0
 40
0.0153256432167427
 50
213.0602865094618892
 51
234.1231396748538032
  0
ARC
  5
B19B
  8
0
 10
2810.2908109282839177
 20
167.0838670012234957
 30
0.0
 40
0.0064688171704399
 50
186.9096720066229977
 51
215.1385771574759929
  0
ARC
  5
B19C
  8
0
 10
2810.2930374334641783
 20
167.0781256983493961
 30
0.0
 40
0.0035652785678729
 50
251.5335004818672076
 51
269.0334162827462023
  0
ARC
  5
B19D
  8
0
 10
2810.295011744986823
 20
167.0836255338255114
 30
0.0
 40
0.0094081917505271
 50
233.2594059553894112
 51
250.7382520422814878
  0
ARC
  5
B19E
  8
0
 10
2810.2847158077588574
 20
167.0820879346341883
 30
0.0
 40
0.0076033233908187
 50
278.1246982228008733
 51
307.8753009501260181
  0
ARC
  5
B19F
  8
0
 10
2810.2164914720779052
 20
167.1592589270559017
 30
0.0
 40
0.0152495521412858
 50
305.7797929632736214
 51
328.2638295100952064
  0
ARC
  5
B1A0
  8
0
 10
2810.2245742113691449
 20
167.1544649504282916
 30
0.0
 40
0.005856274967565
 50
326.5571773843502115
 51
354.3651719128931177
  0
ARC
  5
B1A1
  8
0
 10
2810.2343889710959957
 20
167.159305459299901
 30
0.0
 40
0.0153256432167427
 50
213.0602865094618892
 51
234.1231396748538032
  0
ARC
  5
B1A2
  8
0
 10
2810.2268345502839111
 20
167.1546681627235102
 30
0.0
 40
0.0064688171704399
 50
186.9096720066229977
 51
215.1385771574759929
  0
ARC
  5
B1A3
  8
0
 10
2810.2290610554641717
 20
167.1489268598494107
 30
0.0
 40
0.0035652785678729
 50
251.5335004818672076
 51
269.0334162827462023
  0
ARC
  5
B1A4
  8
0
 10
2810.2310353669868164
 20
167.1544266953254976
 30
0.0
 40
0.0094081917505271
 50
233.2594059553894112
 51
250.7382520422814878
  0
ARC
  5
B1A5
  8
0
 10
2810.2207392860200343
 20
167.1528894341998068
 30
0.0
 40
0.0076036784913151
 50
278.1254110872627052
 51
307.8745919345961966
  0
ARC
  5
B1A6
  8
0
 10
2810.2164914720779052
 20
167.1238583463558882
 30
0.0
 40
0.0152495521412858
 50
305.7797929632736214
 51
328.2638295100952064
  0
ARC
  5
B1A7
  8
0
 10
2810.2245742113691449
 20
167.1190643697283065
 30
0.0
 40
0.005856274967565
 50
326.5571773843502115
 51
354.3651719128931177
  0
ARC
  5
B1A8
  8
0
 10
2810.2343889710959957
 20
167.1239048785998875
 30
0.0
 40
0.0153256432167427
 50
213.0602865094618892
 51
234.1231396748538032
  0
ARC
  5
B1A9
  8
0
 10
2810.2268345502839111
 20
167.1192675820234967
 30
0.0
 40
0.0064688171704399
 50
186.9096720066229977
 51
215.1385771574759929
  0
ARC
  5
B1AA
  8
0
 10
2810.2290610554641717
 20
167.1135262791493972
 30
0.0
 40
0.0035652785678729
 50
251.5335004818672076
 51
269.0334162827462023
  0
ARC
  5
B1AB
  8
0
 10
2810.2310353669868164
 20
167.1190261146255125
 30
0.0
 40
0.0094081917505271
 50
233.2594059553894112
 51
250.7382520422814878
  0
ARC
  5
B1AC
  8
0
 10
2810.2207393643229807
 20
167.1174886690295125
 30
0.0
 40
0.007603484805747
 50
278.1250234342122098
 51
307.8749795876451003
  0
ARC
  5
B1AD
  8
0
 10
2810.2164914720779052
 20
167.0884577655558871
 30
0.0
 40
0.0152495521412858
 50
305.7797929632736214
 51
328.2638295100952064
  0
ARC
  5
B1AE
  8
0
 10
2810.2245742113691449
 20
167.0836637889283054
 30
0.0
 40
0.005856274967565
 50
326.5571773843502115
 51
354.3651719128931177
  0
ARC
  5
B1AF
  8
0
 10
2810.2343889710959957
 20
167.0885042977998864
 30
0.0
 40
0.0153256432167427
 50
213.0602865094618892
 51
234.1231396748538032
  0
ARC
  5
B1B0
  8
0
 10
2810.2268345502839111
 20
167.0838670012234957
 30
0.0
 40
0.0064688171704399
 50
186.9096720066229977
 51
215.1385771574759929
  0
ARC
  5
B1B1
  8
0
 10
2810.2290610554641717
 20
167.0781256983493961
 30
0.0
 40
0.0035652785678729
 50
251.5335004818672076
 51
269.0334162827462023
  0
ARC
  5
B1B2
  8
0
 10
2810.2310353669868164
 20
167.0836255338255114
 30
0.0
 40
0.0094081917505271
 50
233.2594059553894112
 51
250.7382520422814878
  0
ARC
  5
B1B3
  8
0
 10
2810.2207393257522199
 20
167.0820881795912101
 30
0.0
 40
0.007603580602889
 50
278.1252139718035892
 51
307.8747863480505771
  0
ARC
  5
B1B4
  8
0
 10
2810.152515094177943
 20
167.1592589270559017
 30
0.0
 40
0.0152495521412858
 50
305.7797929632736214
 51
328.2638295100952064
  0
ARC
  5
B1B5
  8
0
 10
2810.1605978334691827
 20
167.1544649504282916
 30
0.0
 40
0.005856274967565
 50
326.5571773843502115
 51
354.3651719128931177
  0
ARC
  5
B1B6
  8
0
 10
2810.1704125931960334
 20
167.159305459299901
 30
0.0
 40
0.0153256432167427
 50
213.0602865094618892
 51
234.1231396748538032
  0
ARC
  5
B1B7
  8
0
 10
2810.1628581723839488
 20
167.1546681627235102
 30
0.0
 40
0.0064688171704399
 50
186.9096720066229977
 51
215.1385771574759929
  0
ARC
  5
B1B8
  8
0
 10
2810.1650846775642094
 20
167.1489268598494107
 30
0.0
 40
0.0035652785678729
 50
251.5335004818672076
 51
269.0334162827462023
  0
ARC
  5
B1B9
  8
0
 10
2810.1670589890868541
 20
167.1544266953254976
 30
0.0
 40
0.0094081917505271
 50
233.2594059553894112
 51
250.7382520422814878
  0
ARC
  5
B1BA
  8
0
 10
2810.156776841618921
 20
167.1528661494793084
 30
0.0
 40
0.0075767449992355
 50
278.0418365574345216
 51
307.8995226230567255
  0
ARC
  5
B1BB
  8
0
 10
2810.152515094177943
 20
167.1238583463558882
 30
0.0
 40
0.0152495521412858
 50
305.7797929632736214
 51
328.2638295100952064
  0
ARC
  5
B1BC
  8
0
 10
2810.1605978334691827
 20
167.1190643697283065
 30
0.0
 40
0.005856274967565
 50
326.5571773843502115
 51
354.3651719128931177
  0
ARC
  5
B1BD
  8
0
 10
2810.1704125931960334
 20
167.1239048785998875
 30
0.0
 40
0.0153256432167427
 50
213.0602865094618892
 51
234.1231396748538032
  0
ARC
  5
B1BE
  8
0
 10
2810.1628581723839488
 20
167.1192675820234967
 30
0.0
 40
0.0064688171704399
 50
186.9096720066229977
 51
215.1385771574759929
  0
ARC
  5
B1BF
  8
0
 10
2810.1650846775642094
 20
167.1135262791493972
 30
0.0
 40
0.0035652785678729
 50
251.5335004818672076
 51
269.0334162827462023
  0
ARC
  5
B1C0
  8
0
 10
2810.1670589890868541
 20
167.1190261146255125
 30
0.0
 40
0.0094081917505271
 50
233.2594059553894112
 51
250.7382520422814878
  0
ARC
  5
B1C1
  8
0
 10
2810.156776841618921
 20
167.1174655687792949
 30
0.0
 40
0.0075767449992355
 50
278.0418365574345216
 51
307.8995226230567255
  0
ARC
  5
B1C2
  8
0
 10
2810.152515094177943
 20
167.0884577655558871
 30
0.0
 40
0.0152495521412858
 50
305.7797929632736214
 51
328.2638295100952064
  0
ARC
  5
B1C3
  8
0
 10
2810.1605978334691827
 20
167.0836637889283054
 30
0.0
 40
0.005856274967565
 50
326.5571773843502115
 51
354.3651719128931177
  0
ARC
  5
B1C4
  8
0
 10
2810.1704125931960334
 20
167.0885042977998864
 30
0.0
 40
0.0153256432167427
 50
213.0602865094618892
 51
234.1231396748538032
  0
ARC
  5
B1C5
  8
0
 10
2810.1628581723839488
 20
167.0838670012234957
 30
0.0
 40
0.0064688171704399
 50
186.9096720066229977
 51
215.1385771574759929
  0
ARC
  5
B1C6
  8
0
 10
2810.1650846775642094
 20
167.0781256983493961
 30
0.0
 40
0.0035652785678729
 50
251.5335004818672076
 51
269.0334162827462023
  0
ARC
  5
B1C7
  8
0
 10
2810.1670589890868541
 20
167.0836255338255114
 30
0.0
 40
0.0094081917505271
 50
233.2594059553894112
 51
250.7382520422814878
  0
ARC
  5
B1C8
  8
0
 10
2810.1567631448101565
 20
167.0820877156563995
 30
0.0
 40
0.0076030934746438
 50
278.1242380090379811
 51
307.8757611638874891
  0
ARC
  5
B1C9
  8
0
 10
2810.0885387161779363
 20
167.1592589270559017
 30
0.0
 40
0.0152495521412858
 50
305.7797929632736214
 51
328.2638295100952064
  0
ARC
  5
B1CA
  8
0
 10
2810.096621455469176
 20
167.1544649504282916
 30
0.0
 40
0.005856274967565
 50
326.5571773843502115
 51
354.3651719128931177
  0
ARC
  5
B1CB
  8
0
 10
2810.1064362151960268
 20
167.159305459299901
 30
0.0
 40
0.0153256432167427
 50
213.0602865094618892
 51
234.1231396748538032
  0
ARC
  5
B1CC
  8
0
 10
2810.0988817943839422
 20
167.1546681627235102
 30
0.0
 40
0.0064688171704399
 50
186.9096720066229977
 51
215.1385771574759929
  0
ARC
  5
B1CD
  8
0
 10
2810.1011082995642028
 20
167.1489268598494107
 30
0.0
 40
0.0035652785678729
 50
251.5335004818672076
 51
269.0334162827462023
  0
ARC
  5
B1CE
  8
0
 10
2810.1030826110868475
 20
167.1544266953254976
 30
0.0
 40
0.0094081917505271
 50
233.2594059553894112
 51
250.7382520422814878
  0
ARC
  5
B1CF
  8
0
 10
2810.0928004636189144
 20
167.1528661494793084
 30
0.0
 40
0.0075767449992355
 50
277.9426162940226277
 51
307.8995226230567255
  0
ARC
  5
B1D0
  8
0
 10
2810.0885387161779363
 20
167.1238583463558882
 30
0.0
 40
0.0152495521412858
 50
305.7797929632736214
 51
328.2638295100952064
  0
ARC
  5
B1D1
  8
0
 10
2810.096621455469176
 20
167.1190643697283065
 30
0.0
 40
0.005856274967565
 50
326.5571773843502115
 51
354.3651719128931177
  0
ARC
  5
B1D2
  8
0
 10
2810.1064362151960268
 20
167.1239048785998875
 30
0.0
 40
0.0153256432167427
 50
213.0602865094618892
 51
234.1231396748538032
  0
ARC
  5
B1D3
  8
0
 10
2810.0988817943839422
 20
167.1192675820234967
 30
0.0
 40
0.0064688171704399
 50
186.9096720066229977
 51
215.1385771574759929
  0
ARC
  5
B1D4
  8
0
 10
2810.1011082995642028
 20
167.1135262791493972
 30
0.0
 40
0.0035652785678729
 50
251.5335004818672076
 51
269.0334162827462023
  0
ARC
  5
B1D5
  8
0
 10
2810.1030826110868475
 20
167.1190261146255125
 30
0.0
 40
0.0094081917505271
 50
233.2594059553894112
 51
250.7382520422814878
  0
ARC
  5
B1D6
  8
0
 10
2810.0928004636189144
 20
167.1174655687792949
 30
0.0
 40
0.0075767449992355
 50
277.9426162940750942
 51
307.8995226230567255
  0
ARC
  5
B1D7
  8
0
 10
2810.0885387161779363
 20
167.0884577655558871
 30
0.0
 40
0.0152495521412858
 50
305.7797929632736214
 51
328.2638295100952064
  0
ARC
  5
B1D8
  8
0
 10
2810.096621455469176
 20
167.0836637889283054
 30
0.0
 40
0.005856274967565
 50
326.5571773843502115
 51
354.3651719128931177
  0
ARC
  5
B1D9
  8
0
 10
2810.1064362151960268
 20
167.0885042977998864
 30
0.0
 40
0.0153256432167427
 50
213.0602865094618892
 51
234.1231396748538032
  0
ARC
  5
B1DA
  8
0
 10
2810.0988817943839422
 20
167.0838670012234957
 30
0.0
 40
0.0064688171704399
 50
186.9096720066229977
 51
215.1385771574759929
  0
ARC
  5
B1DB
  8
0
 10
2810.1011082995642028
 20
167.0781256983493961
 30
0.0
 40
0.0035652785678729
 50
251.5335004818672076
 51
269.0334162827462023
  0
ARC
  5
B1DC
  8
0
 10
2810.1030826110868475
 20
167.0836255338255114
 30
0.0
 40
0.0094081917505271
 50
233.2594059553894112
 51
250.7382520422814878
  0
ARC
  5
B1DD
  8
0
 10
2810.0928004636189144
 20
167.0820649879792938
 30
0.0
 40
0.0075767449992355
 50
277.9426217665553054
 51
307.8995226230567255
  0
ARC
  5
B1DE
  8
0
 10
2810.0952553533020364
 20
167.0484968210076886
 30
0.0
 40
0.0027990628629548
 50
182.7175310213231967
 51
221.5103321812468948
  0
ARC
  5
B1DF
  8
0
 10
2810.096606399103166
 20
167.0497075633051054
 30
0.0
 40
0.0046132142010402
 50
221.6498725733854087
 51
249.8473423423913005
  0
ARC
  5
B1E0
  8
0
 10
2810.0974635494708309
 20
167.0519112019983083
 30
0.0
 40
0.0069773976167231
 50
249.4739526534507945
 51
280.9424164835716056
  0
ARC
  5
B1E1
  8
0
 10
2810.0979329691817838
 20
167.0502879041704034
 30
0.0
 40
0.0052967104367526
 50
279.2898825068216979
 51
312.3679466776465006
  0
ARC
  5
B1E2
  8
0
 10
2810.099564342900976
 20
167.0485180019583993
 30
0.0
 40
0.0028897116141665
 50
312.1182396918326276
 51
356.9472937666575945
  0
ARC
  5
B1E3
  8
0
 10
2810.159231731302043
 20
167.0484968210076886
 30
0.0
 40
0.0027990628629548
 50
182.7175310213231967
 51
221.5103321812468948
  0
ARC
  5
B1E4
  8
0
 10
2810.1605827771031727
 20
167.0497075633051054
 30
0.0
 40
0.0046132142010402
 50
221.6498725733854087
 51
249.8473423423913005
  0
ARC
  5
B1E5
  8
0
 10
2810.1614399274708376
 20
167.0519112019983083
 30
0.0
 40
0.0069773976167231
 50
249.4739526534507945
 51
280.9424164835716056
  0
ARC
  5
B1E6
  8
0
 10
2810.1619093471817905
 20
167.0502879041704034
 30
0.0
 40
0.0052967104367526
 50
279.2898825068216979
 51
312.3679466776465006
  0
ARC
  5
B1E7
  8
0
 10
2810.1635407209009827
 20
167.0485180019583993
 30
0.0
 40
0.0028897116141665
 50
312.1182396918326276
 51
356.9472937666575945
  0
ARC
  5
B1E8
  8
0
 10
2810.2232081092020053
 20
167.0484968210076886
 30
0.0
 40
0.0027990628629548
 50
182.7175310213231967
 51
221.5103321812468948
  0
ARC
  5
B1E9
  8
0
 10
2810.2245591550031349
 20
167.0497075633051054
 30
0.0
 40
0.0046132142010402
 50
221.6498725733854087
 51
249.8473423423913005
  0
ARC
  5
B1EA
  8
0
 10
2810.2254163053707998
 20
167.0519112019983083
 30
0.0
 40
0.0069773976167231
 50
249.4739526534507945
 51
280.9424164835716056
  0
ARC
  5
B1EB
  8
0
 10
2810.2258857250822075
 20
167.0502879041704034
 30
0.0
 40
0.0052967104367526
 50
279.2898825068216979
 51
312.3679466776465006
  0
ARC
  5
B1EC
  8
0
 10
2810.227517098800945
 20
167.0485180019583993
 30
0.0
 40
0.0028897116141665
 50
312.1182396918326276
 51
356.9472937666575945
  0
ARC
  5
B1ED
  8
0
 10
2810.287184487202012
 20
167.0484968210076886
 30
0.0
 40
0.0027990628629548
 50
182.7175310213231967
 51
221.5103321812468948
  0
ARC
  5
B1EE
  8
0
 10
2810.2885355330031416
 20
167.0497075633051054
 30
0.0
 40
0.0046132142010402
 50
221.6498725733854087
 51
249.8473423423913005
  0
ARC
  5
B1EF
  8
0
 10
2810.2893926833708065
 20
167.0519112019983083
 30
0.0
 40
0.0069773976167231
 50
249.4739526534507945
 51
280.9424164835716056
  0
ARC
  5
B1F0
  8
0
 10
2810.2898621030822142
 20
167.0502879041704034
 30
0.0
 40
0.0052967104367526
 50
279.2898825068216979
 51
312.3679466776465006
  0
ARC
  5
B1F1
  8
0
 10
2810.2914934768009516
 20
167.0485180019583993
 30
0.0
 40
0.0028897116141665
 50
312.1182396918326276
 51
356.9472937666575945
  0
ARC
  5
B1F2
  8
0
 10
2810.3511608651019742
 20
167.0484968210076886
 30
0.0
 40
0.0027990628629548
 50
182.7175310213231967
 51
221.5103321812468948
  0
ARC
  5
B1F3
  8
0
 10
2810.3525119109031039
 20
167.0497075633051054
 30
0.0
 40
0.0046132142010402
 50
221.6498725733854087
 51
249.8473423423913005
  0
ARC
  5
B1F4
  8
0
 10
2810.3533690612712235
 20
167.0519112019983083
 30
0.0
 40
0.0069773976167231
 50
249.4739526534507945
 51
280.9424164835716056
  0
ARC
  5
B1F5
  8
0
 10
2810.3538384809808122
 20
167.0502879041704034
 30
0.0
 40
0.0052967104367526
 50
279.2898825068216979
 51
312.3679466776465006
  0
ARC
  5
B1F6
  8
0
 10
2810.3554698547018234
 20
167.0485180019583993
 30
0.0
 40
0.0028897116141665
 50
312.1182396918326276
 51
356.9472937666575945
  0
ARC
  5
B1F7
  8
0
 10
2810.4086577568359644
 20
167.0528587524833881
 30
0.0
 40
0.0149422688660855
 50
312.0978177161271105
 51
328.8295720240785727
  0
ARC
  5
B1F8
  8
0
 10
2810.4164200586242259
 20
167.0483014651400993
 30
0.0
 40
0.0059429906142096
 50
327.689017895930192
 51
354.0769625008977073
  0
ARC
  5
B1F9
  8
0
 10
2810.4211080678019243
 20
167.0434580334996895
 30
0.0
 40
0.0043013725955084
 50
247.7372996884274983
 51
267.628006485033211
  0
ARC
  5
B1FA
  8
0
 10
2810.423419022438793
 20
167.048964515237202
 30
0.0
 40
0.0102730303868084
 50
233.6953829505604858
 51
247.4442850884082929
  0
ARC
  5
B1FB
  8
0
 10
2810.4258937490872086
 20
167.0527722793542011
 30
0.0
 40
0.0147899844456389
 50
213.1446654075836875
 51
228.071860256641088
  0
ARC
  5
B1FC
  8
0
 10
2810.4221506453950497
 20
167.0502196345238985
 30
0.0
 40
0.0102606412890358
 50
202.4176425652917999
 51
212.6379025360211017
  0
ARC
  5
B1FD
  8
0
 10
2810.4169919246801328
 20
167.0480486508973001
 30
0.0
 40
0.0046640247473475
 50
184.4325063465342964
 51
201.930977840066987
  0
ARC
  5
B1FE
  8
0
 10
2810.4115964041811822
 20
167.0484540159777112
 30
0.0
 40
0.0096590235745235
 50
291.5624325002323189
 51
306.4614488962467931
  0
ARC
  5
B1FF
  8
0
 10
2810.4134827299471908
 20
167.0436610999311995
 30
0.0
 40
0.0045082799824923
 50
273.3112194501908903
 51
291.6533211411637012
  0
ARC
  5
B200
  8
0
 10
2810.4129966383661667
 20
167.0402168924148896
 30
0.0
 40
0.0010567051438586
 50
252.5746757764752886
 51
269.0056238897794856
  0
ARC
  5
B201
  8
0
 10
2810.41346194259404
 20
167.0414562845826083
 30
0.0
 40
0.0023796741781214
 50
230.7389506790134988
 51
250.8216095352771049
  0
ARC
  5
B202
  8
0
 10
2810.4174263378181422
 20
167.0460569326965015
 30
0.0
 40
0.0084521832007086
 50
212.0922511116064015
 51
229.6680177226762964
  0
ARC
  5
B203
  8
0
 10
2810.4235329478428866
 20
167.0502144644077873
 30
0.0
 40
0.0158369336121943
 50
198.351524846001098
 51
213.0976721055185124
  0
ARC
  5
B204
  8
0
 10
2810.4170368151931143
 20
167.0481761755420109
 30
0.0
 40
0.0090301072095185
 50
183.0977431339792076
 51
199.0536462099514097
  0
ARC
  5
B205
  8
0
 10
2810.4410994805430164
 20
167.0520894236483116
 30
0.0
 40
0.0306731934422362
 50
204.9299969731850979
 51
225.0045487274848028
  0
ARC
  5
B206
  8
0
 10
2810.4246228922188493
 20
167.0357030384207064
 30
0.0
 40
0.00743585674902
 50
225.5102417923077098
 51
240.763913333261911
  0
ARC
  5
B207
  8
0
 10
2810.4221888990400657
 20
167.0317176438730087
 30
0.0
 40
0.0027750364214588
 50
244.4298702666129088
 51
257.7542112019597766
  0
ARC
  5
B208
  8
0
 10
2810.4216575939640279
 20
167.0296324598783997
 30
0.0
 40
0.0006293248654626
 50
264.7763187399269782
 51
327.6072261299984802
  0
ARC
  5
B209
  8
0
 10
2810.4209770770407886
 20
167.0299012788759967
 30
0.0
 40
0.0013549646739018
 50
333.4348314623592842
 51
358.1324772685970856
  0
ENDSEC
  0
EOF
