  0
SECTION
  2
HEADER
  9
$ACADVER
  1
AC1009
  9
$INSBASE
 10
2798.8819632835038647
 20
159.0811932735132928
 30
0.0
  9
$EXTMIN
 10
2797.9370813937548519
 20
159.0811932735132928
 30
0.0
  9
$EXTMAX
 10
2799.8268451732537869
 20
165.5969413058735995
 30
0.0
  9
$LIMMIN
 10
0.0
 20
0.0
  9
$LIMMAX
 10
11.6929133858000007
 20
8.2677165353999982
  9
$ORTHOMODE
 70
     0
  9
$REGENMODE
 70
     1
  9
$FILLMODE
 70
     1
  9
$QTEXTMODE
 70
     0
  9
$MIRRTEXT
 70
     0
  9
$DRAGMODE
 70
     2
  9
$LTSCALE
 40
0.6431102362
  9
$OSMODE
 70
   575
  9
$ATTMODE
 70
     1
  9
$TEXTSIZE
 40
0.2
  9
$TRACEWID
 40
0.05
  9
$TEXTSTYLE
  7
STANDARD
  9
$CLAYER
  8
0
  9
$CELTYPE
  6
BYLAYER
  9
$CECOLOR
 62
   256
  9
$DIMSCALE
 40
1.0
  9
$DIMASZ
 40
0.1875
  9
$DIMEXO
 40
0.0625
  9
$DIMDLI
 40
0.4443307087
  9
$DIMRND
 40
0.0
  9
$DIMDLE
 40
0.0
  9
$DIMEXE
 40
0.125
  9
$DIMTP
 40
0.01
  9
$DIMTM
 40
0.01
  9
$DIMTXT
 40
2.0
  9
$DIMCEN
 40
0.1052362205
  9
$DIMTSZ
 40
0.0
  9
$DIMTOL
 70
     1
  9
$DIMLIM
 70
     0
  9
$DIMTIH
 70
     1
  9
$DIMTOH
 70
     1
  9
$DIMSE1
 70
     0
  9
$DIMSE2
 70
     0
  9
$DIMTAD
 70
     0
  9
$DIMZIN
 70
     0
  9
$DIMBLK
  1

  9
$DIMASO
 70
     1
  9
$DIMSHO
 70
     1
  9
$DIMPOST
  1
\X
  9
$DIMAPOST
  1

  9
$DIMALT
 70
     1
  9
$DIMALTD
 70
     2
  9
$DIMALTF
 40
25.3999999999999986
  9
$DIMLFAC
 40
1.0
  9
$DIMTOFL
 70
     0
  9
$DIMTVP
 40
0.0
  9
$DIMTIX
 70
     0
  9
$DIMSOXD
 70
     0
  9
$DIMSAH
 70
     0
  9
$DIMBLK1
  1

  9
$DIMBLK2
  1

  9
$DIMSTYLE
  2
STANDARD
  9
$DIMCLRD
 70
     0
  9
$DIMCLRE
 70
     0
  9
$DIMCLRT
 70
     0
  9
$DIMTFAC
 40
1.0
  9
$DIMGAP
 40
0.09
  9
$LUNITS
 70
     2
  9
$LUPREC
 70
     4
  9
$SKETCHINC
 40
0.1
  9
$FILLETRAD
 40
0.0
  9
$AUNITS
 70
     0
  9
$AUPREC
 70
     0
  9
$MENU
  1
.
  9
$ELEVATION
 40
0.0
  9
$PELEVATION
 40
0.0
  9
$THICKNESS
 40
0.0
  9
$LIMCHECK
 70
     0
  9
$BLIPMODE
 70
     0
  9
$CHAMFERA
 40
0.0
  9
$CHAMFERB
 40
0.0
  9
$SKPOLY
 70
     0
  9
$TDCREATE
 40
2458060.468368056230247
  9
$TDUPDATE
 40
2459667.6610416672192514
  9
$TDINDWG
 40
1.0783288194
  9
$TDUSRTIMER
 40
1.0783288194
  9
$USRTIMER
 70
     1
  9
$ANGBASE
 50
0.0
  9
$ANGDIR
 70
     0
  9
$PDMODE
 70
     0
  9
$PDSIZE
 40
0.3125
  9
$PLINEWID
 40
0.0
  9
$COORDS
 70
     1
  9
$SPLFRAME
 70
     0
  9
$SPLINETYPE
 70
     6
  9
$SPLINESEGS
 70
     8
  9
$ATTDIA
 70
     1
  9
$ATTREQ
 70
     1
  9
$HANDLING
 70
     1
  9
$HANDSEED
  5
A4B5
  9
$SURFTAB1
 70
     6
  9
$SURFTAB2
 70
     6
  9
$SURFTYPE
 70
     6
  9
$SURFU
 70
     6
  9
$SURFV
 70
     6
  9
$UCSNAME
  2

  9
$UCSORG
 10
0.0
 20
0.0
 30
0.0
  9
$UCSXDIR
 10
1.0
 20
0.0
 30
0.0
  9
$UCSYDIR
 10
0.0
 20
1.0
 30
0.0
  9
$PUCSNAME
  2

  9
$PUCSORG
 10
0.0
 20
0.0
 30
0.0
  9
$PUCSXDIR
 10
1.0
 20
0.0
 30
0.0
  9
$PUCSYDIR
 10
0.0
 20
1.0
 30
0.0
  9
$USERI1
 70
     0
  9
$USERI2
 70
     0
  9
$USERI3
 70
     0
  9
$USERI4
 70
     0
  9
$USERI5
 70
     0
  9
$USERR1
 40
0.0
  9
$USERR2
 40
0.0
  9
$USERR3
 40
0.0
  9
$USERR4
 40
0.0
  9
$USERR5
 40
0.0
  9
$WORLDVIEW
 70
     1
  9
$SHADEDGE
 70
     3
  9
$SHADEDIF
 70
    70
  9
$TILEMODE
 70
     1
  9
$MAXACTVP
 70
    64
  9
$PLIMCHECK
 70
     0
  9
$PEXTMIN
 10
1.0000000000000000E+20
 20
1.0000000000000000E+20
 30
1.0000000000000000E+20
  9
$PEXTMAX
 10
-1.0000000000000000E+20
 20
-1.0000000000000000E+20
 30
-1.0000000000000000E+20
  9
$PLIMMIN
 10
0.0
 20
0.0
  9
$PLIMMAX
 10
12.0
 20
9.0
  9
$UNITMODE
 70
     0
  9
$VISRETAIN
 70
     1
  9
$PLINEGEN
 70
     0
  9
$PSLTSCALE
 70
     1
  0
ENDSEC
  0
SECTION
  2
TABLES
  0
TABLE
  2
VPORT
 70
     1
  0
VPORT
  2
*ACTIVE
 70
     0
 10
0.0
 20
0.0
 11
1.0
 21
1.0
 12
488.3268760695349897
 22
23.9474707597738501
 13
0.0
 23
0.0
 14
1.0
 24
1.0
 15
0.0
 25
0.0
 16
0.0
 26
0.0
 36
14.15189873613655
 17
2311.2252197265629547
 27
137.8012416672862912
 37
0.0
 40
11.0412311966877201
 41
2.2268786127167619
 42
50.0
 43
0.0
 44
0.0
 50
0.0
 51
0.0
 71
     0
 72
   100
 73
     1
 74
     1
 75
     0
 76
     0
 77
     0
 78
     0
  0
ENDTAB
  0
TABLE
  2
LTYPE
 70
     2
  0
LTYPE
  2
CONTINUOUS
 70
     0
  3
Solid line
 72
    65
 73
     0
 40
0.0
  0
LTYPE
  2
PHANTOM2
 70
     0
  3
___ _ _ ___ _ _ ___ _ _ ___ _ _
 72
    65
 73
     6
 40
1.25
 49
0.625
 49
-0.125
 49
0.125
 49
-0.125
 49
0.125
 49
-0.125
  0
ENDTAB
  0
TABLE
  2
LAYER
 70
     2
  0
LAYER
  2
0
 70
     0
 62
   255
  6
CONTINUOUS
  0
LAYER
  2
DEFPOINTS
 70
     0
 62
     7
  6
CONTINUOUS
  0
ENDTAB
  0
TABLE
  2
STYLE
 70
     1
  0
STYLE
  2
STANDARD
 70
     0
 40
0.0
 41
0.8
 50
0.0
 71
     0
 42
0.2
  3
txt
  4

  0
ENDTAB
  0
TABLE
  2
VIEW
 70
     0
  0
ENDTAB
  0
TABLE
  2
UCS
 70
     0
  0
ENDTAB
  0
TABLE
  2
APPID
 70
    10
  0
APPID
  2
ACAD
 70
     0
  0
APPID
  2
ACAD_MLEADERVER
 70
     0
  0
APPID
  2
ACAD_EXEMPT_FROM_CAD_STANDARDS
 70
     0
  0
APPID
  2
ACAD_NAV_VCDISPLAY
 70
     0
  0
APPID
  2
ACAECLAYERSTANDARD
 70
     0
  0
APPID
  2
ACCMTRANSPARENCY
 70
     0
  0
APPID
  2
ACAD_DSTYLE_DIMJAG
 70
     0
  0
APPID
  2
ACAD_DSTYLE_DIMTALN
 70
     0
  0
APPID
  2
ACDBATTR
 70
     0
  0
APPID
  2
DCO15
 70
     0
  0
ENDTAB
  0
TABLE
  2
DIMSTYLE
 70
     1
  0
DIMSTYLE
  2
STANDARD
 70
     0
  3

  4

  5

  6

  7

 40
1.0
 41
0.1875
 42
0.0625
 43
0.38
 44
0.125
 45
0.0
 46
0.0
 47
0.01
 48
0.01
140
0.15625
141
0.09
142
0.0
143
25.3999999999999986
144
1.0
145
0.0
146
1.0
147
0.09
 71
     1
 72
     0
 73
     1
 74
     1
 75
     0
 76
     0
 77
     0
 78
     4
170
     0
171
     2
172
     0
173
     0
174
     0
175
     0
176
     0
177
     0
178
     0
  0
ENDTAB
  0
ENDSEC
  0
SECTION
  2
BLOCKS
  0
BLOCK
  8
0
  2
$MODEL_SPACE
 70
     0
 10
0.0
 20
0.0
 30
0.0
  3
$MODEL_SPACE
  1

  0
ENDBLK
  5
21
  8
0
  0
BLOCK
 67
     1
  8
0
  2
$PAPER_SPACE
 70
     0
 10
0.0
 20
0.0
 30
0.0
  3
$PAPER_SPACE
  1

  0
ENDBLK
  5
1D
 67
     1
  8
0
  0
ENDSEC
  0
SECTION
  2
ENTITIES
  0
ATTDEF
  5
3930
  8
DEFPOINTS
 10
2798.881959580270177
 20
159.0845763004192861
 30
0.0
 40
0.001
  1
K-EX28096T-4
  3

  2
MODELNUMBER
 70
     0
1001
ACDBATTR
1070
     0
1070
     1
  0
ATTDEF
  5
3931
  8
DEFPOINTS
 10
2798.881959580270177
 20
159.0829096337525925
 30
0.0
 40
0.001
  1
COMPONENTS
  3

  2
TRADENAME
 70
     0
1001
ACDBATTR
1070
     0
1070
     1
  0
ATTDEF
  5
3932
  8
DEFPOINTS
 10
2798.881959580270177
 20
159.0812429670860126
 30
0.0
 40
0.001
  1
BATHROOM SINK FAUCET
  3

  2
PRODUCT
 70
     0
1001
ACDBATTR
1070
     0
1070
     1
  0
LINE
  5
A0E1
  8
0
 10
2797.9370813937548519
 20
159.0811932735132928
 30
0.0
 11
2799.8268451732537869
 21
159.0811932735132928
 31
0.0
  0
LINE
  5
A0E2
  8
0
 10
2797.9453916392549218
 20
159.2333786145134127
 30
0.0
 11
2799.8185349277541718
 21
159.2333786145134127
 31
0.0
  0
LINE
  5
A0E3
  8
0
 10
2799.7166089528541306
 20
159.2662326436133071
 30
0.0
 11
2798.0473176142540979
 21
159.2662326436133071
 31
0.0
  0
LINE
  5
A0E4
  8
0
 10
2799.7166089528541306
 20
159.2662326436133071
 30
0.0
 11
2799.8185349277541718
 21
159.2333786145134127
 31
0.0
  0
LINE
  5
A0E5
  8
0
 10
2797.9370813937548519
 20
159.0811932735132928
 30
0.0
 11
2797.9370813937548519
 21
159.2220983294133134
 31
0.0
  0
LINE
  5
A0E6
  8
0
 10
2798.0512546221539196
 20
165.5772562657134017
 30
0.0
 11
2798.0512546221539196
 21
164.927649966513286
 31
0.0
  0
LINE
  5
A0E7
  8
0
 10
2798.0512546221539196
 20
164.8174137460133863
 30
0.0
 11
2798.0512546221539196
 21
159.2662326436133071
 31
0.0
  0
LINE
  5
A0E8
  8
0
 10
2798.0768451732537869
 20
164.8502790306133932
 30
0.0
 11
2798.0768451732537869
 21
164.8331617775133111
 31
0.0
  0
LINE
  5
A0E9
  8
0
 10
2798.147711315054039
 20
164.8292247696132904
 30
0.0
 11
2798.147711315054039
 21
164.8331617775133111
 31
0.0
  0
LINE
  5
A0EA
  8
0
 10
2798.3452872272550849
 20
162.2855746583134078
 30
0.0
 11
2798.346634887754135
 21
162.2641529542133867
 31
0.0
  0
LINE
  5
A0EB
  8
0
 10
2798.346634887754135
 20
162.2641529542133867
 30
0.0
 11
2798.3465302126551251
 21
162.2674820757133034
 31
0.0
  0
LINE
  5
A0EC
  8
0
 10
2798.3451882787549039
 20
162.2888326363132876
 30
0.0
 11
2798.3452872272550849
 21
162.2855746583134078
 31
0.0
  0
LINE
  5
A0ED
  8
0
 10
2798.4291339016540405
 20
162.238743910213401
 30
0.0
 11
2798.4284706441630988
 21
162.2656166441134076
 31
0.0
  0
LINE
  5
A0EE
  8
0
 10
2798.4291339016540405
 20
162.2741444909133861
 30
0.0
 11
2798.4284706441630988
 21
162.3010172248133074
 31
0.0
  0
LINE
  5
A0EF
  8
0
 10
2798.4291339016540405
 20
162.3095450717133019
 30
0.0
 11
2798.4284706441630988
 21
162.3364178055132925
 31
0.0
  0
LINE
  5
A0F0
  8
0
 10
2798.4291339016540405
 20
162.344945652413287
 30
0.0
 11
2798.4288151641439981
 21
162.3578597159882122
 31
0.0
  0
LINE
  5
A0F1
  8
0
 10
2798.2569632835538869
 20
163.3981224074132967
 30
0.0
 11
2798.2569632835538869
 21
162.110807377613412
 31
0.0
  0
LINE
  5
A0F2
  8
0
 10
2798.29141210245416
 20
165.3804058720133128
 30
0.0
 11
2798.29141210245416
 21
165.5772562657134017
 31
0.0
  0
LINE
  5
A0F3
  8
0
 10
2798.3091286379549274
 20
162.2722340263134129
 30
0.0
 11
2798.309128637854883
 21
162.2467456072133132
 31
0.0
  0
LINE
  5
A0F4
  8
0
 10
2798.3327506850541795
 20
162.2631548611134065
 30
0.0
 11
2798.3327506850541795
 21
162.2886432784133035
 31
0.0
  0
LINE
  5
A0F5
  8
0
 10
2798.3389679166548376
 20
162.2892144771132905
 30
0.0
 11
2798.3389679166548376
 21
162.3158914442163052
 31
0.0
  0
LINE
  5
A0F6
  8
0
 10
2798.3451882787549039
 20
162.3171531009132877
 30
0.0
 11
2798.3451882787549039
 21
162.2888326363132876
 31
0.0
  0
LINE
  5
A0F7
  8
0
 10
2798.3465302126551251
 20
162.2958025403133036
 30
0.0
 11
2798.3465302126551251
 21
162.2674820757133034
 31
0.0
  0
LINE
  5
A0F8
  8
0
 10
2798.3603097401542072
 20
162.2656166441134076
 30
0.0
 11
2798.3603097401542072
 21
162.2958025403133036
 31
0.0
  0
LINE
  5
A0F9
  8
0
 10
2798.4488924173551823
 20
162.2302160634133088
 30
0.0
 11
2798.4488924173551823
 21
162.2037610304134034
 31
0.0
  0
LINE
  5
A0FA
  8
0
 10
2798.4394742734621104
 20
162.3591627959920061
 30
0.0
 11
2798.4391233740548159
 21
162.344945652413287
 31
0.0
  0
LINE
  5
A0FB
  8
0
 10
2798.4397866315462124
 20
162.3364178055132925
 30
0.0
 11
2798.4391233740548159
 21
162.3095450717133019
 31
0.0
  0
LINE
  5
A0FC
  8
0
 10
2798.4397866315462124
 20
162.3010172248133074
 30
0.0
 11
2798.4391233740548159
 21
162.2741444909133861
 31
0.0
  0
LINE
  5
A0FD
  8
0
 10
2798.4397853746540932
 20
162.265565719513404
 30
0.0
 11
2798.4391233740548159
 21
162.238743910213401
 31
0.0
  0
LINE
  5
A0FE
  8
0
 10
2798.5564278739661859
 20
162.2656166441134076
 30
0.0
 11
2798.5570861358551156
 21
162.2394198286133076
 31
0.0
  0
LINE
  5
A0FF
  8
0
 10
2798.6204042519661925
 20
162.2656166441134076
 30
0.0
 11
2798.6210625138542127
 21
162.2394198286133076
 31
0.0
  0
LINE
  5
A100
  8
0
 10
2798.6843819298551352
 20
162.2655649125134119
 30
0.0
 11
2798.6850388917550845
 21
162.2394198286133076
 31
0.0
  0
LINE
  5
A101
  8
0
 10
2798.4931102796540472
 20
162.238743910213401
 30
0.0
 11
2798.4924470220621515
 21
162.2656166441134076
 31
0.0
  0
LINE
  5
A102
  8
0
 10
2798.4931102796540472
 20
162.2741444909133861
 30
0.0
 11
2798.4924482789551803
 21
162.3009663002133038
 31
0.0
  0
LINE
  5
A103
  8
0
 10
2798.4931102796540472
 20
162.3095450717133019
 30
0.0
 11
2798.4924470220621515
 21
162.3364178055132925
 31
0.0
  0
LINE
  5
A104
  8
0
 10
2798.4931102796540472
 20
162.344945652413287
 30
0.0
 11
2798.4927504753541143
 21
162.3595235856134025
 31
0.0
  0
LINE
  5
A105
  8
0
 10
2798.5570866575549189
 20
162.2741444909133861
 30
0.0
 11
2798.5564234000630677
 21
162.3010172248133074
 31
0.0
  0
LINE
  5
A106
  8
0
 10
2798.5570866575549189
 20
162.3095450717133019
 30
0.0
 11
2798.5564234000630677
 21
162.3364178055132925
 31
0.0
  0
LINE
  5
A107
  8
0
 10
2798.5570866575549189
 20
162.344945652413287
 30
0.0
 11
2798.556726853354121
 21
162.3595235856134025
 31
0.0
  0
LINE
  5
A108
  8
0
 10
2798.6210630355540161
 20
162.2741444909133861
 30
0.0
 11
2798.6203997780621648
 21
162.3010172248133074
 31
0.0
  0
LINE
  5
A109
  8
0
 10
2798.6210630355540161
 20
162.3095450717133019
 30
0.0
 11
2798.6203997780621648
 21
162.3364178055132925
 31
0.0
  0
LINE
  5
A10A
  8
0
 10
2798.6210630355540161
 20
162.344945652413287
 30
0.0
 11
2798.6207032312540832
 21
162.3595235856134025
 31
0.0
  0
LINE
  5
A10B
  8
0
 10
2798.6850394134548878
 20
162.2741444909133861
 30
0.0
 11
2798.6843761559621271
 21
162.3010172248133074
 31
0.0
  0
LINE
  5
A10C
  8
0
 10
2798.6850394134548878
 20
162.3095450717133019
 30
0.0
 11
2798.6843761559621271
 21
162.3364178055132925
 31
0.0
  0
LINE
  5
A10D
  8
0
 10
2798.6850394134548878
 20
162.344945652413287
 30
0.0
 11
2798.6846796092540899
 21
162.3595235856134025
 31
0.0
  0
LINE
  5
A10E
  8
0
 10
2798.4897632750548837
 20
162.2302160634133088
 30
0.0
 11
2798.4897632750548837
 21
162.2037610304134034
 31
0.0
  0
LINE
  5
A10F
  8
0
 10
2798.4931102796540472
 20
162.2209128394133018
 30
0.0
 11
2798.4931102796540472
 21
162.2302160634133088
 31
0.0
  0
LINE
  5
A110
  8
0
 10
2798.5034014703542198
 20
162.190114467813288
 30
0.0
 11
2798.5034014703542198
 21
162.1938488678133012
 31
0.0
  0
LINE
  5
A111
  8
0
 10
2798.5079475354541501
 20
162.2656166441134076
 30
0.0
 11
2798.5079475354541501
 21
162.2264174021134124
 31
0.0
  0
LINE
  5
A112
  8
0
 10
2798.5074216989542037
 20
162.238743910213401
 30
0.0
 11
2798.5078046308540252
 21
162.2656166441134076
 31
0.0
  0
LINE
  5
A113
  8
0
 10
2798.5034595562551658
 20
162.3595235856134025
 30
0.0
 11
2798.5030997519538687
 21
162.344945652413287
 31
0.0
  0
LINE
  5
A114
  8
0
 10
2798.5037630094461747
 20
162.3364178055132925
 30
0.0
 11
2798.5030997519538687
 21
162.3095450717133019
 31
0.0
  0
LINE
  5
A115
  8
0
 10
2798.5037617525540554
 20
162.3009663002133038
 30
0.0
 11
2798.5030997519538687
 21
162.2741444909133861
 31
0.0
  0
LINE
  5
A116
  8
0
 10
2798.5037630094461747
 20
162.2656166441134076
 30
0.0
 11
2798.5030997519538687
 21
162.238743910213401
 31
0.0
  0
LINE
  5
A117
  8
0
 10
2798.5674359341551281
 20
162.3595235856134025
 30
0.0
 11
2798.5670761299547848
 21
162.344945652413287
 31
0.0
  0
LINE
  5
A118
  8
0
 10
2798.5677393874461814
 20
162.3364178055132925
 30
0.0
 11
2798.5670761299547848
 21
162.3095450717133019
 31
0.0
  0
LINE
  5
A119
  8
0
 10
2798.5677393874461814
 20
162.3010172248133074
 30
0.0
 11
2798.5670761299547848
 21
162.2741444909133861
 31
0.0
  0
LINE
  5
A11A
  8
0
 10
2798.6314123121542252
 20
162.3595235856134025
 30
0.0
 11
2798.6310525078538376
 21
162.344945652413287
 31
0.0
  0
LINE
  5
A11B
  8
0
 10
2798.6317157653461436
 20
162.3364178055132925
 30
0.0
 11
2798.6310525078538376
 21
162.3095450717133019
 31
0.0
  0
LINE
  5
A11C
  8
0
 10
2798.6317157653461436
 20
162.3010172248133074
 30
0.0
 11
2798.6310525078538376
 21
162.2741444909133861
 31
0.0
  0
LINE
  5
A11D
  8
0
 10
2798.5670766516541335
 20
162.2394198286133076
 30
0.0
 11
2798.5677349134430187
 21
162.2656166441134076
 31
0.0
  0
LINE
  5
A11E
  8
0
 10
2798.6310530295540957
 20
162.2394198286133076
 30
0.0
 11
2798.6317099915540894
 21
162.2655649125134119
 31
0.0
  0
LINE
  5
A11F
  8
0
 10
2798.4897632750548837
 20
162.2037610304134034
 30
0.0
 11
2798.5079475354541501
 21
162.2264174021134124
 31
0.0
  0
LINE
  5
A120
  8
0
 10
2798.5215857308548948
 20
162.2094251234134106
 30
0.0
 11
2798.5090840517550532
 21
162.1938488678133012
 31
0.0
  0
LINE
  5
A121
  8
0
 10
2799.4998335086938823
 20
162.1037272615133134
 30
0.0
 11
2798.2640930583152112
 21
162.1037272615133134
 31
0.0
  0
LINE
  5
A122
  8
0
 10
2798.748358307754188
 20
162.2655649125134119
 30
0.0
 11
2798.7490152697541816
 21
162.2394198286133076
 31
0.0
  0
LINE
  5
A123
  8
0
 10
2798.8123333858661681
 20
162.2656166441134076
 30
0.0
 11
2798.8129916476541439
 21
162.2394198286133076
 31
0.0
  0
LINE
  5
A124
  8
0
 10
2798.8763097637661303
 20
162.2656166441134076
 30
0.0
 11
2798.8769680256541506
 21
162.2394198286133076
 31
0.0
  0
LINE
  5
A125
  8
0
 10
2798.7490157914548945
 20
162.2741444909133861
 30
0.0
 11
2798.7483525339630432
 21
162.3010172248133074
 31
0.0
  0
LINE
  5
A126
  8
0
 10
2798.7490157914548945
 20
162.3095450717133019
 30
0.0
 11
2798.7483525339630432
 21
162.3364178055132925
 31
0.0
  0
LINE
  5
A127
  8
0
 10
2798.7490157914548945
 20
162.344945652413287
 30
0.0
 11
2798.7486559871540521
 21
162.3595235856134025
 31
0.0
  0
LINE
  5
A128
  8
0
 10
2798.8129921693539472
 20
162.2741444909133861
 30
0.0
 11
2798.812328911862096
 21
162.3010172248133074
 31
0.0
  0
LINE
  5
A129
  8
0
 10
2798.8129921693539472
 20
162.3095450717133019
 30
0.0
 11
2798.812328911862096
 21
162.3364178055132925
 31
0.0
  0
LINE
  5
A12A
  8
0
 10
2798.8129921693539472
 20
162.344945652413287
 30
0.0
 11
2798.8126323651540588
 21
162.3595235856134025
 31
0.0
  0
LINE
  5
A12B
  8
0
 10
2798.8769685473548634
 20
162.2741444909133861
 30
0.0
 11
2798.8763052898630121
 21
162.3010172248133074
 31
0.0
  0
LINE
  5
A12C
  8
0
 10
2798.8769685473548634
 20
162.3095450717133019
 30
0.0
 11
2798.8763052898630121
 21
162.3364178055132925
 31
0.0
  0
LINE
  5
A12D
  8
0
 10
2798.8769685473548634
 20
162.344945652413287
 30
0.0
 11
2798.876608743054021
 21
162.3595235856134025
 31
0.0
  0
LINE
  5
A12E
  8
0
 10
2798.8258609213048658
 20
162.2094251234134106
 30
0.0
 11
2798.8258609213048658
 21
162.1781934668134113
 31
0.0
  0
LINE
  5
A12F
  8
0
 10
2798.8455459607048397
 20
162.1781934668134113
 30
0.0
 11
2798.8455459607048397
 21
162.2094251234134106
 31
0.0
  0
LINE
  5
A130
  8
0
 10
2798.695388690055097
 20
162.3595235856134025
 30
0.0
 11
2798.6950288858538443
 21
162.344945652413287
 31
0.0
  0
LINE
  5
A131
  8
0
 10
2798.6956921433461503
 20
162.3364178055132925
 30
0.0
 11
2798.6950288858538443
 21
162.3095450717133019
 31
0.0
  0
LINE
  5
A132
  8
0
 10
2798.6956921433461503
 20
162.3010172248133074
 30
0.0
 11
2798.6950288858538443
 21
162.2741444909133861
 31
0.0
  0
LINE
  5
A133
  8
0
 10
2798.7593650680541941
 20
162.3595235856134025
 30
0.0
 11
2798.7590052637538065
 21
162.344945652413287
 31
0.0
  0
LINE
  5
A134
  8
0
 10
2798.7596685212461125
 20
162.3364178055132925
 30
0.0
 11
2798.7590052637538065
 21
162.3095450717133019
 31
0.0
  0
LINE
  5
A135
  8
0
 10
2798.7596685212461125
 20
162.3010172248133074
 30
0.0
 11
2798.7590052637538065
 21
162.2741444909133861
 31
0.0
  0
LINE
  5
A136
  8
0
 10
2798.8233414459550659
 20
162.3595235856134025
 30
0.0
 11
2798.8229816417538132
 21
162.344945652413287
 31
0.0
  0
LINE
  5
A137
  8
0
 10
2798.8236448992461192
 20
162.3364178055132925
 30
0.0
 11
2798.8229816417538132
 21
162.3095450717133019
 31
0.0
  0
LINE
  5
A138
  8
0
 10
2798.8236448992461192
 20
162.3010172248133074
 30
0.0
 11
2798.8229816417538132
 21
162.2741444909133861
 31
0.0
  0
LINE
  5
A139
  8
0
 10
2798.887317823954163
 20
162.3595235856134025
 30
0.0
 11
2798.8869580196537754
 21
162.344945652413287
 31
0.0
  0
LINE
  5
A13A
  8
0
 10
2798.8876200202539621
 20
162.3363668809132889
 30
0.0
 11
2798.8869580196537754
 21
162.3095450717133019
 31
0.0
  0
LINE
  5
A13B
  8
0
 10
2798.8876212771460814
 20
162.3010172248133074
 30
0.0
 11
2798.8869580196537754
 21
162.2741444909133861
 31
0.0
  0
LINE
  5
A13C
  8
0
 10
2798.6950294075541024
 20
162.2394198286133076
 30
0.0
 11
2798.6956863694540516
 21
162.2655649125134119
 31
0.0
  0
LINE
  5
A13D
  8
0
 10
2798.7590057854540646
 20
162.2394198286133076
 30
0.0
 11
2798.7596627474540583
 21
162.2655649125134119
 31
0.0
  0
LINE
  5
A13E
  8
0
 10
2798.8229821634540713
 20
162.2394198286133076
 30
0.0
 11
2798.8236391253540205
 21
162.2655649125134119
 31
0.0
  0
LINE
  5
A13F
  8
0
 10
2798.8869585413540335
 20
162.2394198286133076
 30
0.0
 11
2798.8876168032429632
 21
162.2656166441134076
 31
0.0
  0
LINE
  5
A140
  8
0
 10
2798.4508609206550318
 20
162.1447919352133056
 30
0.0
 11
2799.3130656463540618
 21
162.1447919352133056
 31
0.0
  0
LINE
  5
A141
  8
0
 10
2798.4508609216541117
 20
162.1781934668134113
 30
0.0
 11
2799.3130656448552145
 21
162.1781934668134113
 31
0.0
  0
LINE
  5
A142
  8
0
 10
2798.4488924173551823
 20
162.190114467813288
 30
0.0
 11
2798.5034014703542198
 21
162.190114467813288
 31
0.0
  0
LINE
  5
A143
  8
0
 10
2798.4488924173551823
 20
162.1938488678133012
 30
0.0
 11
2798.5090840517550532
 21
162.1938488678133012
 31
0.0
  0
LINE
  5
A144
  8
0
 10
2798.4488924173551823
 20
162.2037610304134034
 30
0.0
 11
2798.4897632750548837
 21
162.2037610304134034
 31
0.0
  0
LINE
  5
A145
  8
0
 10
2798.9183806063037991
 20
162.2094251234134106
 30
0.0
 11
2798.8455459607048397
 21
162.2094251234134106
 31
0.0
  0
LINE
  5
A146
  8
0
 10
2798.8258609213048658
 20
162.2094251234134106
 30
0.0
 11
2798.5215857308548948
 21
162.2094251234134106
 31
0.0
  0
LINE
  5
A147
  8
0
 10
2798.5079475354541501
 20
162.2264174021134124
 30
0.0
 11
2799.255979031554034
 21
162.2264174021134124
 31
0.0
  0
LINE
  5
A148
  8
0
 10
2798.5024633016541884
 20
162.2302160634133088
 30
0.0
 11
2798.5016984756539387
 21
162.2302160634133088
 31
0.0
  0
LINE
  5
A149
  8
0
 10
2798.4945115559548867
 20
162.2302160634133088
 30
0.0
 11
2798.437722097653932
 21
162.2302160634133088
 31
0.0
  0
LINE
  5
A14A
  8
0
 10
2798.430535178054015
 20
162.2302160634133088
 30
0.0
 11
2798.3904693871540985
 21
162.2302160634133088
 31
0.0
  0
LINE
  5
A14B
  8
0
 10
2798.3819357636548375
 20
162.238743910213401
 30
0.0
 11
2798.4291339016540405
 21
162.238743910213401
 31
0.0
  0
LINE
  5
A14C
  8
0
 10
2798.4391233740548159
 20
162.238743910213401
 30
0.0
 11
2798.4931102795549123
 21
162.238743910213401
 31
0.0
  0
LINE
  5
A14D
  8
0
 10
2798.9418981255780636
 20
162.2656166441134076
 30
0.0
 11
2798.8855567433538454
 21
162.2656166441134076
 31
0.0
  0
LINE
  5
A14E
  8
0
 10
2798.8783698236547934
 20
162.2656166441134076
 30
0.0
 11
2798.8215803653538387
 21
162.2656166441134076
 31
0.0
  0
LINE
  5
A14F
  8
0
 10
2798.8143934457539217
 20
162.2656166441134076
 30
0.0
 11
2798.7576039874538765
 21
162.2656166441134076
 31
0.0
  0
LINE
  5
A150
  8
0
 10
2798.7504170677548245
 20
162.2656166441134076
 30
0.0
 11
2798.6936276094538698
 21
162.2656166441134076
 31
0.0
  0
LINE
  5
A151
  8
0
 10
2798.6864406898539528
 20
162.2656166441134076
 30
0.0
 11
2798.6296512315539076
 21
162.2656166441134076
 31
0.0
  0
LINE
  5
A152
  8
0
 10
2798.6224643118548556
 20
162.2656166441134076
 30
0.0
 11
2798.5656748535539009
 21
162.2656166441134076
 31
0.0
  0
LINE
  5
A153
  8
0
 10
2798.5584879339539839
 20
162.2656166441134076
 30
0.0
 11
2798.5016984756539387
 21
162.2656166441134076
 31
0.0
  0
LINE
  5
A154
  8
0
 10
2798.4945115559548867
 20
162.2656166441134076
 30
0.0
 11
2798.437722097653932
 21
162.2656166441134076
 31
0.0
  0
LINE
  5
A155
  8
0
 10
2798.430535178054015
 20
162.2656166441134076
 30
0.0
 11
2798.3603097401542072
 21
162.2656166441134076
 31
0.0
  0
LINE
  5
A156
  8
0
 10
2798.3603097401542072
 20
162.2741444909133861
 30
0.0
 11
2798.4291339016540405
 21
162.2741444909133861
 31
0.0
  0
LINE
  5
A157
  8
0
 10
2798.4391233740548159
 20
162.2741444909133861
 30
0.0
 11
2798.4931102795549123
 21
162.2741444909133861
 31
0.0
  0
LINE
  5
A158
  8
0
 10
2798.5030997519538687
 20
162.2741444909133861
 30
0.0
 11
2798.5570866575549189
 21
162.2741444909133861
 31
0.0
  0
LINE
  5
A159
  8
0
 10
2798.5670761299547848
 20
162.2741444909133861
 30
0.0
 11
2798.6210630354548812
 21
162.2741444909133861
 31
0.0
  0
LINE
  5
A15A
  8
0
 10
2798.6310525078538376
 20
162.2741444909133861
 30
0.0
 11
2798.6850394134548878
 21
162.2741444909133861
 31
0.0
  0
LINE
  5
A15B
  8
0
 10
2798.6950288858538443
 20
162.2741444909133861
 30
0.0
 11
2798.7490157914548945
 21
162.2741444909133861
 31
0.0
  0
LINE
  5
A15C
  8
0
 10
2798.7590052637538065
 20
162.2741444909133861
 30
0.0
 11
2798.8129921693539472
 21
162.2741444909133861
 31
0.0
  0
LINE
  5
A15D
  8
0
 10
2798.8229816417538132
 20
162.2741444909133861
 30
0.0
 11
2798.8769685473548634
 21
162.2741444909133861
 31
0.0
  0
LINE
  5
A15E
  8
0
 10
2798.8869580196537754
 20
162.2741444909133861
 30
0.0
 11
2798.9405106571211945
 21
162.2741444909133861
 31
0.0
  0
LINE
  5
A15F
  8
0
 10
2798.9418981248618365
 20
162.3010172248133074
 30
0.0
 11
2798.8855567433538454
 21
162.3010172248133074
 31
0.0
  0
LINE
  5
A160
  8
0
 10
2798.8783698236547934
 20
162.3010172248133074
 30
0.0
 11
2798.8215803653538387
 21
162.3010172248133074
 31
0.0
  0
LINE
  5
A161
  8
0
 10
2798.8143934457539217
 20
162.3010172248133074
 30
0.0
 11
2798.7576039874538765
 21
162.3010172248133074
 31
0.0
  0
LINE
  5
A162
  8
0
 10
2798.7504170677548245
 20
162.3010172248133074
 30
0.0
 11
2798.6936276094538698
 21
162.3010172248133074
 31
0.0
  0
LINE
  5
A163
  8
0
 10
2798.6864406898539528
 20
162.3010172248133074
 30
0.0
 11
2798.6296512315539076
 21
162.3010172248133074
 31
0.0
  0
LINE
  5
A164
  8
0
 10
2798.6224643118548556
 20
162.3010172248133074
 30
0.0
 11
2798.5656748535539009
 21
162.3010172248133074
 31
0.0
  0
LINE
  5
A165
  8
0
 10
2798.5584879339539839
 20
162.3010172248133074
 30
0.0
 11
2798.5016984756539387
 21
162.3010172248133074
 31
0.0
  0
LINE
  5
A166
  8
0
 10
2798.4945115559548867
 20
162.3010172248133074
 30
0.0
 11
2798.437722097653932
 21
162.3010172248133074
 31
0.0
  0
LINE
  5
A167
  8
0
 10
2798.430535178054015
 20
162.3010172248133074
 30
0.0
 11
2798.3606097815631983
 21
162.3010172248133074
 31
0.0
  0
LINE
  5
A168
  8
0
 10
2798.362416067669983
 20
162.3095450717133872
 30
0.0
 11
2798.4291339016540405
 21
162.3095450717133019
 31
0.0
  0
LINE
  5
A169
  8
0
 10
2798.4391233740548159
 20
162.3095450717133019
 30
0.0
 11
2798.4931102795549123
 21
162.3095450717133019
 31
0.0
  0
LINE
  5
A16A
  8
0
 10
2798.5030997519538687
 20
162.3095450717133019
 30
0.0
 11
2798.5570866575549189
 21
162.3095450717133019
 31
0.0
  0
LINE
  5
A16B
  8
0
 10
2798.5670761299547848
 20
162.3095450717133019
 30
0.0
 11
2798.6210630354548812
 21
162.3095450717133019
 31
0.0
  0
LINE
  5
A16C
  8
0
 10
2798.6310525078538376
 20
162.3095450717133019
 30
0.0
 11
2798.6850394134548878
 21
162.3095450717133019
 31
0.0
  0
LINE
  5
A16D
  8
0
 10
2798.6950288858538443
 20
162.3095450717133019
 30
0.0
 11
2798.7490157914548945
 21
162.3095450717133019
 31
0.0
  0
LINE
  5
A16E
  8
0
 10
2798.7590052637538065
 20
162.3095450717133019
 30
0.0
 11
2798.8129921693539472
 21
162.3095450717133019
 31
0.0
  0
LINE
  5
A16F
  8
0
 10
2798.8229816417538132
 20
162.3095450717133019
 30
0.0
 11
2798.8769685473548634
 21
162.3095450717133019
 31
0.0
  0
LINE
  5
A170
  8
0
 10
2798.8869580196537754
 20
162.3095450717133019
 30
0.0
 11
2798.9405106571211945
 21
162.3095450717133019
 31
0.0
  0
LINE
  5
A171
  8
0
 10
2798.9418981248618365
 20
162.3364178055132925
 30
0.0
 11
2798.8855567433538454
 21
162.3364178055132925
 31
0.0
  0
LINE
  5
A172
  8
0
 10
2798.8783698236547934
 20
162.3364178055132925
 30
0.0
 11
2798.8215803653538387
 21
162.3364178055132925
 31
0.0
  0
LINE
  5
A173
  8
0
 10
2798.8143934457539217
 20
162.3364178055132925
 30
0.0
 11
2798.7576039874538765
 21
162.3364178055132925
 31
0.0
  0
LINE
  5
A174
  8
0
 10
2798.7504170677548245
 20
162.3364178055132925
 30
0.0
 11
2798.6936276094538698
 21
162.3364178055132925
 31
0.0
  0
LINE
  5
A175
  8
0
 10
2798.6864406898539528
 20
162.3364178055132925
 30
0.0
 11
2798.6296512315539076
 21
162.3364178055132925
 31
0.0
  0
LINE
  5
A176
  8
0
 10
2798.6224643118548556
 20
162.3364178055132925
 30
0.0
 11
2798.5656748535539009
 21
162.3364178055132925
 31
0.0
  0
LINE
  5
A177
  8
0
 10
2798.5584879339539839
 20
162.3364178055132925
 30
0.0
 11
2798.5016984756539387
 21
162.3364178055132925
 31
0.0
  0
LINE
  5
A178
  8
0
 10
2798.4945115559548867
 20
162.3364178055132925
 30
0.0
 11
2798.437722097653932
 21
162.3364178055132925
 31
0.0
  0
LINE
  5
A179
  8
0
 10
2798.430535178054015
 20
162.3364178055132925
 30
0.0
 11
2798.3805605064258089
 21
162.3364178055132925
 31
0.0
  0
LINE
  5
A17A
  8
0
 10
2798.3925765792719176
 20
162.344945652413287
 30
0.0
 11
2798.4291339016540405
 21
162.344945652413287
 31
0.0
  0
LINE
  5
A17B
  8
0
 10
2798.4391233740548159
 20
162.344945652413287
 30
0.0
 11
2798.4931102795549123
 21
162.344945652413287
 31
0.0
  0
LINE
  5
A17C
  8
0
 10
2798.5030997519538687
 20
162.344945652413287
 30
0.0
 11
2798.5570866575549189
 21
162.344945652413287
 31
0.0
  0
LINE
  5
A17D
  8
0
 10
2798.5670761299547848
 20
162.344945652413287
 30
0.0
 11
2798.6210630354548812
 21
162.344945652413287
 31
0.0
  0
LINE
  5
A17E
  8
0
 10
2798.6310525078538376
 20
162.344945652413287
 30
0.0
 11
2798.6850394134548878
 21
162.344945652413287
 31
0.0
  0
LINE
  5
A17F
  8
0
 10
2798.6950288858538443
 20
162.344945652413287
 30
0.0
 11
2798.7490157914548945
 21
162.344945652413287
 31
0.0
  0
LINE
  5
A180
  8
0
 10
2798.7590052637538065
 20
162.344945652413287
 30
0.0
 11
2798.8129921693539472
 21
162.344945652413287
 31
0.0
  0
LINE
  5
A181
  8
0
 10
2798.8229816417538132
 20
162.344945652413287
 30
0.0
 11
2798.8769685473548634
 21
162.344945652413287
 31
0.0
  0
LINE
  5
A182
  8
0
 10
2798.8869580196537754
 20
162.344945652413287
 30
0.0
 11
2798.9405106571211945
 21
162.344945652413287
 31
0.0
  0
LINE
  5
A183
  8
0
 10
2799.3150341496548208
 20
162.3595235856134025
 30
0.0
 11
2798.4488924173551823
 21
162.3595235856134025
 31
0.0
  0
LINE
  5
A184
  8
0
 10
2798.9183806063037991
 20
162.1781934668134113
 30
0.0
 11
2798.9183806063037991
 21
162.2094251234134106
 31
0.0
  0
LINE
  5
A185
  8
0
 10
2799.3150341496548208
 20
162.3694357482133057
 30
0.0
 11
2798.4488924173551823
 21
162.3694357482133057
 31
0.0
  0
LINE
  5
A186
  8
0
 10
2799.3130656464541062
 20
162.3741876982134045
 30
0.0
 11
2798.4508609207541667
 21
162.3741876982134045
 31
0.0
  0
LINE
  5
A187
  8
0
 10
2798.2650907841812113
 20
162.4152523719133114
 30
0.0
 11
2799.4988357828278822
 21
162.4152523719133114
 31
0.0
  0
LINE
  5
A188
  8
0
 10
2799.4725144646540684
 20
165.5772562657134017
 30
0.0
 11
2799.4725144646540684
 21
165.3804058720133128
 31
0.0
  0
LINE
  5
A189
  8
0
 10
2799.5069632835547964
 20
162.110807377613412
 30
0.0
 11
2799.5069632835547964
 21
163.3981224074132967
 31
0.0
  0
LINE
  5
A18A
  8
0
 10
2799.616215252055099
 20
164.8292247696132904
 30
0.0
 11
2799.616215252055099
 21
164.8331617775133111
 31
0.0
  0
LINE
  5
A18B
  8
0
 10
2799.6870813937539424
 20
164.8502790306133932
 30
0.0
 11
2799.6870813937539424
 21
164.8331617775133111
 31
0.0
  0
LINE
  5
A18C
  8
0
 10
2799.7126719449538541
 20
165.5772562657134017
 30
0.0
 11
2799.7126719449538541
 21
164.927649966513286
 31
0.0
  0
LINE
  5
A18D
  8
0
 10
2799.7126719449538541
 20
164.8174137460133011
 30
0.0
 11
2799.7126719449538541
 21
159.2662326436133071
 31
0.0
  0
LINE
  5
A18E
  8
0
 10
2799.8268451732537869
 20
159.0811932735132928
 30
0.0
 11
2799.8268451732537869
 21
159.2220983294133134
 31
0.0
  0
LINE
  5
A18F
  8
0
 10
2798.2668058031540568
 20
163.4079649271133974
 30
0.0
 11
2799.4971207638550368
 21
163.4079649271133974
 31
0.0
  0
LINE
  5
A190
  8
0
 10
2799.7008609212539341
 20
164.8292247696132904
 30
0.0
 11
2798.0630656458538397
 21
164.8292247696132904
 31
0.0
  0
LINE
  5
A191
  8
0
 10
2798.0768451732537869
 20
164.8331617775133111
 30
0.0
 11
2799.6870813937539424
 21
164.8331617775133111
 31
0.0
  0
LINE
  5
A192
  8
0
 10
2799.6870813937539424
 20
164.8502790306133932
 30
0.0
 11
2798.0768451732537869
 21
164.8502790306133932
 31
0.0
  0
LINE
  5
A193
  8
0
 10
2798.0473176142540979
 20
159.2662326436133071
 30
0.0
 11
2797.9453916392549218
 21
159.2333786145134127
 31
0.0
  0
LINE
  5
A194
  8
0
 10
2798.0512546221539196
 20
164.927649966513286
 30
0.0
 11
2799.7126719449538541
 21
164.927649966513286
 31
0.0
  0
LINE
  5
A195
  8
0
 10
2799.4528294252540945
 20
165.3607208326133104
 30
0.0
 11
2798.3110971417540895
 21
165.3607208326133104
 31
0.0
  0
LINE
  5
A196
  8
0
 10
2798.0709454822040243
 20
165.5969413050133028
 30
0.0
 11
2799.6929810848041598
 21
165.5969413050133028
 31
0.0
  0
ARC
  5
A197
  8
0
 10
2798.402608639754817
 20
162.2910865250134123
 30
0.0
 40
0.0639249452
 50
200.4528096563051918
 51
209.9277444387840035
  0
ARC
  5
A198
  8
0
 10
2797.4831778750171907
 20
162.1644945668126923
 30
0.0
 40
0.8570469728985525
 50
6.6382710813148771
 51
7.5723855712249462
  0
ARC
  5
A199
  8
0
 10
2798.3957339516541651
 20
162.2892243944133952
 30
0.0
 40
0.0567660359
 50
180.0100098258996013
 51
184.8428800198001909
  0
ARC
  5
A19A
  8
0
 10
2798.3994598915542156
 20
162.3171067461134101
 30
0.0
 40
0.0542716326
 50
168.4160118097416898
 51
179.9510621741997056
  0
ARC
  5
A19B
  8
0
 10
2798.4060958574550568
 20
162.2957840827133111
 30
0.0
 40
0.0457861210004235
 50
173.4370146719535057
 51
179.9769025794637116
  0
ARC
  5
A19C
  8
0
 10
2798.5068699126541105
 20
162.2439126348133129
 30
0.0
 40
0.0149987485
 50
227.6535261090029962
 51
234.2411358432983945
  0
ARC
  5
A19D
  8
0
 10
2797.9488924173551823
 20
159.2220983294133134
 30
0.0
 40
0.0118110236
 50
107.2414593988897025
 51
180.0
  0
ARC
  5
A19E
  8
0
 10
2798.8819406168040587
 20
163.8095693225274943
 30
0.0
 40
1.3157717772194331
 50
121.8152161866520942
 51
127.7256192160927952
  0
ARC
  5
A19F
  8
0
 10
2798.3110971417540895
 20
165.3804058720133128
 30
0.0
 40
0.0196850394
 50
179.999999999200412
 51
270.0
  0
ARC
  5
A1A0
  8
0
 10
2798.3110971417540895
 20
165.5772562657134017
 30
0.0
 40
0.0196850394
 50
90.0
 51
180.000000000400604
  0
ARC
  5
A1A1
  8
0
 10
2798.0709396624060901
 20
165.5772562656219975
 30
0.0
 40
0.0196850402516721
 50
89.983060746507249
 51
179.9999997340441098
  0
ARC
  5
A1A2
  8
0
 10
2798.0630656457551595
 20
164.8174137460133863
 30
0.0
 40
0.0118110236
 50
90.0
 51
180.0
  0
ARC
  5
A1A3
  8
0
 10
2798.2668058031540568
 20
163.3981224074132967
 30
0.0
 40
0.0098425197
 50
90.0
 51
180.0
  0
ARC
  5
A1A4
  8
0
 10
2799.8150341496539113
 20
159.2220983294133134
 30
0.0
 40
0.0118110236
 50
0.0
 51
72.7585406011102691
  0
ARC
  5
A1A5
  8
0
 10
2798.8819632835538869
 20
163.8095397302132881
 30
0.0
 40
1.315809052499999
 50
52.2743885658930978
 51
58.1846118069679719
  0
ARC
  5
A1A6
  8
0
 10
2799.4528294252540945
 20
165.3804058720133128
 30
0.0
 40
0.0196850394
 50
270.0
 51
0.0
  0
ARC
  5
A1A7
  8
0
 10
2799.4528294252540945
 20
165.5772562657134017
 30
0.0
 40
0.0196850394
 50
0.0
 51
90.0
  0
ARC
  5
A1A8
  8
0
 10
2799.6929869042560313
 20
165.5772562651758051
 30
0.0
 40
0.0196850406977367
 50
0.0000015645829371
 51
90.0169382458375935
  0
ARC
  5
A1A9
  8
0
 10
2799.700860921354888
 20
164.8174137460133011
 30
0.0
 40
0.0118110236
 50
0.0
 51
90.0
  0
ARC
  5
A1AA
  8
0
 10
2799.4971207638550368
 20
163.3981224074132967
 30
0.0
 40
0.0098425197
 50
0.0
 51
90.0
  0
LINE
  5
A1AB
  8
0
 10
2798.3423189144541539
 20
162.3192370735133068
 30
0.0
 11
2798.3405454105268291
 21
162.319026704725303
 31
0.0
  0
LINE
  5
A1AC
  8
0
 10
2798.4981050157548452
 20
162.2317413966133017
 30
0.0
 11
2798.4994304910542269
 21
162.2328244925132879
 31
0.0
  0
ARC
  5
A1AD
  8
0
 10
2798.4488109825060747
 20
162.2385421768447031
 30
0.0
 40
0.1209814361762993
 50
89.9614331456910321
 51
102.9038323104807944
  0
ARC
  5
A1AE
  8
0
 10
2798.4431713030630817
 20
162.259459694016698
 30
0.0
 40
0.099336172457752
 50
102.4273695817085041
 51
124.2703154438180064
  0
ARC
  5
A1AF
  8
0
 10
2798.4250534840330147
 20
162.285459422881587
 30
0.0
 40
0.067648960205214
 50
123.9891310056506057
 51
145.4647733901499862
  0
ARC
  5
A1B0
  8
0
 10
2798.4110713164968729
 20
162.2947841686869879
 30
0.0
 40
0.0508450341383223
 50
145.1885182958727967
 51
172.9584390421537137
  0
ARC
  5
A1B1
  8
0
 10
2798.3926278492731399
 20
162.2409096131144963
 30
0.0
 40
0.0109092146338016
 50
191.4504560665110944
 51
258.5883425260100807
  0
ARC
  5
A1B2
  8
0
 10
2862.0510352112769397
 20
163.5998530545869016
 30
0.0
 40
63.6836465866797212
 50
181.2004920100731056
 51
181.2246746567305138
  0
ARC
  5
A1B3
  8
0
 10
2798.4430446177998419
 20
162.2441129018619961
 30
0.0
 40
0.0152495521412858
 50
211.7361704899047936
 51
234.2202070367264071
  0
ARC
  5
A1B4
  8
0
 10
2798.4349618785099665
 20
162.2393189252343859
 30
0.0
 40
0.005856274967565
 50
185.6348280871067971
 51
213.4428226156497885
  0
ARC
  5
A1B5
  8
0
 10
2798.4251471187822062
 20
162.2441594341059954
 30
0.0
 40
0.0153256432167427
 50
305.8768603251460831
 51
326.9397134905366897
  0
ARC
  5
A1B6
  8
0
 10
2798.4327015395938361
 20
162.2395221375296046
 30
0.0
 40
0.0064688171704399
 50
324.8614228425238935
 51
353.0903279933770023
  0
ARC
  5
A1B7
  8
0
 10
2798.4304750344140302
 20
162.233780834655505
 30
0.0
 40
0.0035652785678729
 50
270.966583717253684
 51
288.4664995181327072
  0
ARC
  5
A1B8
  8
0
 10
2798.4285007228918403
 20
162.2392806701315919
 30
0.0
 40
0.0094081917505271
 50
289.2617479577185122
 51
306.7405940446105888
  0
ARC
  5
A1B9
  8
0
 10
2798.4387974624260096
 20
162.2377449609865891
 30
0.0
 40
0.007605307887255
 50
232.1286699228683972
 51
261.8713297573024192
  0
LINE
  5
A1BA
  8
0
 10
2798.4288369253749806
 20
162.2302160634133088
 30
0.0
 11
2798.4291339016540405
 21
162.2183480443133021
 31
0.0
  0
LINE
  5
A1BB
  8
0
 10
2798.439452809739123
 20
162.2302160634133088
 30
0.0
 11
2798.4391233739388554
 21
162.2171313699556094
 31
0.0
  0
ARC
  5
A1BC
  8
0
 10
2798.4321609460748732
 20
162.2184976178884881
 30
0.0
 40
0.0030307375636774
 50
182.8288220604792969
 51
211.983090671672386
  0
ARC
  5
A1BD
  8
0
 10
2798.4341426923351719
 20
162.2197893969257905
 30
0.0
 40
0.0053960750933579
 50
212.4717735733258905
 51
245.6402622141733048
  0
ARC
  5
A1BE
  8
0
 10
2798.4349532733331216
 20
162.2211678281823026
 30
0.0
 40
0.0069881903217736
 50
244.247418043050402
 51
275.1029950141460745
  0
ARC
  5
A1BF
  8
0
 10
2798.4353061820261246
 20
162.218635239949208
 30
0.0
 40
0.0044360470388848
 50
273.472195057454428
 51
314.2454166636579771
  0
ARC
  5
A1C0
  8
0
 10
2798.4365351550309242
 20
162.2172550697164013
 30
0.0
 40
0.0025911732369388
 50
316.0723064094780739
 51
357.2637224901216086
  0
ARC
  5
A1C1
  8
0
 10
2798.4477457896009582
 20
162.238965769157403
 30
0.0
 40
0.1304750174939839
 50
89.496472367860477
 51
118.0357827172114042
  0
ARC
  5
A1C2
  8
0
 10
2798.4271686310307814
 20
162.2779824140438905
 30
0.0
 40
0.0863652551984371
 50
118.1526763772615993
 51
142.4808885801998031
  0
ARC
  5
A1C3
  8
0
 10
2798.4050723340469631
 20
162.2948785490791863
 30
0.0
 40
0.0585494128421246
 50
142.4260422662673875
 51
179.0957545504649033
  0
ARC
  5
A1C4
  8
0
 10
2798.450806317480783
 20
162.1790755828507997
 30
0.0
 40
0.195112123003081
 50
89.9839654396024713
 51
99.5953210335757433
  0
ARC
  5
A1C5
  8
0
 10
2798.4459106585268273
 20
162.2030560869781084
 30
0.0
 40
0.1706530836937127
 50
99.3166860813241499
 51
119.6057588933204983
  0
ARC
  5
A1C6
  8
0
 10
2798.4202282007508984
 20
162.2480205249227936
 30
0.0
 40
0.1188711362143747
 50
119.5499705208919039
 51
142.1948534258002894
  0
ARC
  5
A1C7
  8
0
 10
2798.3903260103347748
 20
162.2709214723323043
 30
0.0
 40
0.0812079803929386
 50
142.0288047847330972
 51
179.0738954734443951
  0
ARC
  5
A1C8
  8
0
 10
2798.3982381785831421
 20
162.2880343324719945
 30
0.0
 40
0.0654903246581104
 50
149.6183085316984887
 51
179.4672413773899962
  0
ARC
  5
A1C9
  8
0
 10
2798.4206004417242184
 20
162.2736708324054007
 30
0.0
 40
0.092052503304992
 50
123.4575726234662056
 51
148.9453640153276126
  0
ARC
  5
A1CA
  8
0
 10
2798.4422116288969846
 20
162.2417570920148933
 30
0.0
 40
0.1305933464859088
 50
106.6821114325967983
 51
123.6486101266009001
  0
ARC
  5
A1CB
  8
0
 10
2798.4572565211178699
 20
162.1851538284545029
 30
0.0
 40
0.1891420302841167
 50
91.9377542538451991
 51
106.1256512919220967
  0
ARC
  5
A1CC
  8
0
 10
2798.3955344634018729
 20
162.2496554072189952
 30
0.0
 40
0.0864548068334077
 50
181.9287620657682965
 51
227.4200766006426022
  0
ARC
  5
A1CD
  8
0
 10
2798.436665808610087
 20
162.2936679188352116
 30
0.0
 40
0.1466938090440546
 50
227.2221456738996039
 51
254.367712621777514
  0
ARC
  5
A1CE
  8
0
 10
2798.4505345707038941
 20
162.33596893823389
 30
0.0
 40
0.1911772815692569
 50
253.7811215133941971
 51
270.0978070394355086
  0
ARC
  5
A1CF
  8
0
 10
2798.2652592242079663
 20
162.1120315555932905
 30
0.0
 40
0.0083857762345171
 50
188.3941873957745088
 51
262.0062688959972093
  0
ARC
  5
A1D0
  8
0
 10
2798.4500051909949434
 20
162.3324987231711134
 30
0.0
 40
0.154307629251137
 50
247.3472005053816929
 51
270.3177418721896856
  0
ARC
  5
A1D1
  8
0
 10
2798.4306622457988851
 20
162.2892034115633066
 30
0.0
 40
0.1069089135436829
 50
219.249262159505804
 51
247.9773254498483084
  0
ARC
  5
A1D2
  8
0
 10
2798.4000620241199613
 20
162.264081646969089
 30
0.0
 40
0.0673177190551782
 50
180.7888353377502995
 51
219.1695149390457118
  0
ARC
  5
A1D3
  8
0
 10
2798.4483211284969002
 20
162.3426553361724984
 30
0.0
 40
0.1525419381374211
 50
250.0722112508190946
 51
270.2145804447625892
  0
ARC
  5
A1D4
  8
0
 10
2798.4301421719251266
 20
162.299157668228105
 30
0.0
 40
0.1054770681790178
 50
219.2390202855507084
 51
251.3026143176597884
  0
ARC
  5
A1D5
  8
0
 10
2798.4016166653491382
 20
162.2749953673306038
 30
0.0
 40
0.0681029330312836
 50
189.6581707019711871
 51
218.6753065851675899
  0
ARC
  5
A1D6
  8
0
 10
2798.4485162714950093
 20
162.3310747074905009
 30
0.0
 40
0.1372263551975937
 50
254.9522400926670116
 51
270.157051443810019
  0
ARC
  5
A1D7
  8
0
 10
2798.4411725889708578
 20
162.3071949257455913
 30
0.0
 40
0.1122623646954961
 50
234.498419269732409
 51
255.4075486565218966
  0
ARC
  5
A1D8
  8
0
 10
2798.4212790055980804
 20
162.2793830325925057
 30
0.0
 40
0.0780680195457435
 50
212.6438298138538983
 51
234.5309195026696898
  0
ARC
  5
A1D9
  8
0
 10
2798.4040975430921208
 20
162.2682783173214034
 30
0.0
 40
0.0576105492010685
 50
184.1063375899564107
 51
212.5616070064758958
  0
ARC
  5
A1DA
  8
0
 10
2798.3982584168061294
 20
162.2895385986417125
 30
0.0
 40
0.059308099136761
 50
184.9394465882961924
 51
200.5202201426598094
  0
ARC
  5
A1DB
  8
0
 10
2798.3425280892661249
 20
162.3165077198341066
 30
0.0
 40
0.0027373574132872
 50
13.6369065444263597
 51
94.3825217227823572
  0
ARC
  5
A1DC
  8
0
 10
2798.4482649439642046
 20
162.3194818807450872
 30
0.0
 40
0.1157225514943487
 50
246.9767968632008035
 51
270.3106719712349104
  0
ARC
  5
A1DD
  8
0
 10
2798.4320529629849261
 20
162.2845541291679012
 30
0.0
 40
0.07724662862839
 50
215.7288579830083961
 51
247.9116063271648045
  0
ARC
  5
A1DE
  8
0
 10
2798.4106320098098877
 20
162.2683449821973056
 30
0.0
 40
0.0503961769582465
 50
183.103384591347691
 51
214.9902496251139894
  0
ARC
  5
A1DF
  8
0
 10
2798.2656696023032055
 20
162.406382955254287
 30
0.0
 40
0.0088882834276628
 50
93.7338278927261115
 51
168.3864244572050097
  0
ARC
  5
A1E0
  8
0
 10
2798.4430446177998419
 20
162.2795134825620096
 30
0.0
 40
0.0152495521412858
 50
211.7361704899047936
 51
234.2202070367264071
  0
ARC
  5
A1E1
  8
0
 10
2798.4349618785099665
 20
162.2747195059343994
 30
0.0
 40
0.005856274967565
 50
185.6348280871067971
 51
213.4428226156497885
  0
ARC
  5
A1E2
  8
0
 10
2798.4251471187822062
 20
162.2795600148060089
 30
0.0
 40
0.0153256432167427
 50
305.8768603251460831
 51
326.9397134905366897
  0
ARC
  5
A1E3
  8
0
 10
2798.4327015395938361
 20
162.2749227182295897
 30
0.0
 40
0.0064688171704399
 50
324.8614228425238935
 51
353.0903279933770023
  0
ARC
  5
A1E4
  8
0
 10
2798.4304750344140302
 20
162.2691814153554901
 30
0.0
 40
0.0035652785678729
 50
270.966583717253684
 51
288.4664995181327072
  0
ARC
  5
A1E5
  8
0
 10
2798.4285007228918403
 20
162.2746812508316054
 30
0.0
 40
0.0094081917505271
 50
289.2617479577185122
 51
306.7405940446105888
  0
ARC
  5
A1E6
  8
0
 10
2798.4387966273211532
 20
162.2731435743033899
 30
0.0
 40
0.0076032422091332
 50
232.1245363407342097
 51
261.8754633398260125
  0
ARC
  5
A1E7
  8
0
 10
2798.4430446177998419
 20
162.3149140633620107
 30
0.0
 40
0.0152495521412858
 50
211.7361704899047936
 51
234.2202070367264071
  0
ARC
  5
A1E8
  8
0
 10
2798.4349618785099665
 20
162.3101200867344005
 30
0.0
 40
0.005856274967565
 50
185.6348280871067971
 51
213.4428226156497885
  0
ARC
  5
A1E9
  8
0
 10
2798.4251471187822062
 20
162.31496059560601
 30
0.0
 40
0.0153256432167427
 50
305.8768603251460831
 51
326.9397134905366897
  0
ARC
  5
A1EA
  8
0
 10
2798.4327015395938361
 20
162.3103232990295908
 30
0.0
 40
0.0064688171704399
 50
324.8614228425238935
 51
353.0903279933770023
  0
ARC
  5
A1EB
  8
0
 10
2798.4304750344140302
 20
162.3045819961554912
 30
0.0
 40
0.0035652785678729
 50
270.966583717253684
 51
288.4664995181327072
  0
ARC
  5
A1EC
  8
0
 10
2798.4285007228918403
 20
162.3100818316316065
 30
0.0
 40
0.0094081917505271
 50
289.2617479577185122
 51
306.7405940446105888
  0
ARC
  5
A1ED
  8
0
 10
2798.4387974631799807
 20
162.3085461237714071
 30
0.0
 40
0.0076053093648651
 50
232.1286713757868085
 51
261.8713256027897955
  0
ARC
  5
A1EE
  8
0
 10
2798.4430446177998419
 20
162.3503146440619958
 30
0.0
 40
0.0152495521412858
 50
211.7361704899047936
 51
234.2202070367264071
  0
ARC
  5
A1EF
  8
0
 10
2798.4349618785099665
 20
162.345520667434414
 30
0.0
 40
0.005856274967565
 50
185.6348280871067971
 51
213.4428226156497885
  0
ARC
  5
A1F0
  8
0
 10
2798.4251471187822062
 20
162.3503611763059951
 30
0.0
 40
0.0153256432167427
 50
305.8768603251460831
 51
326.9397134905366897
  0
ARC
  5
A1F1
  8
0
 10
2798.4327015395938361
 20
162.3457238797296043
 30
0.0
 40
0.0064688171704399
 50
324.8614228425238935
 51
353.0903279933770023
  0
ARC
  5
A1F2
  8
0
 10
2798.4304750344140302
 20
162.3399825768555047
 30
0.0
 40
0.0035652785678729
 50
270.966583717253684
 51
288.4664995181327072
  0
ARC
  5
A1F3
  8
0
 10
2798.4285007228918403
 20
162.3454824123315916
 30
0.0
 40
0.0094081917505271
 50
289.2617479577185122
 51
306.7405940446105888
  0
ARC
  5
A1F4
  8
0
 10
2798.4387974631808902
 20
162.3439467044713922
 30
0.0
 40
0.0076053093648774
 50
232.1286713757918108
 51
261.8713256027376133
  0
ARC
  5
A1F5
  8
0
 10
2798.5070209956998042
 20
162.3503146440619958
 30
0.0
 40
0.0152495521412858
 50
211.7361704899047936
 51
234.2202070367264071
  0
ARC
  5
A1F6
  8
0
 10
2798.4989382564090192
 20
162.345520667434414
 30
0.0
 40
0.005856274967565
 50
185.6348280871067971
 51
213.4428226156497885
  0
ARC
  5
A1F7
  8
0
 10
2798.489123496683078
 20
162.3503611763059951
 30
0.0
 40
0.0153256432167427
 50
305.8768603251460831
 51
326.9397134905366897
  0
ARC
  5
A1F8
  8
0
 10
2798.4966779174951625
 20
162.3457238797296043
 30
0.0
 40
0.0064688171704399
 50
324.8614228425238935
 51
353.0903279933770023
  0
ARC
  5
A1F9
  8
0
 10
2798.4944514123139925
 20
162.3399825768555047
 30
0.0
 40
0.0035652785678729
 50
270.966583717253684
 51
288.4664995181327072
  0
ARC
  5
A1FA
  8
0
 10
2798.4924771007918025
 20
162.3454824123315916
 30
0.0
 40
0.0094081917505271
 50
289.2617479577185122
 51
306.7405940446105888
  0
ARC
  5
A1FB
  8
0
 10
2798.5027732017088056
 20
162.3439451982769981
 30
0.0
 40
0.0076037278956354
 50
232.1255071575403122
 51
261.8744909679488728
  0
ARC
  5
A1FC
  8
0
 10
2798.5070209956998042
 20
162.3149140633620107
 30
0.0
 40
0.0152495521412858
 50
211.7361704899047936
 51
234.2202070367264071
  0
ARC
  5
A1FD
  8
0
 10
2798.4989382564090192
 20
162.3101200867344005
 30
0.0
 40
0.005856274967565
 50
185.6348280871067971
 51
213.4428226156497885
  0
ARC
  5
A1FE
  8
0
 10
2798.489123496683078
 20
162.31496059560601
 30
0.0
 40
0.0153256432167427
 50
305.8768603251460831
 51
326.9397134905366897
  0
ARC
  5
A1FF
  8
0
 10
2798.4966779174951625
 20
162.3103232990295908
 30
0.0
 40
0.0064688171704399
 50
324.8614228425238935
 51
353.0903279933770023
  0
ARC
  5
A200
  8
0
 10
2798.4944514123139925
 20
162.3045819961554912
 30
0.0
 40
0.0035652785678729
 50
270.966583717253684
 51
288.4664995181327072
  0
ARC
  5
A201
  8
0
 10
2798.4924771007918025
 20
162.3100818316316065
 30
0.0
 40
0.0094081917505271
 50
289.2617479577185122
 51
306.7405940446105888
  0
ARC
  5
A202
  8
0
 10
2798.5027592482588261
 20
162.308521285785389
 30
0.0
 40
0.0075767449992355
 50
232.1004773769433029
 51
261.9581634425654784
  0
ARC
  5
A203
  8
0
 10
2798.5070209956998042
 20
162.2795134825620096
 30
0.0
 40
0.0152495521412858
 50
211.7361704899047936
 51
234.2202070367264071
  0
ARC
  5
A204
  8
0
 10
2798.4989382564090192
 20
162.2747195059343994
 30
0.0
 40
0.005856274967565
 50
185.6348280871067971
 51
213.4428226156497885
  0
ARC
  5
A205
  8
0
 10
2798.489123496683078
 20
162.2795600148060089
 30
0.0
 40
0.0153256432167427
 50
305.8768603251460831
 51
326.9397134905366897
  0
ARC
  5
A206
  8
0
 10
2798.4966779174951625
 20
162.2749227182295897
 30
0.0
 40
0.0064688171704399
 50
324.8614228425238935
 51
353.0903279933770023
  0
ARC
  5
A207
  8
0
 10
2798.4944514123139925
 20
162.2691814153554901
 30
0.0
 40
0.0035652785678729
 50
270.966583717253684
 51
288.4664995181327072
  0
ARC
  5
A208
  8
0
 10
2798.4924771007918025
 20
162.2746812508316054
 30
0.0
 40
0.0094081917505271
 50
289.2617479577185122
 51
306.7405940446105888
  0
ARC
  5
A209
  8
0
 10
2798.5027592482588261
 20
162.2731207049853879
 30
0.0
 40
0.0075767449992355
 50
232.1004773769433029
 51
261.9581634425654784
  0
ARC
  5
A20A
  8
0
 10
2798.5709973736998109
 20
162.3503146440619958
 30
0.0
 40
0.0152495521412858
 50
211.7361704899047936
 51
234.2202070367264071
  0
ARC
  5
A20B
  8
0
 10
2798.5629146344090259
 20
162.345520667434414
 30
0.0
 40
0.005856274967565
 50
185.6348280871067971
 51
213.4428226156497885
  0
ARC
  5
A20C
  8
0
 10
2798.5530998746830846
 20
162.3503611763059951
 30
0.0
 40
0.0153256432167427
 50
305.8768603251460831
 51
326.9397134905366897
  0
ARC
  5
A20D
  8
0
 10
2798.560654295493805
 20
162.3457238797296043
 30
0.0
 40
0.006468817170448
 50
324.8614228425536226
 51
353.0903279933608019
  0
ARC
  5
A20E
  8
0
 10
2798.5584277903139991
 20
162.3399825768555047
 30
0.0
 40
0.0035652785678729
 50
270.966583717253684
 51
288.4664995181327072
  0
ARC
  5
A20F
  8
0
 10
2798.5564534787918092
 20
162.3454824123315916
 30
0.0
 40
0.0094081917505271
 50
289.2617479577185122
 51
306.7405940446105888
  0
ARC
  5
A210
  8
0
 10
2798.5667356262588328
 20
162.3439218664854025
 30
0.0
 40
0.0075767449992355
 50
232.1004773769433029
 51
261.9581634425654784
  0
ARC
  5
A211
  8
0
 10
2798.5709973736998109
 20
162.3149140633620107
 30
0.0
 40
0.0152495521412858
 50
211.7361704899047936
 51
234.2202070367264071
  0
ARC
  5
A212
  8
0
 10
2798.5629146344090259
 20
162.3101200867344005
 30
0.0
 40
0.005856274967565
 50
185.6348280871067971
 51
213.4428226156497885
  0
ARC
  5
A213
  8
0
 10
2798.5530998746830846
 20
162.31496059560601
 30
0.0
 40
0.0153256432167427
 50
305.8768603251460831
 51
326.9397134905366897
  0
ARC
  5
A214
  8
0
 10
2798.560654295493805
 20
162.3103232990295908
 30
0.0
 40
0.0064688171704399
 50
324.8614228425238935
 51
353.0903279933770023
  0
ARC
  5
A215
  8
0
 10
2798.5584277903139991
 20
162.3045819961554912
 30
0.0
 40
0.0035652785678729
 50
270.966583717253684
 51
288.4664995181327072
  0
ARC
  5
A216
  8
0
 10
2798.5564534787918092
 20
162.3100818316316065
 30
0.0
 40
0.0094081917505271
 50
289.2617479577185122
 51
306.7405940446105888
  0
ARC
  5
A217
  8
0
 10
2798.5667356262588328
 20
162.308521285785389
 30
0.0
 40
0.0075767449992355
 50
232.1004773769433029
 51
261.9581634425654784
  0
ARC
  5
A218
  8
0
 10
2798.5709973736998109
 20
162.2795134825620096
 30
0.0
 40
0.0152495521412858
 50
211.7361704899047936
 51
234.2202070367264071
  0
ARC
  5
A219
  8
0
 10
2798.5629146344090259
 20
162.2747195059343994
 30
0.0
 40
0.005856274967565
 50
185.6348280871067971
 51
213.4428226156497885
  0
ARC
  5
A21A
  8
0
 10
2798.5530998746830846
 20
162.2795600148060089
 30
0.0
 40
0.0153256432167427
 50
305.8768603251460831
 51
326.9397134905366897
  0
ARC
  5
A21B
  8
0
 10
2798.560654295493805
 20
162.2749227182295897
 30
0.0
 40
0.0064688171704399
 50
324.8614228425238935
 51
353.0903279933770023
  0
ARC
  5
A21C
  8
0
 10
2798.5584277903139991
 20
162.2691814153554901
 30
0.0
 40
0.0035652785678729
 50
270.966583717253684
 51
288.4664995181327072
  0
ARC
  5
A21D
  8
0
 10
2798.5564534787918092
 20
162.2746812508316054
 30
0.0
 40
0.0094081917505271
 50
289.2617479577185122
 51
306.7405940446105888
  0
ARC
  5
A21E
  8
0
 10
2798.5667356262588328
 20
162.2731207049853879
 30
0.0
 40
0.0075767449992355
 50
232.1004773769433029
 51
261.9581634425654784
  0
ARC
  5
A21F
  8
0
 10
2798.6349737515997731
 20
162.3503146440619958
 30
0.0
 40
0.0152495521412858
 50
211.7361704899047936
 51
234.2202070367264071
  0
ARC
  5
A220
  8
0
 10
2798.6268910123089881
 20
162.345520667434414
 30
0.0
 40
0.005856274967565
 50
185.6348280871052054
 51
213.4428226156497885
  0
ARC
  5
A221
  8
0
 10
2798.6170762525830469
 20
162.3503611763059951
 30
0.0
 40
0.0153256432167427
 50
305.8768603251460831
 51
326.9397134905366897
  0
ARC
  5
A222
  8
0
 10
2798.6246306733951315
 20
162.3457238797296043
 30
0.0
 40
0.0064688171704399
 50
324.8614228425238935
 51
353.0903279933770023
  0
ARC
  5
A223
  8
0
 10
2798.6224041682139614
 20
162.3399825768555047
 30
0.0
 40
0.0035652785678729
 50
270.966583717253684
 51
288.4664995181327072
  0
ARC
  5
A224
  8
0
 10
2798.6204298566922262
 20
162.3454824123315916
 30
0.0
 40
0.0094081917505271
 50
289.2617479577185122
 51
306.7405940446105888
  0
ARC
  5
A225
  8
0
 10
2798.630712004158795
 20
162.3439218664854025
 30
0.0
 40
0.0075767449992355
 50
232.1004773769433029
 51
261.9581634425654784
  0
ARC
  5
A226
  8
0
 10
2798.6349737515997731
 20
162.3149140633620107
 30
0.0
 40
0.0152495521412858
 50
211.7361704899047936
 51
234.2202070367264071
  0
ARC
  5
A227
  8
0
 10
2798.6268910123089881
 20
162.3101200867344005
 30
0.0
 40
0.005856274967565
 50
185.6348280871052054
 51
213.4428226156497885
  0
ARC
  5
A228
  8
0
 10
2798.6170762525830469
 20
162.31496059560601
 30
0.0
 40
0.0153256432167427
 50
305.8768603251460831
 51
326.9397134905366897
  0
ARC
  5
A229
  8
0
 10
2798.6246306733951315
 20
162.3103232990295908
 30
0.0
 40
0.0064688171704399
 50
324.8614228425238935
 51
353.0903279933770023
  0
ARC
  5
A22A
  8
0
 10
2798.6224041682139614
 20
162.3045819961554912
 30
0.0
 40
0.0035652785678729
 50
270.966583717253684
 51
288.4664995181327072
  0
ARC
  5
A22B
  8
0
 10
2798.6204298566922262
 20
162.3100818316316065
 30
0.0
 40
0.0094081917505271
 50
289.2617479577185122
 51
306.7405940446105888
  0
ARC
  5
A22C
  8
0
 10
2798.630712004158795
 20
162.308521285785389
 30
0.0
 40
0.0075767449992355
 50
232.1004773769433029
 51
261.9581634425654784
  0
ARC
  5
A22D
  8
0
 10
2798.6349737515997731
 20
162.2795134825620096
 30
0.0
 40
0.0152495521412858
 50
211.7361704899047936
 51
234.2202070367264071
  0
ARC
  5
A22E
  8
0
 10
2798.6268910123089881
 20
162.2747195059343994
 30
0.0
 40
0.005856274967565
 50
185.6348280871052054
 51
213.4428226156497885
  0
ARC
  5
A22F
  8
0
 10
2798.6170762525830469
 20
162.2795600148060089
 30
0.0
 40
0.0153256432167427
 50
305.8768603251460831
 51
326.9397134905366897
  0
ARC
  5
A230
  8
0
 10
2798.6246306733951315
 20
162.2749227182295897
 30
0.0
 40
0.0064688171704399
 50
324.8614228425238935
 51
353.0903279933770023
  0
ARC
  5
A231
  8
0
 10
2798.6224041682139614
 20
162.2691814153554901
 30
0.0
 40
0.0035652785678729
 50
270.966583717253684
 51
288.4664995181327072
  0
ARC
  5
A232
  8
0
 10
2798.6204298566922262
 20
162.2746812508316054
 30
0.0
 40
0.0094081917505271
 50
289.2617479577185122
 51
306.7405940446105888
  0
ARC
  5
A233
  8
0
 10
2798.6307257939179181
 20
162.2731436516403107
 30
0.0
 40
0.0076033233908187
 50
232.1246990498740104
 51
261.8753017771991267
  0
ARC
  5
A234
  8
0
 10
2798.6989501295997798
 20
162.3503146440619958
 30
0.0
 40
0.0152495521412858
 50
211.7361704899047936
 51
234.2202070367264071
  0
ARC
  5
A235
  8
0
 10
2798.6908673903089948
 20
162.345520667434414
 30
0.0
 40
0.005856274967565
 50
185.6348280871052054
 51
213.4428226156497885
  0
ARC
  5
A236
  8
0
 10
2798.6810526305830535
 20
162.3503611763059951
 30
0.0
 40
0.0153256432167427
 50
305.8768603251460831
 51
326.9397134905366897
  0
ARC
  5
A237
  8
0
 10
2798.6886070513951381
 20
162.3457238797296043
 30
0.0
 40
0.0064688171704399
 50
324.8614228425238935
 51
353.0903279933770023
  0
ARC
  5
A238
  8
0
 10
2798.686380546213968
 20
162.3399825768555047
 30
0.0
 40
0.0035652785678729
 50
270.966583717253684
 51
288.4664995181327072
  0
ARC
  5
A239
  8
0
 10
2798.6844062346917781
 20
162.3454824123315916
 30
0.0
 40
0.0094081917505271
 50
289.2617479577185122
 51
306.7405940446105888
  0
ARC
  5
A23A
  8
0
 10
2798.6947023156581054
 20
162.3439451512059009
 30
0.0
 40
0.0076036784913151
 50
232.125408065402695
 51
261.8745889127374085
  0
ARC
  5
A23B
  8
0
 10
2798.6989501295997798
 20
162.3149140633620107
 30
0.0
 40
0.0152495521412858
 50
211.7361704899047936
 51
234.2202070367264071
  0
ARC
  5
A23C
  8
0
 10
2798.6908673903089948
 20
162.3101200867344005
 30
0.0
 40
0.005856274967565
 50
185.6348280871052054
 51
213.4428226156497885
  0
ARC
  5
A23D
  8
0
 10
2798.6810526305830535
 20
162.31496059560601
 30
0.0
 40
0.0153256432167427
 50
305.8768603251460831
 51
326.9397134905366897
  0
ARC
  5
A23E
  8
0
 10
2798.6886070513951381
 20
162.3103232990295908
 30
0.0
 40
0.0064688171704399
 50
324.8614228425238935
 51
353.0903279933770023
  0
ARC
  5
A23F
  8
0
 10
2798.686380546213968
 20
162.3045819961554912
 30
0.0
 40
0.0035652785678729
 50
270.966583717253684
 51
288.4664995181327072
  0
ARC
  5
A240
  8
0
 10
2798.6844062346917781
 20
162.3100818316316065
 30
0.0
 40
0.0094081917505271
 50
289.2617479577185122
 51
306.7405940446105888
  0
ARC
  5
A241
  8
0
 10
2798.6947022373560685
 20
162.3085443860356065
 30
0.0
 40
0.007603484805747
 50
232.1250204123548997
 51
261.8749765657877902
  0
ARC
  5
A242
  8
0
 10
2798.6989501295997798
 20
162.2795134825620096
 30
0.0
 40
0.0152495521412858
 50
211.7361704899047936
 51
234.2202070367264071
  0
ARC
  5
A243
  8
0
 10
2798.6908673903089948
 20
162.2747195059343994
 30
0.0
 40
0.005856274967565
 50
185.6348280871052054
 51
213.4428226156497885
  0
ARC
  5
A244
  8
0
 10
2798.6810526305830535
 20
162.2795600148060089
 30
0.0
 40
0.0153256432167427
 50
305.8768603251460831
 51
326.9397134905366897
  0
ARC
  5
A245
  8
0
 10
2798.6886070513951381
 20
162.2749227182295897
 30
0.0
 40
0.0064688171704399
 50
324.8614228425238935
 51
353.0903279933770023
  0
ARC
  5
A246
  8
0
 10
2798.686380546213968
 20
162.2691814153554901
 30
0.0
 40
0.0035652785678729
 50
270.966583717253684
 51
288.4664995181327072
  0
ARC
  5
A247
  8
0
 10
2798.6844062346917781
 20
162.2746812508316054
 30
0.0
 40
0.0094081917505271
 50
289.2617479577185122
 51
306.7405940446105888
  0
ARC
  5
A248
  8
0
 10
2798.6947022759259198
 20
162.2731438965973894
 30
0.0
 40
0.007603580602889
 50
232.1252136519493945
 51
261.8747860281964108
  0
ARC
  5
A249
  8
0
 10
2798.7629265075001967
 20
162.3503146440619958
 30
0.0
 40
0.0152495521412858
 50
211.7361704899047936
 51
234.2202070367264071
  0
ARC
  5
A24A
  8
0
 10
2798.754843768208957
 20
162.345520667434414
 30
0.0
 40
0.005856274967565
 50
185.6348280871052054
 51
213.4428226156497885
  0
ARC
  5
A24B
  8
0
 10
2798.7450290084830158
 20
162.3503611763059951
 30
0.0
 40
0.0153256432167427
 50
305.8768603251460831
 51
326.9397134905366897
  0
ARC
  5
A24C
  8
0
 10
2798.7525834292951004
 20
162.3457238797296043
 30
0.0
 40
0.0064688171704399
 50
324.8614228425238935
 51
353.0903279933770023
  0
ARC
  5
A24D
  8
0
 10
2798.7503569241139303
 20
162.3399825768555047
 30
0.0
 40
0.0035652785678729
 50
270.966583717253684
 51
288.4664995181327072
  0
ARC
  5
A24E
  8
0
 10
2798.7483826125921951
 20
162.3454824123315916
 30
0.0
 40
0.0094081917505271
 50
289.2617479577185122
 51
306.7405940446105888
  0
ARC
  5
A24F
  8
0
 10
2798.7586647600592187
 20
162.3439218664854025
 30
0.0
 40
0.0075767449992355
 50
232.1004773769433029
 51
261.9581634425654784
  0
ARC
  5
A250
  8
0
 10
2798.7629265075001967
 20
162.3149140633620107
 30
0.0
 40
0.0152495521412858
 50
211.7361704899047936
 51
234.2202070367264071
  0
ARC
  5
A251
  8
0
 10
2798.754843768208957
 20
162.3101200867344005
 30
0.0
 40
0.005856274967565
 50
185.6348280871052054
 51
213.4428226156497885
  0
ARC
  5
A252
  8
0
 10
2798.7450290084830158
 20
162.31496059560601
 30
0.0
 40
0.0153256432167427
 50
305.8768603251460831
 51
326.9397134905366897
  0
ARC
  5
A253
  8
0
 10
2798.7525834292951004
 20
162.3103232990295908
 30
0.0
 40
0.0064688171704399
 50
324.8614228425238935
 51
353.0903279933770023
  0
ARC
  5
A254
  8
0
 10
2798.7503569241139303
 20
162.3045819961554912
 30
0.0
 40
0.0035652785678729
 50
270.966583717253684
 51
288.4664995181327072
  0
ARC
  5
A255
  8
0
 10
2798.7483826125921951
 20
162.3100818316316065
 30
0.0
 40
0.0094081917505271
 50
289.2617479577185122
 51
306.7405940446105888
  0
ARC
  5
A256
  8
0
 10
2798.7586647600592187
 20
162.308521285785389
 30
0.0
 40
0.0075767449992355
 50
232.1004773769433029
 51
261.9581634425654784
  0
ARC
  5
A257
  8
0
 10
2798.7629265075001967
 20
162.2795134825620096
 30
0.0
 40
0.0152495521412858
 50
211.7361704899047936
 51
234.2202070367264071
  0
ARC
  5
A258
  8
0
 10
2798.754843768208957
 20
162.2747195059343994
 30
0.0
 40
0.005856274967565
 50
185.6348280871052054
 51
213.4428226156497885
  0
ARC
  5
A259
  8
0
 10
2798.7450290084830158
 20
162.2795600148060089
 30
0.0
 40
0.0153256432167427
 50
305.8768603251460831
 51
326.9397134905366897
  0
ARC
  5
A25A
  8
0
 10
2798.7525834292951004
 20
162.2749227182295897
 30
0.0
 40
0.0064688171704399
 50
324.8614228425238935
 51
353.0903279933770023
  0
ARC
  5
A25B
  8
0
 10
2798.7503569241139303
 20
162.2691814153554901
 30
0.0
 40
0.0035652785678729
 50
270.966583717253684
 51
288.4664995181327072
  0
ARC
  5
A25C
  8
0
 10
2798.7483826125921951
 20
162.2746812508316054
 30
0.0
 40
0.0094081917505271
 50
289.2617479577185122
 51
306.7405940446105888
  0
ARC
  5
A25D
  8
0
 10
2798.7586784568679832
 20
162.2731434326624935
 30
0.0
 40
0.0076030934746438
 50
232.1242388361123972
 51
261.8757619909620189
  0
ARC
  5
A25E
  8
0
 10
2798.8269028855002034
 20
162.3503146440621094
 30
0.0
 40
0.0152495521412858
 50
211.7361704899047936
 51
234.2202070367264071
  0
ARC
  5
A25F
  8
0
 10
2798.8188201462089637
 20
162.345520667434414
 30
0.0
 40
0.005856274967565
 50
185.6348280871052054
 51
213.4428226156497885
  0
ARC
  5
A260
  8
0
 10
2798.8090053864830224
 20
162.3503611763059951
 30
0.0
 40
0.0153256432167427
 50
305.8768603251460831
 51
326.9397134905366897
  0
ARC
  5
A261
  8
0
 10
2798.816559807295107
 20
162.3457238797296043
 30
0.0
 40
0.0064688171704399
 50
324.8614228425238935
 51
353.0903279933770023
  0
ARC
  5
A262
  8
0
 10
2798.814333302113937
 20
162.3399825768555047
 30
0.0
 40
0.0035652785678729
 50
270.966583717253684
 51
288.4664995181327072
  0
ARC
  5
A263
  8
0
 10
2798.8123589905922017
 20
162.3454824123315916
 30
0.0
 40
0.0094081917505271
 50
289.2617479577185122
 51
306.7405940446105888
  0
ARC
  5
A264
  8
0
 10
2798.8226411380592253
 20
162.3439218664854025
 30
0.0
 40
0.0075767449992355
 50
232.1004773769433029
 51
261.9581634425654784
  0
ARC
  5
A265
  8
0
 10
2798.8269028855002034
 20
162.3149140633620107
 30
0.0
 40
0.0152495521412858
 50
211.7361704899047936
 51
234.2202070367264071
  0
ARC
  5
A266
  8
0
 10
2798.8188201462089637
 20
162.3101200867344005
 30
0.0
 40
0.005856274967565
 50
185.6348280871052054
 51
213.4428226156497885
  0
ARC
  5
A267
  8
0
 10
2798.8090053864830224
 20
162.31496059560601
 30
0.0
 40
0.0153256432167427
 50
305.8768603251460831
 51
326.9397134905366897
  0
ARC
  5
A268
  8
0
 10
2798.816559807295107
 20
162.3103232990295908
 30
0.0
 40
0.0064688171704399
 50
324.8614228425238935
 51
353.0903279933770023
  0
ARC
  5
A269
  8
0
 10
2798.814333302113937
 20
162.3045819961554912
 30
0.0
 40
0.0035652785678729
 50
270.966583717253684
 51
288.4664995181327072
  0
ARC
  5
A26A
  8
0
 10
2798.8123589905922017
 20
162.3100818316316065
 30
0.0
 40
0.0094081917505271
 50
289.2617479577185122
 51
306.7405940446105888
  0
ARC
  5
A26B
  8
0
 10
2798.8226411380592253
 20
162.308521285785389
 30
0.0
 40
0.0075767449992355
 50
232.1004773769433029
 51
261.9581634425654784
  0
ARC
  5
A26C
  8
0
 10
2798.8269028855002034
 20
162.2795134825620096
 30
0.0
 40
0.0152495521412858
 50
211.7361704899047936
 51
234.2202070367264071
  0
ARC
  5
A26D
  8
0
 10
2798.8188201462089637
 20
162.2747195059343994
 30
0.0
 40
0.005856274967565
 50
185.6348280871052054
 51
213.4428226156497885
  0
ARC
  5
A26E
  8
0
 10
2798.8090053864830224
 20
162.2795600148060089
 30
0.0
 40
0.0153256432167427
 50
305.8768603251460831
 51
326.9397134905366897
  0
ARC
  5
A26F
  8
0
 10
2798.816559807295107
 20
162.2749227182295897
 30
0.0
 40
0.0064688171704399
 50
324.8614228425238935
 51
353.0903279933770023
  0
ARC
  5
A270
  8
0
 10
2798.814333302113937
 20
162.2691814153554901
 30
0.0
 40
0.0035652785678729
 50
270.966583717253684
 51
288.4664995181327072
  0
ARC
  5
A271
  8
0
 10
2798.8123589905922017
 20
162.2746812508316054
 30
0.0
 40
0.0094081917505271
 50
289.2617479577185122
 51
306.7405940446105888
  0
ARC
  5
A272
  8
0
 10
2798.8226411380592253
 20
162.2731207049853879
 30
0.0
 40
0.0075767449992355
 50
232.1004773769433029
 51
261.9581634425654784
  0
ARC
  5
A273
  8
0
 10
2798.8908792634001657
 20
162.3503146440621094
 30
0.0
 40
0.0152495521412858
 50
211.7361704899047936
 51
234.2202070367264071
  0
ARC
  5
A274
  8
0
 10
2798.882796524108926
 20
162.345520667434414
 30
0.0
 40
0.005856274967565
 50
185.6348280871052054
 51
213.4428226156497885
  0
ARC
  5
A275
  8
0
 10
2798.8729817643829847
 20
162.3503611763059951
 30
0.0
 40
0.0153256432167427
 50
305.8768603251460831
 51
326.9397134905366897
  0
ARC
  5
A276
  8
0
 10
2798.8805361851941598
 20
162.3457238797296043
 30
0.0
 40
0.0064688171704399
 50
324.8614228425238935
 51
353.0903279933770023
  0
ARC
  5
A277
  8
0
 10
2798.8783096800138992
 20
162.3399825768555047
 30
0.0
 40
0.0035652785678729
 50
270.966583717253684
 51
288.4664995181327072
  0
ARC
  5
A278
  8
0
 10
2798.876335368492164
 20
162.3454824123315916
 30
0.0
 40
0.0094081917505271
 50
289.2617479577185122
 51
306.7405940446105888
  0
ARC
  5
A279
  8
0
 10
2798.8866321086720745
 20
162.3439467042881859
 30
0.0
 40
0.007605309154067
 50
232.1286711685073101
 51
261.8713269564825055
  0
ARC
  5
A27A
  8
0
 10
2798.8908792634001657
 20
162.3149140633620107
 30
0.0
 40
0.0152495521412858
 50
211.7361704899047936
 51
234.2202070367264071
  0
ARC
  5
A27B
  8
0
 10
2798.882796524108926
 20
162.3101200867344005
 30
0.0
 40
0.005856274967565
 50
185.6348280871052054
 51
213.4428226156497885
  0
ARC
  5
A27C
  8
0
 10
2798.8729817643829847
 20
162.31496059560601
 30
0.0
 40
0.0153256432167427
 50
305.8768603251460831
 51
326.9397134905366897
  0
ARC
  5
A27D
  8
0
 10
2798.8805361851941598
 20
162.3103232990295908
 30
0.0
 40
0.0064688171704399
 50
324.8614228425238935
 51
353.0903279933770023
  0
ARC
  5
A27E
  8
0
 10
2798.8783096800138992
 20
162.3045819961554912
 30
0.0
 40
0.0035652785678729
 50
270.966583717253684
 51
288.4664995181327072
  0
ARC
  5
A27F
  8
0
 10
2798.876335368492164
 20
162.3100818316316065
 30
0.0
 40
0.0094081917505271
 50
289.2617479577185122
 51
306.7405940446105888
  0
ARC
  5
A280
  8
0
 10
2798.8866321086720745
 20
162.3085461235882008
 30
0.0
 40
0.0076053091540533
 50
232.1286711684797979
 51
261.8713269565089945
  0
ARC
  5
A281
  8
0
 10
2798.8908792634001657
 20
162.2795134825620096
 30
0.0
 40
0.0152495521412858
 50
211.7361704899047936
 51
234.2202070367264071
  0
ARC
  5
A282
  8
0
 10
2798.882796524108926
 20
162.2747195059343994
 30
0.0
 40
0.005856274967565
 50
185.6348280871052054
 51
213.4428226156497885
  0
ARC
  5
A283
  8
0
 10
2798.8729817643829847
 20
162.2795600148060089
 30
0.0
 40
0.0153256432167427
 50
305.8768603251460831
 51
326.9397134905366897
  0
ARC
  5
A284
  8
0
 10
2798.8805361851941598
 20
162.2749227182295897
 30
0.0
 40
0.0064688171704399
 50
324.8614228425238935
 51
353.0903279933770023
  0
ARC
  5
A285
  8
0
 10
2798.8783096800138992
 20
162.2691814153554901
 30
0.0
 40
0.0035652785678729
 50
270.966583717253684
 51
288.4664995181327072
  0
ARC
  5
A286
  8
0
 10
2798.876335368492164
 20
162.2746812508316054
 30
0.0
 40
0.0094081917505271
 50
289.2617479577185122
 51
306.7405940446105888
  0
ARC
  5
A287
  8
0
 10
2798.8866321079171939
 20
162.2731455415031974
 30
0.0
 40
0.0076053076762239
 50
232.1286697153589103
 51
261.8713311116529212
  0
ARC
  5
A288
  8
0
 10
2798.8841626262760656
 20
162.239552538013811
 30
0.0
 40
0.0027990628629548
 50
318.4896678187531052
 51
357.2824689786767749
  0
ARC
  5
A289
  8
0
 10
2798.8828115804749359
 20
162.2407632803111994
 30
0.0
 40
0.0046132142010402
 50
290.1526576576085859
 51
318.350127426614506
  0
ARC
  5
A28A
  8
0
 10
2798.8819544301068163
 20
162.2429669190044024
 30
0.0
 40
0.0069773976167231
 50
259.0575835164285081
 51
290.5260473465492055
  0
ARC
  5
A28B
  8
0
 10
2798.8814850103958634
 20
162.2413436211764974
 30
0.0
 40
0.0052967104367526
 50
227.6320533223534142
 51
260.7101174931781884
  0
ARC
  5
A28C
  8
0
 10
2798.8798536366771259
 20
162.2395737189644933
 30
0.0
 40
0.0028897116141665
 50
183.0527062333424055
 51
227.8817603081674008
  0
ARC
  5
A28D
  8
0
 10
2798.8201862483761033
 20
162.239552538013811
 30
0.0
 40
0.0027990628629548
 50
318.4896678187531052
 51
357.2824689786767749
  0
ARC
  5
A28E
  8
0
 10
2798.8188352025749737
 20
162.2407632803111994
 30
0.0
 40
0.0046132142010402
 50
290.1526576576085859
 51
318.350127426614506
  0
ARC
  5
A28F
  8
0
 10
2798.817978052206854
 20
162.2429669190044024
 30
0.0
 40
0.0069773976167231
 50
259.0575835164285081
 51
290.5260473465492055
  0
ARC
  5
A290
  8
0
 10
2798.8175086324968106
 20
162.2413436211764974
 30
0.0
 40
0.0052967104367526
 50
227.6320533223534142
 51
260.7101174931781884
  0
ARC
  5
A291
  8
0
 10
2798.8158772587771637
 20
162.2395737189644933
 30
0.0
 40
0.0028897116141665
 50
183.0527062333424055
 51
227.8817603081674008
  0
ARC
  5
A292
  8
0
 10
2798.7562098703760967
 20
162.239552538013811
 30
0.0
 40
0.0027990628629548
 50
318.4896678187531052
 51
357.2824689786767749
  0
ARC
  5
A293
  8
0
 10
2798.754858824574967
 20
162.2407632803111994
 30
0.0
 40
0.0046132142010402
 50
290.1526576576085859
 51
318.350127426614506
  0
ARC
  5
A294
  8
0
 10
2798.7540016742068474
 20
162.2429669190044024
 30
0.0
 40
0.0069773976167231
 50
259.0575835164285081
 51
290.5260473465492055
  0
ARC
  5
A295
  8
0
 10
2798.7535322544958944
 20
162.2413436211764974
 30
0.0
 40
0.0052967104367526
 50
227.6320533223534142
 51
260.7101174931781884
  0
ARC
  5
A296
  8
0
 10
2798.751900880777157
 20
162.2395737189644933
 30
0.0
 40
0.0028897116141665
 50
183.0527062333424055
 51
227.8817603081674008
  0
ARC
  5
A297
  8
0
 10
2798.6922334924761344
 20
162.239552538013811
 30
0.0
 40
0.0027990628629548
 50
318.4896678187531052
 51
357.2824689786767749
  0
ARC
  5
A298
  8
0
 10
2798.6908824466750048
 20
162.2407632803111994
 30
0.0
 40
0.0046132142010402
 50
290.1526576576085859
 51
318.350127426614506
  0
ARC
  5
A299
  8
0
 10
2798.6900252963068851
 20
162.2429669190044024
 30
0.0
 40
0.0069773976167231
 50
259.0575835164285081
 51
290.5260473465492055
  0
ARC
  5
A29A
  8
0
 10
2798.6895558765968417
 20
162.2413436211764974
 30
0.0
 40
0.0052967104367526
 50
227.6320533223534142
 51
260.7101174931781884
  0
ARC
  5
A29B
  8
0
 10
2798.6879245028771948
 20
162.2395737189644933
 30
0.0
 40
0.0028897116141665
 50
183.0527062333424055
 51
227.8817603081674008
  0
ARC
  5
A29C
  8
0
 10
2798.6282571144761278
 20
162.239552538013811
 30
0.0
 40
0.0027990628629548
 50
318.4896678187531052
 51
357.2824689786767749
  0
ARC
  5
A29D
  8
0
 10
2798.6269060686749981
 20
162.2407632803111994
 30
0.0
 40
0.0046132142010402
 50
290.1526576576085859
 51
318.350127426614506
  0
ARC
  5
A29E
  8
0
 10
2798.6260489183068785
 20
162.2429669190044024
 30
0.0
 40
0.0069773976167231
 50
259.0575835164285081
 51
290.5260473465492055
  0
ARC
  5
A29F
  8
0
 10
2798.625579498596835
 20
162.2413436211764974
 30
0.0
 40
0.0052967104367526
 50
227.6320533223534142
 51
260.7101174931781884
  0
ARC
  5
A2A0
  8
0
 10
2798.6239481248771881
 20
162.2395737189644933
 30
0.0
 40
0.0028897116141665
 50
183.0527062333424055
 51
227.8817603081674008
  0
ARC
  5
A2A1
  8
0
 10
2798.5642807365761655
 20
162.239552538013811
 30
0.0
 40
0.0027990628629548
 50
318.4896678187531052
 51
357.2824689786767749
  0
ARC
  5
A2A2
  8
0
 10
2798.5629296907750359
 20
162.2407632803111994
 30
0.0
 40
0.0046132142010402
 50
290.1526576576085859
 51
318.350127426614506
  0
ARC
  5
A2A3
  8
0
 10
2798.5620725404069162
 20
162.2429669190044024
 30
0.0
 40
0.0069773976167231
 50
259.0575835164285081
 51
290.5260473465492055
  0
ARC
  5
A2A4
  8
0
 10
2798.5616031206968728
 20
162.2413436211764974
 30
0.0
 40
0.0052967104367526
 50
227.6320533223534142
 51
260.7101174931781884
  0
ARC
  5
A2A5
  8
0
 10
2798.5599717469772258
 20
162.2395737189644933
 30
0.0
 40
0.0028897116141665
 50
183.0527062333424055
 51
227.8817603081674008
  0
ARC
  5
A2A6
  8
0
 10
2798.5067838448430848
 20
162.2439144694895958
 30
0.0
 40
0.0149422688660855
 50
211.1704279759213989
 51
227.9021822838728895
  0
ARC
  5
A2A7
  8
0
 10
2798.4990215430539138
 20
162.2393571821461933
 30
0.0
 40
0.0059429906142096
 50
185.9230374991022927
 51
212.310982104069808
  0
ARC
  5
A2A8
  8
0
 10
2798.4943335338762154
 20
162.2345137505058972
 30
0.0
 40
0.0043013725955084
 50
272.371993514966789
 51
292.262700311572587
  0
ARC
  5
A2A9
  8
0
 10
2798.4920225792388919
 20
162.2400202322432961
 30
0.0
 40
0.0102730303868084
 50
292.5557149115916786
 51
306.3046170494394005
  0
ARC
  5
A2AA
  8
0
 10
2798.4895478525909311
 20
162.2438279963602952
 30
0.0
 40
0.0147899844456389
 50
311.9281397433589973
 51
326.8553345924162272
  0
ARC
  5
A2AB
  8
0
 10
2798.4932909562839995
 20
162.2412753515301063
 30
0.0
 40
0.0102606412890358
 50
327.3620974639774772
 51
337.5823574347081717
  0
ARC
  5
A2AC
  8
0
 10
2798.4984496769980069
 20
162.2391043679033942
 30
0.0
 40
0.0046640247473475
 50
338.069022159933013
 51
355.5674936534657036
  0
ARC
  5
A2AD
  8
0
 10
2798.503845197497867
 20
162.2395097329838052
 30
0.0
 40
0.0096590235745235
 50
233.5385511037532069
 51
248.4375674997677095
  0
ARC
  5
A2AE
  8
0
 10
2798.5019588717309489
 20
162.2347168169372935
 30
0.0
 40
0.0045082799824923
 50
248.3466788588362988
 51
266.6887805498091097
  0
ARC
  5
A2AF
  8
0
 10
2798.502444963311973
 20
162.231272609421012
 30
0.0
 40
0.0010567051438586
 50
270.9943761102205144
 51
287.425324223524683
  0
ARC
  5
A2B0
  8
0
 10
2798.5019796590840997
 20
162.2325120015887876
 30
0.0
 40
0.0023796741781214
 50
289.1783904647228951
 51
309.2610493209865012
  0
ARC
  5
A2B1
  8
0
 10
2798.498015263860907
 20
162.2371126497027092
 30
0.0
 40
0.0084521832007086
 50
310.3319822773236751
 51
327.9077488883935985
  0
ARC
  5
A2B2
  8
0
 10
2798.4919086538361626
 20
162.241270181413995
 30
0.0
 40
0.0158369336121943
 50
326.9023278944814024
 51
341.648475153998902
  0
ARC
  5
A2B3
  8
0
 10
2798.4984047864850254
 20
162.2392318925481902
 30
0.0
 40
0.0090301072095185
 50
340.9463537900485903
 51
356.9022568660208208
  0
ARC
  5
A2B4
  8
0
 10
2798.4743421211351233
 20
162.2431451406544056
 30
0.0
 40
0.0306731934422362
 50
314.9954512725150835
 51
335.0700030268149021
  0
ARC
  5
A2B5
  8
0
 10
2798.4908187094588357
 20
162.2267587554269141
 30
0.0
 40
0.00743585674902
 50
299.2360866667381174
 51
314.4897582076923186
  0
ARC
  5
A2B6
  8
0
 10
2798.493252702638074
 20
162.2227733608791027
 30
0.0
 40
0.0027750364214588
 50
282.2457887980402234
 51
295.5701297333870912
  0
ARC
  5
A2B7
  8
0
 10
2798.4937840077141118
 20
162.2206881768844937
 30
0.0
 40
0.0006293248654626
 50
212.3927738700014913
 51
275.2236812600730218
  0
ARC
  5
A2B8
  8
0
 10
2798.4944645246368964
 20
162.2209569958820907
 30
0.0
 40
0.0013549646739018
 50
181.8675227314028859
 51
206.5651685376406874
  0
ARC
  5
A2B9
  8
0
 10
2799.4982802392551093
 20
162.112421374336293
 30
0.0
 40
0.0088317746646574
 50
280.1294569567522785
 51
349.470085947920893
  0
ARC
  5
A2BA
  8
0
 10
2799.4976720774639034
 20
162.4047529746881935
 30
0.0
 40
0.0105636902767474
 50
28.412871865419099
 51
83.6754106172150642
  0
LINE
  5
A2BB
  8
0
 10
2799.4182050716208323
 20
162.2855746583134078
 30
0.0
 11
2799.4168574111217822
 21
162.2641529542133867
 31
0.0
  0
LINE
  5
A2BC
  8
0
 10
2799.4168574111217822
 20
162.2641529542133867
 30
0.0
 11
2799.4169620862207921
 21
162.2674820757133034
 31
0.0
  0
LINE
  5
A2BD
  8
0
 10
2799.4183040201219228
 20
162.2888326363132876
 30
0.0
 11
2799.4182050716208323
 21
162.2855746583134078
 31
0.0
  0
LINE
  5
A2BE
  8
0
 10
2799.3343583972218767
 20
162.238743910213401
 30
0.0
 11
2799.3350216547128184
 21
162.2656166441134076
 31
0.0
  0
LINE
  5
A2BF
  8
0
 10
2799.3343583972218767
 20
162.2741444909133861
 30
0.0
 11
2799.3350216547128184
 21
162.3010172248133074
 31
0.0
  0
LINE
  5
A2C0
  8
0
 10
2799.3343583972218767
 20
162.3095450717133019
 30
0.0
 11
2799.3350216547128184
 21
162.3364178055132925
 31
0.0
  0
LINE
  5
A2C1
  8
0
 10
2799.3343583972218767
 20
162.344945652413287
 30
0.0
 11
2799.3346771347319191
 21
162.3578597159882122
 31
0.0
  0
LINE
  5
A2C2
  8
0
 10
2799.4543636609218993
 20
162.2722340263134129
 30
0.0
 11
2799.4543636610219437
 21
162.2467456072133132
 31
0.0
  0
LINE
  5
A2C3
  8
0
 10
2799.4307416138208282
 20
162.2631548611134065
 30
0.0
 11
2799.4307416138208282
 21
162.2886432784133035
 31
0.0
  0
LINE
  5
A2C4
  8
0
 10
2799.4245243822210796
 20
162.2892144771132905
 30
0.0
 11
2799.4245243822210796
 21
162.3158914442163052
 31
0.0
  0
LINE
  5
A2C5
  8
0
 10
2799.4183040201219228
 20
162.3171531009132877
 30
0.0
 11
2799.4183040201219228
 21
162.2888326363132876
 31
0.0
  0
LINE
  5
A2C6
  8
0
 10
2799.4169620862207921
 20
162.2958025403133036
 30
0.0
 11
2799.4169620862207921
 21
162.2674820757133034
 31
0.0
  0
LINE
  5
A2C7
  8
0
 10
2799.4031825587221647
 20
162.2656166441134076
 30
0.0
 11
2799.4031825587221647
 21
162.2958025403133036
 31
0.0
  0
LINE
  5
A2C8
  8
0
 10
2799.3145998815211897
 20
162.2302160634133088
 30
0.0
 11
2799.3145998815211897
 21
162.2037610304134034
 31
0.0
  0
LINE
  5
A2C9
  8
0
 10
2799.3240180254138068
 20
162.3591627959920061
 30
0.0
 11
2799.3243689248211012
 21
162.344945652413287
 31
0.0
  0
LINE
  5
A2CA
  8
0
 10
2799.3237056673301595
 20
162.3364178055132925
 30
0.0
 11
2799.3243689248211012
 21
162.3095450717133019
 31
0.0
  0
LINE
  5
A2CB
  8
0
 10
2799.3237056673301595
 20
162.3010172248133074
 30
0.0
 11
2799.3243689248211012
 21
162.2741444909133861
 31
0.0
  0
LINE
  5
A2CC
  8
0
 10
2799.323706924221824
 20
162.265565719513404
 30
0.0
 11
2799.3243689248211012
 21
162.238743910213401
 31
0.0
  0
LINE
  5
A2CD
  8
0
 10
2799.2070644249101861
 20
162.2656166441134076
 30
0.0
 11
2799.2064061630208016
 21
162.2394198286133076
 31
0.0
  0
LINE
  5
A2CE
  8
0
 10
2799.1430880469101794
 20
162.2656166441134076
 30
0.0
 11
2799.1424297850221592
 21
162.2394198286133076
 31
0.0
  0
LINE
  5
A2CF
  8
0
 10
2799.0791103690207819
 20
162.2655649125134119
 30
0.0
 11
2799.0784534071208327
 21
162.2394198286133076
 31
0.0
  0
LINE
  5
A2D0
  8
0
 10
2799.2703820192209605
 20
162.238743910213401
 30
0.0
 11
2799.2710452768128562
 21
162.2656166441134076
 31
0.0
  0
LINE
  5
A2D1
  8
0
 10
2799.2703820192209605
 20
162.2741444909133861
 30
0.0
 11
2799.2710440199211916
 21
162.3009663002133038
 31
0.0
  0
LINE
  5
A2D2
  8
0
 10
2799.2703820192209605
 20
162.3095450717133019
 30
0.0
 11
2799.2710452768128562
 21
162.3364178055132925
 31
0.0
  0
LINE
  5
A2D3
  8
0
 10
2799.2703820192209605
 20
162.344945652413287
 30
0.0
 11
2799.2707418235218029
 21
162.3595235856134025
 31
0.0
  0
LINE
  5
A2D4
  8
0
 10
2799.2064056413219078
 20
162.2741444909133861
 30
0.0
 11
2799.2070688988128495
 21
162.3010172248133074
 31
0.0
  0
LINE
  5
A2D5
  8
0
 10
2799.2064056413219078
 20
162.3095450717133019
 30
0.0
 11
2799.2070688988128495
 21
162.3364178055132925
 31
0.0
  0
LINE
  5
A2D6
  8
0
 10
2799.2064056413219078
 20
162.344945652413287
 30
0.0
 11
2799.2067654455208867
 21
162.3595235856134025
 31
0.0
  0
LINE
  5
A2D7
  8
0
 10
2799.1424292633219011
 20
162.2741444909133861
 30
0.0
 11
2799.1430925208142071
 21
162.3010172248133074
 31
0.0
  0
LINE
  5
A2D8
  8
0
 10
2799.1424292633219011
 20
162.3095450717133019
 30
0.0
 11
2799.1430925208142071
 21
162.3364178055132925
 31
0.0
  0
LINE
  5
A2D9
  8
0
 10
2799.1424292633219011
 20
162.344945652413287
 30
0.0
 11
2799.142789067621834
 21
162.3595235856134025
 31
0.0
  0
LINE
  5
A2DA
  8
0
 10
2799.0784528854219388
 20
162.2741444909133861
 30
0.0
 11
2799.0791161429128806
 21
162.3010172248133074
 31
0.0
  0
LINE
  5
A2DB
  8
0
 10
2799.0784528854219388
 20
162.3095450717133019
 30
0.0
 11
2799.0791161429128806
 21
162.3364178055132925
 31
0.0
  0
LINE
  5
A2DC
  8
0
 10
2799.0784528854219388
 20
162.344945652413287
 30
0.0
 11
2799.0788126896209178
 21
162.3595235856134025
 31
0.0
  0
LINE
  5
A2DD
  8
0
 10
2799.273729023821943
 20
162.2302160634133088
 30
0.0
 11
2799.273729023821943
 21
162.2037610304134034
 31
0.0
  0
LINE
  5
A2DE
  8
0
 10
2799.2703820192209605
 20
162.2209128394133018
 30
0.0
 11
2799.2703820192209605
 21
162.2302160634133088
 31
0.0
  0
LINE
  5
A2DF
  8
0
 10
2799.2600908285207879
 20
162.190114467813288
 30
0.0
 11
2799.2600908285207879
 21
162.1938488678133012
 31
0.0
  0
LINE
  5
A2E0
  8
0
 10
2799.2555447634208576
 20
162.2656166441134076
 30
0.0
 11
2799.2555447634208576
 21
162.2264174021134124
 31
0.0
  0
LINE
  5
A2E1
  8
0
 10
2799.2560705999221682
 20
162.238743910213401
 30
0.0
 11
2799.255687668021892
 21
162.2656166441134076
 31
0.0
  0
LINE
  5
A2E2
  8
0
 10
2799.2600327426212061
 20
162.3595235856134025
 30
0.0
 11
2799.260392546921139
 21
162.344945652413287
 31
0.0
  0
LINE
  5
A2E3
  8
0
 10
2799.259729289428833
 20
162.3364178055132925
 30
0.0
 11
2799.260392546921139
 21
162.3095450717133019
 31
0.0
  0
LINE
  5
A2E4
  8
0
 10
2799.2597305463209523
 20
162.3009663002133038
 30
0.0
 11
2799.260392546921139
 21
162.2741444909133861
 31
0.0
  0
LINE
  5
A2E5
  8
0
 10
2799.259729289428833
 20
162.2656166441134076
 30
0.0
 11
2799.260392546921139
 21
162.238743910213401
 31
0.0
  0
LINE
  5
A2E6
  8
0
 10
2799.1960563647207891
 20
162.3595235856134025
 30
0.0
 11
2799.1964161689211323
 21
162.344945652413287
 31
0.0
  0
LINE
  5
A2E7
  8
0
 10
2799.1957529114301906
 20
162.3364178055132925
 30
0.0
 11
2799.1964161689211323
 21
162.3095450717133019
 31
0.0
  0
LINE
  5
A2E8
  8
0
 10
2799.1957529114301906
 20
162.3010172248133074
 30
0.0
 11
2799.1964161689211323
 21
162.2741444909133861
 31
0.0
  0
LINE
  5
A2E9
  8
0
 10
2799.1320799867207825
 20
162.3595235856134025
 30
0.0
 11
2799.1324397910211701
 21
162.344945652413287
 31
0.0
  0
LINE
  5
A2EA
  8
0
 10
2799.1317765335288641
 20
162.3364178055132925
 30
0.0
 11
2799.1324397910211701
 21
162.3095450717133019
 31
0.0
  0
LINE
  5
A2EB
  8
0
 10
2799.1317765335288641
 20
162.3010172248133074
 30
0.0
 11
2799.1324397910211701
 21
162.2741444909133861
 31
0.0
  0
LINE
  5
A2EC
  8
0
 10
2799.1964156472217837
 20
162.2394198286133076
 30
0.0
 11
2799.1957573854328984
 21
162.2656166441134076
 31
0.0
  0
LINE
  5
A2ED
  8
0
 10
2799.132439269320912
 20
162.2394198286133076
 30
0.0
 11
2799.1317823073218278
 21
162.2655649125134119
 31
0.0
  0
LINE
  5
A2EE
  8
0
 10
2799.273729023821943
 20
162.2037610304134034
 30
0.0
 11
2799.2555447634208576
 21
162.2264174021134124
 31
0.0
  0
LINE
  5
A2EF
  8
0
 10
2799.2419065680219319
 20
162.2094251234134106
 30
0.0
 11
2799.254408247120864
 21
162.1938488678133012
 31
0.0
  0
LINE
  5
A2F0
  8
0
 10
2799.0151339911221839
 20
162.2655649125134119
 30
0.0
 11
2799.0144770291221903
 21
162.2394198286133076
 31
0.0
  0
LINE
  5
A2F1
  8
0
 10
2798.9511589130102038
 20
162.2656166441134076
 30
0.0
 11
2798.9505006512208638
 21
162.2394198286133076
 31
0.0
  0
LINE
  5
A2F2
  8
0
 10
2799.0144765074219322
 20
162.2741444909133861
 30
0.0
 11
2799.0151397649128739
 21
162.3010172248133074
 31
0.0
  0
LINE
  5
A2F3
  8
0
 10
2799.0144765074219322
 20
162.3095450717133019
 30
0.0
 11
2799.0151397649128739
 21
162.3364178055132925
 31
0.0
  0
LINE
  5
A2F4
  8
0
 10
2799.0144765074219322
 20
162.344945652413287
 30
0.0
 11
2799.0148363117218651
 21
162.3595235856134025
 31
0.0
  0
LINE
  5
A2F5
  8
0
 10
2798.9505001295210604
 20
162.2741444909133861
 30
0.0
 11
2798.9511633870129117
 21
162.3010172248133074
 31
0.0
  0
LINE
  5
A2F6
  8
0
 10
2798.9505001295210604
 20
162.3095450717133019
 30
0.0
 11
2798.9511633870129117
 21
162.3364178055132925
 31
0.0
  0
LINE
  5
A2F7
  8
0
 10
2798.9505001295210604
 20
162.344945652413287
 30
0.0
 11
2798.9508599337218584
 21
162.3595235856134025
 31
0.0
  0
LINE
  5
A2F8
  8
0
 10
2798.9395998814711675
 20
162.2094251234134106
 30
0.0
 11
2798.9395998814711675
 21
162.1781934668134113
 31
0.0
  0
LINE
  5
A2F9
  8
0
 10
2799.0681036088208202
 20
162.3595235856134025
 30
0.0
 11
2799.0684634130211634
 21
162.344945652413287
 31
0.0
  0
LINE
  5
A2FA
  8
0
 10
2799.0678001555302217
 20
162.3364178055132925
 30
0.0
 11
2799.0684634130211634
 21
162.3095450717133019
 31
0.0
  0
LINE
  5
A2FB
  8
0
 10
2799.0678001555302217
 20
162.3010172248133074
 30
0.0
 11
2799.0684634130211634
 21
162.2741444909133861
 31
0.0
  0
LINE
  5
A2FC
  8
0
 10
2799.0041272308208136
 20
162.3595235856134025
 30
0.0
 11
2799.0044870351221107
 21
162.344945652413287
 31
0.0
  0
LINE
  5
A2FD
  8
0
 10
2799.0038237776298047
 20
162.3364178055132925
 30
0.0
 11
2799.0044870351221107
 21
162.3095450717133019
 31
0.0
  0
LINE
  5
A2FE
  8
0
 10
2799.0038237776298047
 20
162.3010172248133074
 30
0.0
 11
2799.0044870351221107
 21
162.2741444909133861
 31
0.0
  0
LINE
  5
A2FF
  8
0
 10
2798.9401508529208513
 20
162.3595235856134025
 30
0.0
 11
2798.9405106571211945
 21
162.344945652413287
 31
0.0
  0
LINE
  5
A300
  8
0
 10
2798.9398473996288885
 20
162.3364178055132925
 30
0.0
 11
2798.9405106571211945
 21
162.3095450717133019
 31
0.0
  0
LINE
  5
A301
  8
0
 10
2798.9398473996288885
 20
162.3010172248133074
 30
0.0
 11
2798.9405106571211945
 21
162.2741444909133861
 31
0.0
  0
LINE
  5
A302
  8
0
 10
2799.0684628913218148
 20
162.2394198286133076
 30
0.0
 11
2799.0678059294218656
 21
162.2655649125134119
 31
0.0
  0
LINE
  5
A303
  8
0
 10
2799.0044865134218526
 20
162.2394198286133076
 30
0.0
 11
2799.0038295514218589
 21
162.2655649125134119
 31
0.0
  0
LINE
  5
A304
  8
0
 10
2798.9405101354218459
 20
162.2394198286133076
 30
0.0
 11
2798.9398531735218967
 21
162.2655649125134119
 31
0.0
  0
LINE
  5
A305
  8
0
 10
2799.3145998815211897
 20
162.190114467813288
 30
0.0
 11
2799.2600908285207879
 21
162.190114467813288
 31
0.0
  0
LINE
  5
A306
  8
0
 10
2799.3145998815211897
 20
162.1938488678133012
 30
0.0
 11
2799.254408247120864
 21
162.1938488678133012
 31
0.0
  0
LINE
  5
A307
  8
0
 10
2799.3145998815211897
 20
162.2037610304134034
 30
0.0
 11
2799.273729023821943
 21
162.2037610304134034
 31
0.0
  0
LINE
  5
A308
  8
0
 10
2798.9395998814711675
 20
162.2094251234134106
 30
0.0
 11
2799.2419065680219319
 21
162.2094251234134106
 31
0.0
  0
LINE
  5
A309
  8
0
 10
2799.2610289972208193
 20
162.2302160634133088
 30
0.0
 11
2799.261793823221069
 21
162.2302160634133088
 31
0.0
  0
LINE
  5
A30A
  8
0
 10
2799.26898074292194
 20
162.2302160634133088
 30
0.0
 11
2799.3257702012210757
 21
162.2302160634133088
 31
0.0
  0
LINE
  5
A30B
  8
0
 10
2799.3329571208209927
 20
162.2302160634133088
 30
0.0
 11
2799.3730229117209092
 21
162.2302160634133088
 31
0.0
  0
LINE
  5
A30C
  8
0
 10
2799.3815565352210797
 20
162.238743910213401
 30
0.0
 11
2799.3343583972218767
 21
162.238743910213401
 31
0.0
  0
LINE
  5
A30D
  8
0
 10
2799.3243689248211012
 20
162.238743910213401
 30
0.0
 11
2799.2703820193210049
 21
162.238743910213401
 31
0.0
  0
LINE
  5
A30E
  8
0
 10
2798.9490988531219955
 20
162.2656166441134076
 30
0.0
 11
2799.0058883114211312
 21
162.2656166441134076
 31
0.0
  0
LINE
  5
A30F
  8
0
 10
2799.0130752311210927
 20
162.2656166441134076
 30
0.0
 11
2799.0698646894220474
 21
162.2656166441134076
 31
0.0
  0
LINE
  5
A310
  8
0
 10
2799.0770516090210549
 20
162.2656166441134076
 30
0.0
 11
2799.1338410673211001
 21
162.2656166441134076
 31
0.0
  0
LINE
  5
A311
  8
0
 10
2799.1410279870219711
 20
162.2656166441134076
 30
0.0
 11
2799.1978174453220163
 21
162.2656166441134076
 31
0.0
  0
LINE
  5
A312
  8
0
 10
2799.2050043649210238
 20
162.2656166441134076
 30
0.0
 11
2799.261793823221069
 21
162.2656166441134076
 31
0.0
  0
LINE
  5
A313
  8
0
 10
2799.26898074292194
 20
162.2656166441134076
 30
0.0
 11
2799.3257702012210757
 21
162.2656166441134076
 31
0.0
  0
LINE
  5
A314
  8
0
 10
2799.3329571208209927
 20
162.2656166441134076
 30
0.0
 11
2799.4031825587221647
 21
162.2656166441134076
 31
0.0
  0
LINE
  5
A315
  8
0
 10
2799.4031825587221647
 20
162.2741444909133861
 30
0.0
 11
2799.3343583972218767
 21
162.2741444909133861
 31
0.0
  0
LINE
  5
A316
  8
0
 10
2799.3243689248211012
 20
162.2741444909133861
 30
0.0
 11
2799.2703820193210049
 21
162.2741444909133861
 31
0.0
  0
LINE
  5
A317
  8
0
 10
2799.260392546921139
 20
162.2741444909133861
 30
0.0
 11
2799.2064056413219078
 21
162.2741444909133861
 31
0.0
  0
LINE
  5
A318
  8
0
 10
2799.1964161689211323
 20
162.2741444909133861
 30
0.0
 11
2799.142429263421036
 21
162.2741444909133861
 31
0.0
  0
LINE
  5
A319
  8
0
 10
2799.1324397910211701
 20
162.2741444909133861
 30
0.0
 11
2799.0784528854219388
 21
162.2741444909133861
 31
0.0
  0
LINE
  5
A31A
  8
0
 10
2799.0684634130211634
 20
162.2741444909133861
 30
0.0
 11
2799.0144765074219322
 21
162.2741444909133861
 31
0.0
  0
LINE
  5
A31B
  8
0
 10
2799.0044870351221107
 20
162.2741444909133861
 30
0.0
 11
2798.9505001295210604
 21
162.2741444909133861
 31
0.0
  0
LINE
  5
A31C
  8
0
 10
2798.9490988531219955
 20
162.3010172248133074
 30
0.0
 11
2799.0058883114211312
 21
162.3010172248133074
 31
0.0
  0
LINE
  5
A31D
  8
0
 10
2799.0130752311210927
 20
162.3010172248133074
 30
0.0
 11
2799.0698646894220474
 21
162.3010172248133074
 31
0.0
  0
LINE
  5
A31E
  8
0
 10
2799.0770516090210549
 20
162.3010172248133074
 30
0.0
 11
2799.1338410673211001
 21
162.3010172248133074
 31
0.0
  0
LINE
  5
A31F
  8
0
 10
2799.1410279870219711
 20
162.3010172248133074
 30
0.0
 11
2799.1978174453220163
 21
162.3010172248133074
 31
0.0
  0
LINE
  5
A320
  8
0
 10
2799.2050043649210238
 20
162.3010172248133074
 30
0.0
 11
2799.261793823221069
 21
162.3010172248133074
 31
0.0
  0
LINE
  5
A321
  8
0
 10
2799.26898074292194
 20
162.3010172248133074
 30
0.0
 11
2799.3257702012210757
 21
162.3010172248133074
 31
0.0
  0
LINE
  5
A322
  8
0
 10
2799.3329571208209927
 20
162.3010172248133074
 30
0.0
 11
2799.4028825173131736
 21
162.3010172248133074
 31
0.0
  0
LINE
  5
A323
  8
0
 10
2799.4010762312059342
 20
162.3095450717133872
 30
0.0
 11
2799.3343583972218767
 21
162.3095450717133019
 31
0.0
  0
LINE
  5
A324
  8
0
 10
2799.3243689248211012
 20
162.3095450717133019
 30
0.0
 11
2799.2703820193210049
 21
162.3095450717133019
 31
0.0
  0
LINE
  5
A325
  8
0
 10
2799.260392546921139
 20
162.3095450717133019
 30
0.0
 11
2799.2064056413219078
 21
162.3095450717133019
 31
0.0
  0
LINE
  5
A326
  8
0
 10
2799.1964161689211323
 20
162.3095450717133019
 30
0.0
 11
2799.142429263421036
 21
162.3095450717133019
 31
0.0
  0
LINE
  5
A327
  8
0
 10
2799.1324397910211701
 20
162.3095450717133019
 30
0.0
 11
2799.0784528854219388
 21
162.3095450717133019
 31
0.0
  0
LINE
  5
A328
  8
0
 10
2799.0684634130211634
 20
162.3095450717133019
 30
0.0
 11
2799.0144765074219322
 21
162.3095450717133019
 31
0.0
  0
LINE
  5
A329
  8
0
 10
2799.0044870351221107
 20
162.3095450717133019
 30
0.0
 11
2798.9505001295210604
 21
162.3095450717133019
 31
0.0
  0
LINE
  5
A32A
  8
0
 10
2798.9490988531219955
 20
162.3364178055132925
 30
0.0
 11
2799.0058883114211312
 21
162.3364178055132925
 31
0.0
  0
LINE
  5
A32B
  8
0
 10
2799.0130752311210927
 20
162.3364178055132925
 30
0.0
 11
2799.0698646894220474
 21
162.3364178055132925
 31
0.0
  0
LINE
  5
A32C
  8
0
 10
2799.0770516090210549
 20
162.3364178055132925
 30
0.0
 11
2799.1338410673211001
 21
162.3364178055132925
 31
0.0
  0
LINE
  5
A32D
  8
0
 10
2799.1410279870219711
 20
162.3364178055132925
 30
0.0
 11
2799.1978174453220163
 21
162.3364178055132925
 31
0.0
  0
LINE
  5
A32E
  8
0
 10
2799.2050043649210238
 20
162.3364178055132925
 30
0.0
 11
2799.261793823221069
 21
162.3364178055132925
 31
0.0
  0
LINE
  5
A32F
  8
0
 10
2799.26898074292194
 20
162.3364178055132925
 30
0.0
 11
2799.3257702012210757
 21
162.3364178055132925
 31
0.0
  0
LINE
  5
A330
  8
0
 10
2799.3329571208209927
 20
162.3364178055132925
 30
0.0
 11
2799.3829317924501083
 21
162.3364178055132925
 31
0.0
  0
LINE
  5
A331
  8
0
 10
2799.3709157196039996
 20
162.344945652413287
 30
0.0
 11
2799.3343583972218767
 21
162.344945652413287
 31
0.0
  0
LINE
  5
A332
  8
0
 10
2799.3243689248211012
 20
162.344945652413287
 30
0.0
 11
2799.2703820193210049
 21
162.344945652413287
 31
0.0
  0
LINE
  5
A333
  8
0
 10
2799.260392546921139
 20
162.344945652413287
 30
0.0
 11
2799.2064056413219078
 21
162.344945652413287
 31
0.0
  0
LINE
  5
A334
  8
0
 10
2799.1964161689211323
 20
162.344945652413287
 30
0.0
 11
2799.142429263421036
 21
162.344945652413287
 31
0.0
  0
LINE
  5
A335
  8
0
 10
2799.1324397910211701
 20
162.344945652413287
 30
0.0
 11
2799.0784528854219388
 21
162.344945652413287
 31
0.0
  0
LINE
  5
A336
  8
0
 10
2799.0684634130211634
 20
162.344945652413287
 30
0.0
 11
2799.0144765074219322
 21
162.344945652413287
 31
0.0
  0
LINE
  5
A337
  8
0
 10
2799.0044870351221107
 20
162.344945652413287
 30
0.0
 11
2798.9505001295210604
 21
162.344945652413287
 31
0.0
  0
ARC
  5
A338
  8
0
 10
2799.3608836591211002
 20
162.2910865250134123
 30
0.0
 40
0.0639249452
 50
330.0722555612160818
 51
339.5471903436948082
  0
ARC
  5
A339
  8
0
 10
2800.280314423857817
 20
162.1644945668126923
 30
0.0
 40
0.8570469728985525
 50
172.4276144287750867
 51
173.3617289186850883
  0
ARC
  5
A33A
  8
0
 10
2799.3677583472222068
 20
162.2892243944133952
 30
0.0
 40
0.0567660359
 50
355.1571199801996954
 51
359.989990174100285
  0
ARC
  5
A33B
  8
0
 10
2799.3640324073207921
 20
162.3171067461134101
 30
0.0
 40
0.0542716326
 50
0.0489378258002677
 51
11.5839881902582196
  0
ARC
  5
A33C
  8
0
 10
2799.3573964414208604
 20
162.2957840827133111
 30
0.0
 40
0.0457861210004235
 50
0.0230974205362692
 51
6.5629853280464916
  0
ARC
  5
A33D
  8
0
 10
2799.2566223862208972
 20
162.2439126348133129
 30
0.0
 40
0.0149987485
 50
305.758864156701577
 51
312.3464738909968901
  0
LINE
  5
A33E
  8
0
 10
2799.4211733844222181
 20
162.3192370735133068
 30
0.0
 11
2799.4229468883490881
 21
162.319026704725303
 31
0.0
  0
LINE
  5
A33F
  8
0
 10
2799.265387283121072
 20
162.2317413966133017
 30
0.0
 11
2799.2640618078207808
 21
162.2328244925132879
 31
0.0
  0
ARC
  5
A340
  8
0
 10
2799.314681316368933
 20
162.2385421768447031
 30
0.0
 40
0.1209814361762993
 50
77.0961676895191488
 51
90.0385668543089821
  0
ARC
  5
A341
  8
0
 10
2799.3203209958128355
 20
162.259459694016698
 30
0.0
 40
0.099336172457752
 50
55.7296845561819509
 51
77.5726304182914959
  0
ARC
  5
A342
  8
0
 10
2799.3384388148429025
 20
162.285459422881587
 30
0.0
 40
0.067648960205214
 50
34.5352266098499427
 51
56.0108689943493516
  0
ARC
  5
A343
  8
0
 10
2799.3524209823790443
 20
162.2947841686869879
 30
0.0
 40
0.0508450341383223
 50
7.0415609578462481
 51
34.8114817041272318
  0
ARC
  5
A344
  8
0
 10
2799.3708644496027773
 20
162.2409096131144963
 30
0.0
 40
0.0109092146338016
 50
281.4116574739899193
 51
348.5495439334889056
  0
ARC
  5
A345
  8
0
 10
2735.7124570875989775
 20
163.5998530545869016
 30
0.0
 40
63.6836465866797212
 50
358.7753253432694009
 51
358.7995079899267807
  0
ARC
  5
A346
  8
0
 10
2799.3204476810760752
 20
162.2441129018619961
 30
0.0
 40
0.0152495521412858
 50
305.7797929632736214
 51
328.2638295100952064
  0
ARC
  5
A347
  8
0
 10
2799.3285304203659507
 20
162.2393189252343859
 30
0.0
 40
0.005856274967565
 50
326.5571773843502115
 51
354.3651719128931177
  0
ARC
  5
A348
  8
0
 10
2799.3383451800928015
 20
162.2441594341059954
 30
0.0
 40
0.0153256432167427
 50
213.0602865094618892
 51
234.1231396748538032
  0
ARC
  5
A349
  8
0
 10
2799.3307907592811716
 20
162.2395221375296046
 30
0.0
 40
0.0064688171704399
 50
186.9096720066229977
 51
215.1385771574759929
  0
ARC
  5
A34A
  8
0
 10
2799.333017264461887
 20
162.233780834655505
 30
0.0
 40
0.0035652785678729
 50
251.5335004818672076
 51
269.0334162827462023
  0
ARC
  5
A34B
  8
0
 10
2799.3349915759849864
 20
162.2392806701315919
 30
0.0
 40
0.0094081917505271
 50
233.2594059553894112
 51
250.7382520422814878
  0
ARC
  5
A34C
  8
0
 10
2799.3246948364499076
 20
162.2377449609865891
 30
0.0
 40
0.007605307887255
 50
278.1286702426975808
 51
307.8713300771315744
  0
LINE
  5
A34D
  8
0
 10
2799.3346553735009365
 20
162.2302160634133088
 30
0.0
 11
2799.3343583972218767
 21
162.2183480443133021
 31
0.0
  0
LINE
  5
A34E
  8
0
 10
2799.3240394891367941
 20
162.2302160634133088
 30
0.0
 11
2799.3243689249370618
 21
162.2171313699556094
 31
0.0
  0
ARC
  5
A34F
  8
0
 10
2799.331331352801044
 20
162.2184976178884881
 30
0.0
 40
0.0030307375636774
 50
328.0169093283275856
 51
357.1711779395207031
  0
ARC
  5
A350
  8
0
 10
2799.3293496065421095
 20
162.2197893969257905
 30
0.0
 40
0.0053960750933579
 50
294.3597377858267237
 51
327.5282264266742231
  0
ARC
  5
A351
  8
0
 10
2799.3285390255441598
 20
162.2211678281823026
 30
0.0
 40
0.0069881903217736
 50
264.8970049858539255
 51
295.7525819569497116
  0
ARC
  5
A352
  8
0
 10
2799.3281861168497926
 20
162.218635239949208
 30
0.0
 40
0.0044360470388848
 50
225.7545833363419945
 51
266.527804942545572
  0
ARC
  5
A353
  8
0
 10
2799.326957143844993
 20
162.2172550697164013
 30
0.0
 40
0.0025911732369388
 50
182.7362775098783914
 51
223.9276935905218977
  0
ARC
  5
A354
  8
0
 10
2799.315746509274959
 20
162.238965769157403
 30
0.0
 40
0.1304750174939839
 50
61.9642172827885602
 51
90.5035276321394946
  0
ARC
  5
A355
  8
0
 10
2799.3363236678451358
 20
162.2779824140438905
 30
0.0
 40
0.0863652551984371
 50
37.5191114198002396
 51
61.8473236227383509
  0
ARC
  5
A356
  8
0
 10
2799.3584199648280446
 20
162.2948785490791863
 30
0.0
 40
0.0585494128421246
 50
0.9042454495350482
 51
37.5739577337326267
  0
ARC
  5
A357
  8
0
 10
2799.3126859813942247
 20
162.1790755828507997
 30
0.0
 40
0.195112123003081
 50
80.4046789664242709
 51
90.0160345603975429
  0
ARC
  5
A358
  8
0
 10
2799.3175816403490899
 20
162.2030560869781084
 30
0.0
 40
0.1706530836937127
 50
60.3942411066795515
 51
80.6833139186758643
  0
ARC
  5
A359
  8
0
 10
2799.3432640981250188
 20
162.2480205249227936
 30
0.0
 40
0.1188711362143747
 50
37.8051465741996608
 51
60.4500294791081316
  0
ARC
  5
A35A
  8
0
 10
2799.3731662885411424
 20
162.2709214723323043
 30
0.0
 40
0.0812079803929386
 50
0.9261045265556264
 51
37.9711952152668673
  0
ARC
  5
A35B
  8
0
 10
2799.365254120292775
 20
162.2880343324719945
 30
0.0
 40
0.0654903246581104
 50
0.5327586226100057
 51
30.3816914683014296
  0
ARC
  5
A35C
  8
0
 10
2799.3428918571507893
 20
162.2736708324054007
 30
0.0
 40
0.092052503304992
 50
31.0546359846724016
 51
56.5424273765338086
  0
ARC
  5
A35D
  8
0
 10
2799.3212806699789326
 20
162.2417570920148933
 30
0.0
 40
0.1305933464859088
 50
56.3513898733990928
 51
73.3178885674031875
  0
ARC
  5
A35E
  8
0
 10
2799.3062357777580473
 20
162.1851538284545029
 30
0.0
 40
0.1891420302841167
 50
73.8743487080778323
 51
88.0622457461547725
  0
ARC
  5
A35F
  8
0
 10
2799.3679578354740443
 20
162.2496554072189952
 30
0.0
 40
0.0864548068334077
 50
312.5799233993574262
 51
358.0712379342315899
  0
ARC
  5
A360
  8
0
 10
2799.3268264902658302
 20
162.2936679188352116
 30
0.0
 40
0.1466938090440546
 50
285.632287378222486
 51
312.7778543261002824
  0
ARC
  5
A361
  8
0
 10
2799.3129601272280524
 20
162.3359583687735039
 30
0.0
 40
0.1911664626820854
 50
270.0316258448573876
 51
286.219072868474484
  0
ARC
  5
A362
  8
0
 10
2799.313498961887035
 20
162.3324624125615117
 30
0.0
 40
0.1542695543063739
 50
269.839065654203921
 51
292.65393053741019
  0
ARC
  5
A363
  8
0
 10
2799.3328300530770321
 20
162.2892034115633066
 30
0.0
 40
0.1069089135436829
 50
292.0226745501516916
 51
320.750737840494196
  0
ARC
  5
A364
  8
0
 10
2799.3634302747559559
 20
162.264081646969089
 30
0.0
 40
0.0673177190551782
 50
320.8304850609542882
 51
359.2111646622495869
  0
ARC
  5
A365
  8
0
 10
2799.315171170379017
 20
162.3426553361724984
 30
0.0
 40
0.1525419381374211
 50
269.7854195552374108
 51
289.9277887491808769
  0
ARC
  5
A366
  8
0
 10
2799.3333501269498811
 20
162.299157668228105
 30
0.0
 40
0.1054770681790178
 50
288.6973856823403253
 51
320.76097971444932
  0
ARC
  5
A367
  8
0
 10
2799.361875633526779
 20
162.2749953673306038
 30
0.0
 40
0.0681029330312836
 50
321.3246934148323817
 51
350.3418292980288129
  0
ARC
  5
A368
  8
0
 10
2799.3149760273809079
 20
162.3310747074905009
 30
0.0
 40
0.1372263551975937
 50
269.842948556189981
 51
285.0477599073329884
  0
ARC
  5
A369
  8
0
 10
2799.3223197099059689
 20
162.3071949257455913
 30
0.0
 40
0.1122623646954961
 50
284.5924513434781034
 51
305.5015807302676194
  0
ARC
  5
A36A
  8
0
 10
2799.3422132932769273
 20
162.2793830325925057
 30
0.0
 40
0.0780680195457435
 50
305.4690804973301965
 51
327.3561701861460165
  0
ARC
  5
A36B
  8
0
 10
2799.3593947557828869
 20
162.2682783173214034
 30
0.0
 40
0.0576105492010685
 50
327.4383929935240758
 51
355.8936624100434756
  0
ARC
  5
A36C
  8
0
 10
2799.3652338820697878
 20
162.2895385986417125
 30
0.0
 40
0.059308099136761
 50
339.4797798573400769
 51
355.0605534117037223
  0
ARC
  5
A36D
  8
0
 10
2799.4209642096097923
 20
162.3165077198341066
 30
0.0
 40
0.0027373574132872
 50
85.617478277217657
 51
166.3630934555735905
  0
ARC
  5
A36E
  8
0
 10
2799.3152273549121674
 20
162.3194818807450872
 30
0.0
 40
0.1157225514943487
 50
269.6893280287650896
 51
293.0232031367992249
  0
ARC
  5
A36F
  8
0
 10
2799.3314393358919006
 20
162.2845541291679012
 30
0.0
 40
0.07724662862839
 50
292.0883936728358208
 51
324.2711420169915755
  0
ARC
  5
A370
  8
0
 10
2799.3528602890660295
 20
162.2683449821973056
 30
0.0
 40
0.0503961769582465
 50
325.0097503748859253
 51
356.8966154086522238
  0
ARC
  5
A371
  8
0
 10
2799.3204476810760752
 20
162.2795134825620096
 30
0.0
 40
0.0152495521412858
 50
305.7797929632736214
 51
328.2638295100952064
  0
ARC
  5
A372
  8
0
 10
2799.3285304203659507
 20
162.2747195059343994
 30
0.0
 40
0.005856274967565
 50
326.5571773843502115
 51
354.3651719128931177
  0
ARC
  5
A373
  8
0
 10
2799.3383451800928015
 20
162.2795600148060089
 30
0.0
 40
0.0153256432167427
 50
213.0602865094618892
 51
234.1231396748538032
  0
ARC
  5
A374
  8
0
 10
2799.3307907592811716
 20
162.2749227182295897
 30
0.0
 40
0.0064688171704399
 50
186.9096720066229977
 51
215.1385771574759929
  0
ARC
  5
A375
  8
0
 10
2799.333017264461887
 20
162.2691814153554901
 30
0.0
 40
0.0035652785678729
 50
251.5335004818672076
 51
269.0334162827462023
  0
ARC
  5
A376
  8
0
 10
2799.3349915759849864
 20
162.2746812508316054
 30
0.0
 40
0.0094081917505271
 50
233.2594059553894112
 51
250.7382520422814878
  0
ARC
  5
A377
  8
0
 10
2799.3246956715552187
 20
162.2731435743033899
 30
0.0
 40
0.0076032422091332
 50
278.1245366601739875
 51
307.8754636592656766
  0
ARC
  5
A378
  8
0
 10
2799.3204476810760752
 20
162.3149140633620107
 30
0.0
 40
0.0152495521412858
 50
305.7797929632736214
 51
328.2638295100952064
  0
ARC
  5
A379
  8
0
 10
2799.3285304203659507
 20
162.3101200867344005
 30
0.0
 40
0.005856274967565
 50
326.5571773843502115
 51
354.3651719128931177
  0
ARC
  5
A37A
  8
0
 10
2799.3383451800928015
 20
162.31496059560601
 30
0.0
 40
0.0153256432167427
 50
213.0602865094618892
 51
234.1231396748538032
  0
ARC
  5
A37B
  8
0
 10
2799.3307907592811716
 20
162.3103232990295908
 30
0.0
 40
0.0064688171704399
 50
186.9096720066229977
 51
215.1385771574759929
  0
ARC
  5
A37C
  8
0
 10
2799.333017264461887
 20
162.3045819961554912
 30
0.0
 40
0.0035652785678729
 50
251.5335004818672076
 51
269.0334162827462023
  0
ARC
  5
A37D
  8
0
 10
2799.3349915759849864
 20
162.3100818316316065
 30
0.0
 40
0.0094081917505271
 50
233.2594059553894112
 51
250.7382520422814878
  0
ARC
  5
A37E
  8
0
 10
2799.3246948356959365
 20
162.3085461237714071
 30
0.0
 40
0.0076053093648651
 50
278.1286743972100908
 51
307.8713286242132199
  0
ARC
  5
A37F
  8
0
 10
2799.3204476810760752
 20
162.3503146440619958
 30
0.0
 40
0.0152495521412858
 50
305.7797929632736214
 51
328.2638295100952064
  0
ARC
  5
A380
  8
0
 10
2799.3285304203659507
 20
162.345520667434414
 30
0.0
 40
0.005856274967565
 50
326.5571773843502115
 51
354.3651719128931177
  0
ARC
  5
A381
  8
0
 10
2799.3383451800928015
 20
162.3503611763059951
 30
0.0
 40
0.0153256432167427
 50
213.0602865094618892
 51
234.1231396748538032
  0
ARC
  5
A382
  8
0
 10
2799.3307907592811716
 20
162.3457238797296043
 30
0.0
 40
0.0064688171704399
 50
186.9096720066229977
 51
215.1385771574759929
  0
ARC
  5
A383
  8
0
 10
2799.333017264461887
 20
162.3399825768555047
 30
0.0
 40
0.0035652785678729
 50
251.5335004818672076
 51
269.0334162827462023
  0
ARC
  5
A384
  8
0
 10
2799.3349915759849864
 20
162.3454824123315916
 30
0.0
 40
0.0094081917505271
 50
233.2594059553894112
 51
250.7382520422814878
  0
ARC
  5
A385
  8
0
 10
2799.3246948356959365
 20
162.3439467044713922
 30
0.0
 40
0.0076053093648774
 50
278.1286743972623867
 51
307.8713286242082177
  0
ARC
  5
A386
  8
0
 10
2799.256471303176113
 20
162.3503146440619958
 30
0.0
 40
0.0152495521412858
 50
305.7797929632736214
 51
328.2638295100952064
  0
ARC
  5
A387
  8
0
 10
2799.2645540424659885
 20
162.345520667434414
 30
0.0
 40
0.005856274967565
 50
326.5571773843502115
 51
354.3651719128931177
  0
ARC
  5
A388
  8
0
 10
2799.2743688021928392
 20
162.3503611763059951
 30
0.0
 40
0.0153256432167427
 50
213.0602865094618892
 51
234.1231396748538032
  0
ARC
  5
A389
  8
0
 10
2799.2668143813812094
 20
162.3457238797296043
 30
0.0
 40
0.0064688171704399
 50
186.9096720066229977
 51
215.1385771574759929
  0
ARC
  5
A38A
  8
0
 10
2799.2690408865619247
 20
162.3399825768555047
 30
0.0
 40
0.0035652785678729
 50
251.5335004818672076
 51
269.0334162827462023
  0
ARC
  5
A38B
  8
0
 10
2799.2710151980850242
 20
162.3454824123315916
 30
0.0
 40
0.0094081917505271
 50
233.2594059553894112
 51
250.7382520422814878
  0
ARC
  5
A38C
  8
0
 10
2799.2607190971671116
 20
162.3439451982769981
 30
0.0
 40
0.0076037278956354
 50
278.1255090320511272
 51
307.8744928424596878
  0
ARC
  5
A38D
  8
0
 10
2799.256471303176113
 20
162.3149140633620107
 30
0.0
 40
0.0152495521412858
 50
305.7797929632736214
 51
328.2638295100952064
  0
ARC
  5
A38E
  8
0
 10
2799.2645540424659885
 20
162.3101200867344005
 30
0.0
 40
0.005856274967565
 50
326.5571773843502115
 51
354.3651719128931177
  0
ARC
  5
A38F
  8
0
 10
2799.2743688021928392
 20
162.31496059560601
 30
0.0
 40
0.0153256432167427
 50
213.0602865094618892
 51
234.1231396748538032
  0
ARC
  5
A390
  8
0
 10
2799.2668143813812094
 20
162.3103232990295908
 30
0.0
 40
0.0064688171704399
 50
186.9096720066229977
 51
215.1385771574759929
  0
ARC
  5
A391
  8
0
 10
2799.2690408865619247
 20
162.3045819961554912
 30
0.0
 40
0.0035652785678729
 50
251.5335004818672076
 51
269.0334162827462023
  0
ARC
  5
A392
  8
0
 10
2799.2710151980850242
 20
162.3100818316316065
 30
0.0
 40
0.0094081917505271
 50
233.2594059553894112
 51
250.7382520422814878
  0
ARC
  5
A393
  8
0
 10
2799.2607330506170911
 20
162.308521285785389
 30
0.0
 40
0.0075767449992355
 50
278.0418365574345216
 51
307.8995226230567255
  0
ARC
  5
A394
  8
0
 10
2799.256471303176113
 20
162.2795134825620096
 30
0.0
 40
0.0152495521412858
 50
305.7797929632736214
 51
328.2638295100952064
  0
ARC
  5
A395
  8
0
 10
2799.2645540424659885
 20
162.2747195059343994
 30
0.0
 40
0.005856274967565
 50
326.5571773843502115
 51
354.3651719128931177
  0
ARC
  5
A396
  8
0
 10
2799.2743688021928392
 20
162.2795600148060089
 30
0.0
 40
0.0153256432167427
 50
213.0602865094618892
 51
234.1231396748538032
  0
ARC
  5
A397
  8
0
 10
2799.2668143813812094
 20
162.2749227182295897
 30
0.0
 40
0.0064688171704399
 50
186.9096720066229977
 51
215.1385771574759929
  0
ARC
  5
A398
  8
0
 10
2799.2690408865619247
 20
162.2691814153554901
 30
0.0
 40
0.0035652785678729
 50
251.5335004818672076
 51
269.0334162827462023
  0
ARC
  5
A399
  8
0
 10
2799.2710151980850242
 20
162.2746812508316054
 30
0.0
 40
0.0094081917505271
 50
233.2594059553894112
 51
250.7382520422814878
  0
ARC
  5
A39A
  8
0
 10
2799.2607330506170911
 20
162.2731207049853879
 30
0.0
 40
0.0075767449992355
 50
278.0418365574345216
 51
307.8995226230567255
  0
ARC
  5
A39B
  8
0
 10
2799.1924949251761063
 20
162.3503146440619958
 30
0.0
 40
0.0152495521412858
 50
305.7797929632736214
 51
328.2638295100952064
  0
ARC
  5
A39C
  8
0
 10
2799.2005776644659818
 20
162.345520667434414
 30
0.0
 40
0.005856274967565
 50
326.5571773843502115
 51
354.3651719128931177
  0
ARC
  5
A39D
  8
0
 10
2799.2103924241941968
 20
162.3503611763059951
 30
0.0
 40
0.0153256432167427
 50
213.0602865094618892
 51
234.1231396748538032
  0
ARC
  5
A39E
  8
0
 10
2799.2028380033812027
 20
162.3457238797296043
 30
0.0
 40
0.006468817170448
 50
186.9096720066391129
 51
215.1385771574464059
  0
ARC
  5
A39F
  8
0
 10
2799.205064508561918
 20
162.3399825768555047
 30
0.0
 40
0.0035652785678729
 50
251.5335004818672076
 51
269.0334162827462023
  0
ARC
  5
A3A0
  8
0
 10
2799.2070388200850175
 20
162.3454824123315916
 30
0.0
 40
0.0094081917505271
 50
233.2594059553894112
 51
250.7382520422814878
  0
ARC
  5
A3A1
  8
0
 10
2799.1967566726170844
 20
162.3439218664854025
 30
0.0
 40
0.0075767449992355
 50
278.0418365574345216
 51
307.8995226230567255
  0
ARC
  5
A3A2
  8
0
 10
2799.1924949251761063
 20
162.3149140633620107
 30
0.0
 40
0.0152495521412858
 50
305.7797929632736214
 51
328.2638295100952064
  0
ARC
  5
A3A3
  8
0
 10
2799.2005776644659818
 20
162.3101200867344005
 30
0.0
 40
0.005856274967565
 50
326.5571773843502115
 51
354.3651719128931177
  0
ARC
  5
A3A4
  8
0
 10
2799.2103924241941968
 20
162.31496059560601
 30
0.0
 40
0.0153256432167427
 50
213.0602865094618892
 51
234.1231396748538032
  0
ARC
  5
A3A5
  8
0
 10
2799.2028380033812027
 20
162.3103232990295908
 30
0.0
 40
0.0064688171704399
 50
186.9096720066229977
 51
215.1385771574759929
  0
ARC
  5
A3A6
  8
0
 10
2799.205064508561918
 20
162.3045819961554912
 30
0.0
 40
0.0035652785678729
 50
251.5335004818672076
 51
269.0334162827462023
  0
ARC
  5
A3A7
  8
0
 10
2799.2070388200850175
 20
162.3100818316316065
 30
0.0
 40
0.0094081917505271
 50
233.2594059553894112
 51
250.7382520422814878
  0
ARC
  5
A3A8
  8
0
 10
2799.1967566726170844
 20
162.308521285785389
 30
0.0
 40
0.0075767449992355
 50
278.0418365574345216
 51
307.8995226230567255
  0
ARC
  5
A3A9
  8
0
 10
2799.1924949251761063
 20
162.2795134825620096
 30
0.0
 40
0.0152495521412858
 50
305.7797929632736214
 51
328.2638295100952064
  0
ARC
  5
A3AA
  8
0
 10
2799.2005776644659818
 20
162.2747195059343994
 30
0.0
 40
0.005856274967565
 50
326.5571773843502115
 51
354.3651719128931177
  0
ARC
  5
A3AB
  8
0
 10
2799.2103924241941968
 20
162.2795600148060089
 30
0.0
 40
0.0153256432167427
 50
213.0602865094618892
 51
234.1231396748538032
  0
ARC
  5
A3AC
  8
0
 10
2799.2028380033812027
 20
162.2749227182295897
 30
0.0
 40
0.0064688171704399
 50
186.9096720066229977
 51
215.1385771574759929
  0
ARC
  5
A3AD
  8
0
 10
2799.205064508561918
 20
162.2691814153554901
 30
0.0
 40
0.0035652785678729
 50
251.5335004818672076
 51
269.0334162827462023
  0
ARC
  5
A3AE
  8
0
 10
2799.2070388200850175
 20
162.2746812508316054
 30
0.0
 40
0.0094081917505271
 50
233.2594059553894112
 51
250.7382520422814878
  0
ARC
  5
A3AF
  8
0
 10
2799.1967566726170844
 20
162.2731207049853879
 30
0.0
 40
0.0075767449992355
 50
278.0418365574345216
 51
307.8995226230567255
  0
ARC
  5
A3B0
  8
0
 10
2799.1285185472761441
 20
162.3503146440619958
 30
0.0
 40
0.0152495521412858
 50
305.7797929632736214
 51
328.2638295100952064
  0
ARC
  5
A3B1
  8
0
 10
2799.136601286566929
 20
162.345520667434414
 30
0.0
 40
0.005856274967565
 50
326.5571773843502115
 51
354.3651719128931177
  0
ARC
  5
A3B2
  8
0
 10
2799.1464160462928703
 20
162.3503611763059951
 30
0.0
 40
0.0153256432167427
 50
213.0602865094618892
 51
234.1231396748538032
  0
ARC
  5
A3B3
  8
0
 10
2799.1388616254807857
 20
162.3457238797296043
 30
0.0
 40
0.0064688171704399
 50
186.9096720066229977
 51
215.1385771574759929
  0
ARC
  5
A3B4
  8
0
 10
2799.1410881306619558
 20
162.3399825768555047
 30
0.0
 40
0.0035652785678729
 50
251.5335004818672076
 51
269.0334162827462023
  0
ARC
  5
A3B5
  8
0
 10
2799.1430624421841458
 20
162.3454824123315916
 30
0.0
 40
0.0094081917505271
 50
233.2594059553894112
 51
250.7382520422814878
  0
ARC
  5
A3B6
  8
0
 10
2799.1327802947171222
 20
162.3439218664854025
 30
0.0
 40
0.0075767449992355
 50
278.0418365574345216
 51
307.8995226230567255
  0
ARC
  5
A3B7
  8
0
 10
2799.1285185472761441
 20
162.3149140633620107
 30
0.0
 40
0.0152495521412858
 50
305.7797929632736214
 51
328.2638295100952064
  0
ARC
  5
A3B8
  8
0
 10
2799.136601286566929
 20
162.3101200867344005
 30
0.0
 40
0.005856274967565
 50
326.5571773843502115
 51
354.3651719128931177
  0
ARC
  5
A3B9
  8
0
 10
2799.1464160462928703
 20
162.31496059560601
 30
0.0
 40
0.0153256432167427
 50
213.0602865094618892
 51
234.1231396748538032
  0
ARC
  5
A3BA
  8
0
 10
2799.1388616254807857
 20
162.3103232990295908
 30
0.0
 40
0.0064688171704399
 50
186.9096720066229977
 51
215.1385771574759929
  0
ARC
  5
A3BB
  8
0
 10
2799.1410881306619558
 20
162.3045819961554912
 30
0.0
 40
0.0035652785678729
 50
251.5335004818672076
 51
269.0334162827462023
  0
ARC
  5
A3BC
  8
0
 10
2799.1430624421841458
 20
162.3100818316316065
 30
0.0
 40
0.0094081917505271
 50
233.2594059553894112
 51
250.7382520422814878
  0
ARC
  5
A3BD
  8
0
 10
2799.1327802947171222
 20
162.308521285785389
 30
0.0
 40
0.0075767449992355
 50
278.0418365574345216
 51
307.8995226230567255
  0
ARC
  5
A3BE
  8
0
 10
2799.1285185472761441
 20
162.2795134825620096
 30
0.0
 40
0.0152495521412858
 50
305.7797929632736214
 51
328.2638295100952064
  0
ARC
  5
A3BF
  8
0
 10
2799.136601286566929
 20
162.2747195059343994
 30
0.0
 40
0.005856274967565
 50
326.5571773843502115
 51
354.3651719128931177
  0
ARC
  5
A3C0
  8
0
 10
2799.1464160462928703
 20
162.2795600148060089
 30
0.0
 40
0.0153256432167427
 50
213.0602865094618892
 51
234.1231396748538032
  0
ARC
  5
A3C1
  8
0
 10
2799.1388616254807857
 20
162.2749227182295897
 30
0.0
 40
0.0064688171704399
 50
186.9096720066229977
 51
215.1385771574759929
  0
ARC
  5
A3C2
  8
0
 10
2799.1410881306619558
 20
162.2691814153554901
 30
0.0
 40
0.0035652785678729
 50
251.5335004818672076
 51
269.0334162827462023
  0
ARC
  5
A3C3
  8
0
 10
2799.1430624421841458
 20
162.2746812508316054
 30
0.0
 40
0.0094081917505271
 50
233.2594059553894112
 51
250.7382520422814878
  0
ARC
  5
A3C4
  8
0
 10
2799.1327665049570896
 20
162.2731436516403107
 30
0.0
 40
0.0076033233908187
 50
278.1246982228008733
 51
307.8753009501260181
  0
ARC
  5
A3C5
  8
0
 10
2799.0645421692761374
 20
162.3503146440619958
 30
0.0
 40
0.0152495521412858
 50
305.7797929632736214
 51
328.2638295100952064
  0
ARC
  5
A3C6
  8
0
 10
2799.0726249085660129
 20
162.345520667434414
 30
0.0
 40
0.005856274967565
 50
326.5571773843502115
 51
354.3651719128931177
  0
ARC
  5
A3C7
  8
0
 10
2799.0824396682937731
 20
162.3503611763059951
 30
0.0
 40
0.0153256432167427
 50
213.0602865094618892
 51
234.1231396748538032
  0
ARC
  5
A3C8
  8
0
 10
2799.0748852474821433
 20
162.3457238797296043
 30
0.0
 40
0.0064688171704399
 50
186.9096720066229977
 51
215.1385771574759929
  0
ARC
  5
A3C9
  8
0
 10
2799.0771117526619491
 20
162.3399825768555047
 30
0.0
 40
0.0035652785678729
 50
251.5335004818672076
 51
269.0334162827462023
  0
ARC
  5
A3CA
  8
0
 10
2799.0790860641841391
 20
162.3454824123315916
 30
0.0
 40
0.0094081917505271
 50
233.2594059553894112
 51
250.7382520422814878
  0
ARC
  5
A3CB
  8
0
 10
2799.0687899832178118
 20
162.3439451512059009
 30
0.0
 40
0.0076036784913151
 50
278.1254110872627052
 51
307.8745919345972766
  0
ARC
  5
A3CC
  8
0
 10
2799.0645421692761374
 20
162.3149140633620107
 30
0.0
 40
0.0152495521412858
 50
305.7797929632736214
 51
328.2638295100952064
  0
ARC
  5
A3CD
  8
0
 10
2799.0726249085660129
 20
162.3101200867344005
 30
0.0
 40
0.005856274967565
 50
326.5571773843502115
 51
354.3651719128931177
  0
ARC
  5
A3CE
  8
0
 10
2799.0824396682937731
 20
162.31496059560601
 30
0.0
 40
0.0153256432167427
 50
213.0602865094618892
 51
234.1231396748538032
  0
ARC
  5
A3CF
  8
0
 10
2799.0748852474821433
 20
162.3103232990295908
 30
0.0
 40
0.0064688171704399
 50
186.9096720066229977
 51
215.1385771574759929
  0
ARC
  5
A3D0
  8
0
 10
2799.0771117526619491
 20
162.3045819961554912
 30
0.0
 40
0.0035652785678729
 50
251.5335004818672076
 51
269.0334162827462023
  0
ARC
  5
A3D1
  8
0
 10
2799.0790860641841391
 20
162.3100818316316065
 30
0.0
 40
0.0094081917505271
 50
233.2594059553894112
 51
250.7382520422814878
  0
ARC
  5
A3D2
  8
0
 10
2799.0687900615198487
 20
162.3085443860356065
 30
0.0
 40
0.007603484805747
 50
278.1250234342122098
 51
307.8749795876451003
  0
ARC
  5
A3D3
  8
0
 10
2799.0645421692761374
 20
162.2795134825620096
 30
0.0
 40
0.0152495521412858
 50
305.7797929632736214
 51
328.2638295100952064
  0
ARC
  5
A3D4
  8
0
 10
2799.0726249085660129
 20
162.2747195059343994
 30
0.0
 40
0.005856274967565
 50
326.5571773843502115
 51
354.3651719128931177
  0
ARC
  5
A3D5
  8
0
 10
2799.0824396682937731
 20
162.2795600148060089
 30
0.0
 40
0.0153256432167427
 50
213.0602865094618892
 51
234.1231396748538032
  0
ARC
  5
A3D6
  8
0
 10
2799.0748852474821433
 20
162.2749227182295897
 30
0.0
 40
0.0064688171704399
 50
186.9096720066229977
 51
215.1385771574759929
  0
ARC
  5
A3D7
  8
0
 10
2799.0771117526619491
 20
162.2691814153554901
 30
0.0
 40
0.0035652785678729
 50
251.5335004818672076
 51
269.0334162827462023
  0
ARC
  5
A3D8
  8
0
 10
2799.0790860641841391
 20
162.2746812508316054
 30
0.0
 40
0.0094081917505271
 50
233.2594059553894112
 51
250.7382520422814878
  0
ARC
  5
A3D9
  8
0
 10
2799.0687900229490879
 20
162.2731438965973894
 30
0.0
 40
0.007603580602889
 50
278.1252139718035892
 51
307.8747863480505771
  0
ARC
  5
A3DA
  8
0
 10
2799.0005657913761752
 20
162.3503146440619958
 30
0.0
 40
0.0152495521412858
 50
305.7797929632736214
 51
328.2638295100952064
  0
ARC
  5
A3DB
  8
0
 10
2799.0086485306669601
 20
162.345520667434414
 30
0.0
 40
0.005856274967565
 50
326.5571773843502115
 51
354.3651719128931177
  0
ARC
  5
A3DC
  8
0
 10
2799.0184632903929014
 20
162.3503611763059951
 30
0.0
 40
0.0153256432167427
 50
213.0602865094618892
 51
234.1231396748538032
  0
ARC
  5
A3DD
  8
0
 10
2799.0109088695808168
 20
162.3457238797296043
 30
0.0
 40
0.0064688171704399
 50
186.9096720066229977
 51
215.1385771574759929
  0
ARC
  5
A3DE
  8
0
 10
2799.0131353747619869
 20
162.3399825768555047
 30
0.0
 40
0.0035652785678729
 50
251.5335004818672076
 51
269.0334162827462023
  0
ARC
  5
A3DF
  8
0
 10
2799.0151096862841769
 20
162.3454824123315916
 30
0.0
 40
0.0094081917505271
 50
233.2594059553894112
 51
250.7382520422814878
  0
ARC
  5
A3E0
  8
0
 10
2799.0048275388171533
 20
162.3439218664854025
 30
0.0
 40
0.0075767449992355
 50
278.0418365574345216
 51
307.8995226230567255
  0
ARC
  5
A3E1
  8
0
 10
2799.0005657913761752
 20
162.3149140633620107
 30
0.0
 40
0.0152495521412858
 50
305.7797929632736214
 51
328.2638295100952064
  0
ARC
  5
A3E2
  8
0
 10
2799.0086485306669601
 20
162.3101200867344005
 30
0.0
 40
0.005856274967565
 50
326.5571773843502115
 51
354.3651719128931177
  0
ARC
  5
A3E3
  8
0
 10
2799.0184632903929014
 20
162.31496059560601
 30
0.0
 40
0.0153256432167427
 50
213.0602865094618892
 51
234.1231396748538032
  0
ARC
  5
A3E4
  8
0
 10
2799.0109088695808168
 20
162.3103232990295908
 30
0.0
 40
0.0064688171704399
 50
186.9096720066229977
 51
215.1385771574759929
  0
ARC
  5
A3E5
  8
0
 10
2799.0131353747619869
 20
162.3045819961554912
 30
0.0
 40
0.0035652785678729
 50
251.5335004818672076
 51
269.0334162827462023
  0
ARC
  5
A3E6
  8
0
 10
2799.0151096862841769
 20
162.3100818316316065
 30
0.0
 40
0.0094081917505271
 50
233.2594059553894112
 51
250.7382520422814878
  0
ARC
  5
A3E7
  8
0
 10
2799.0048275388171533
 20
162.308521285785389
 30
0.0
 40
0.0075767449992355
 50
278.0418365574345216
 51
307.8995226230567255
  0
ARC
  5
A3E8
  8
0
 10
2799.0005657913761752
 20
162.2795134825620096
 30
0.0
 40
0.0152495521412858
 50
305.7797929632736214
 51
328.2638295100952064
  0
ARC
  5
A3E9
  8
0
 10
2799.0086485306669601
 20
162.2747195059343994
 30
0.0
 40
0.005856274967565
 50
326.5571773843502115
 51
354.3651719128931177
  0
ARC
  5
A3EA
  8
0
 10
2799.0184632903929014
 20
162.2795600148060089
 30
0.0
 40
0.0153256432167427
 50
213.0602865094618892
 51
234.1231396748538032
  0
ARC
  5
A3EB
  8
0
 10
2799.0109088695808168
 20
162.2749227182295897
 30
0.0
 40
0.0064688171704399
 50
186.9096720066229977
 51
215.1385771574759929
  0
ARC
  5
A3EC
  8
0
 10
2799.0131353747619869
 20
162.2691814153554901
 30
0.0
 40
0.0035652785678729
 50
251.5335004818672076
 51
269.0334162827462023
  0
ARC
  5
A3ED
  8
0
 10
2799.0151096862841769
 20
162.2746812508316054
 30
0.0
 40
0.0094081917505271
 50
233.2594059553894112
 51
250.7382520422814878
  0
ARC
  5
A3EE
  8
0
 10
2799.004813842007934
 20
162.2731434326624935
 30
0.0
 40
0.0076030934746438
 50
278.1242380090379811
 51
307.8757611638874891
  0
ARC
  5
A3EF
  8
0
 10
2798.9365894133761685
 20
162.3503146440621094
 30
0.0
 40
0.0152495521412858
 50
305.7797929632736214
 51
328.2638295100952064
  0
ARC
  5
A3F0
  8
0
 10
2798.944672152666044
 20
162.345520667434414
 30
0.0
 40
0.005856274967565
 50
326.5571773843502115
 51
354.365171912894823
  0
ARC
  5
A3F1
  8
0
 10
2798.9544869123928947
 20
162.3503611763059951
 30
0.0
 40
0.0153256432167427
 50
213.0602865094618892
 51
234.1231396748538032
  0
ARC
  5
A3F2
  8
0
 10
2798.9469324915821744
 20
162.3457238797296043
 30
0.0
 40
0.0064688171704399
 50
186.9096720066229977
 51
215.1385771574759929
  0
ARC
  5
A3F3
  8
0
 10
2798.9491589967619802
 20
162.3399825768555047
 30
0.0
 40
0.0035652785678729
 50
251.5335004818672076
 51
269.0334162827462023
  0
ARC
  5
A3F4
  8
0
 10
2798.9511333082841702
 20
162.3454824123315916
 30
0.0
 40
0.0094081917505271
 50
233.2594059553894112
 51
250.7382520422814878
  0
ARC
  5
A3F5
  8
0
 10
2798.9408511608171466
 20
162.3439218664854025
 30
0.0
 40
0.0075767449992355
 50
277.9426162940226277
 51
307.8995226230567255
  0
ARC
  5
A3F6
  8
0
 10
2798.9365894133761685
 20
162.3149140633620107
 30
0.0
 40
0.0152495521412858
 50
305.7797929632736214
 51
328.2638295100952064
  0
ARC
  5
A3F7
  8
0
 10
2798.944672152666044
 20
162.3101200867344005
 30
0.0
 40
0.005856274967565
 50
326.5571773843502115
 51
354.365171912894823
  0
ARC
  5
A3F8
  8
0
 10
2798.9544869123928947
 20
162.31496059560601
 30
0.0
 40
0.0153256432167427
 50
213.0602865094618892
 51
234.1231396748538032
  0
ARC
  5
A3F9
  8
0
 10
2798.9469324915821744
 20
162.3103232990295908
 30
0.0
 40
0.0064688171704399
 50
186.9096720066229977
 51
215.1385771574759929
  0
ARC
  5
A3FA
  8
0
 10
2798.9491589967619802
 20
162.3045819961554912
 30
0.0
 40
0.0035652785678729
 50
251.5335004818672076
 51
269.0334162827462023
  0
ARC
  5
A3FB
  8
0
 10
2798.9511333082841702
 20
162.3100818316316065
 30
0.0
 40
0.0094081917505271
 50
233.2594059553894112
 51
250.7382520422814878
  0
ARC
  5
A3FC
  8
0
 10
2798.9408511608171466
 20
162.308521285785389
 30
0.0
 40
0.0075767449992355
 50
277.9426162940750942
 51
307.8995226230567255
  0
ARC
  5
A3FD
  8
0
 10
2798.9365894133761685
 20
162.2795134825620096
 30
0.0
 40
0.0152495521412858
 50
305.7797929632736214
 51
328.2638295100952064
  0
ARC
  5
A3FE
  8
0
 10
2798.944672152666044
 20
162.2747195059343994
 30
0.0
 40
0.005856274967565
 50
326.5571773843502115
 51
354.365171912894823
  0
ARC
  5
A3FF
  8
0
 10
2798.9544869123928947
 20
162.2795600148060089
 30
0.0
 40
0.0153256432167427
 50
213.0602865094618892
 51
234.1231396748538032
  0
ARC
  5
A400
  8
0
 10
2798.9469324915821744
 20
162.2749227182295897
 30
0.0
 40
0.0064688171704399
 50
186.9096720066229977
 51
215.1385771574759929
  0
ARC
  5
A401
  8
0
 10
2798.9491589967619802
 20
162.2691814153554901
 30
0.0
 40
0.0035652785678729
 50
251.5335004818672076
 51
269.0334162827462023
  0
ARC
  5
A402
  8
0
 10
2798.9511333082841702
 20
162.2746812508316054
 30
0.0
 40
0.0094081917505271
 50
233.2594059553894112
 51
250.7382520422814878
  0
ARC
  5
A403
  8
0
 10
2798.9408511608171466
 20
162.2731207049853879
 30
0.0
 40
0.0075767449992355
 50
277.9426217665553054
 51
307.8995226230567255
  0
ARC
  5
A404
  8
0
 10
2798.9433060504998139
 20
162.239552538013811
 30
0.0
 40
0.0027990628629548
 50
182.7175310213231967
 51
221.5103321812468948
  0
ARC
  5
A405
  8
0
 10
2798.9446570963009435
 20
162.2407632803111994
 30
0.0
 40
0.0046132142010402
 50
221.6498725733854087
 51
249.8473423423913005
  0
ARC
  5
A406
  8
0
 10
2798.9455142466690631
 20
162.2429669190044024
 30
0.0
 40
0.0069773976167231
 50
249.4739526534507945
 51
280.9424164835716056
  0
ARC
  5
A407
  8
0
 10
2798.9459836663791066
 20
162.2413436211764974
 30
0.0
 40
0.0052967104367526
 50
279.2898825068216979
 51
312.3679466776465006
  0
ARC
  5
A408
  8
0
 10
2798.9476150400992083
 20
162.2395737189644933
 30
0.0
 40
0.0028897116141665
 50
312.1182396918326276
 51
356.9472937666575945
  0
ARC
  5
A409
  8
0
 10
2799.0072824284998205
 20
162.239552538013811
 30
0.0
 40
0.0027990628629548
 50
182.7175310213231967
 51
221.5103321812468948
  0
ARC
  5
A40A
  8
0
 10
2799.0086334743009502
 20
162.2407632803111994
 30
0.0
 40
0.0046132142010402
 50
221.6498725733854087
 51
249.8473423423913005
  0
ARC
  5
A40B
  8
0
 10
2799.0094906246690698
 20
162.2429669190044024
 30
0.0
 40
0.0069773976167231
 50
249.4739526534507945
 51
280.9424164835716056
  0
ARC
  5
A40C
  8
0
 10
2799.0099600443791132
 20
162.2413436211764974
 30
0.0
 40
0.0052967104367526
 50
279.2898825068216979
 51
312.3679466776465006
  0
ARC
  5
A40D
  8
0
 10
2799.0115914180992149
 20
162.2395737189644933
 30
0.0
 40
0.0028897116141665
 50
312.1182396918326276
 51
356.9472937666575945
  0
ARC
  5
A40E
  8
0
 10
2799.0712588063997828
 20
162.239552538013811
 30
0.0
 40
0.0027990628629548
 50
182.7175310213231967
 51
221.5103321812468948
  0
ARC
  5
A40F
  8
0
 10
2799.0726098522009124
 20
162.2407632803111994
 30
0.0
 40
0.0046132142010402
 50
221.6498725733854087
 51
249.8473423423913005
  0
ARC
  5
A410
  8
0
 10
2799.073467002569032
 20
162.2429669190044024
 30
0.0
 40
0.0069773976167231
 50
249.4739526534507945
 51
280.9424164835716056
  0
ARC
  5
A411
  8
0
 10
2799.073936422279985
 20
162.2413436211764974
 30
0.0
 40
0.0052967104367526
 50
279.2898825068216979
 51
312.3679466776465006
  0
ARC
  5
A412
  8
0
 10
2799.0755677959991772
 20
162.2395737189644933
 30
0.0
 40
0.0028897116141665
 50
312.1182396918326276
 51
356.9472937666575945
  0
ARC
  5
A413
  8
0
 10
2799.1352351843997894
 20
162.239552538013811
 30
0.0
 40
0.0027990628629548
 50
182.7175310213231967
 51
221.5103321812468948
  0
ARC
  5
A414
  8
0
 10
2799.1365862302009191
 20
162.2407632803111994
 30
0.0
 40
0.0046132142010402
 50
221.6498725733854087
 51
249.8473423423913005
  0
ARC
  5
A415
  8
0
 10
2799.1374433805690387
 20
162.2429669190044024
 30
0.0
 40
0.0069773976167231
 50
249.4739526534507945
 51
280.9424164835716056
  0
ARC
  5
A416
  8
0
 10
2799.1379128002790821
 20
162.2413436211764974
 30
0.0
 40
0.0052967104367526
 50
279.2898825068216979
 51
312.3679466776465006
  0
ARC
  5
A417
  8
0
 10
2799.1395441739991838
 20
162.2395737189644933
 30
0.0
 40
0.0028897116141665
 50
312.1182396918326276
 51
356.9472937666575945
  0
ARC
  5
A418
  8
0
 10
2799.1992115623002064
 20
162.239552538013811
 30
0.0
 40
0.0027990628629548
 50
182.7175310213231967
 51
221.5103321812468948
  0
ARC
  5
A419
  8
0
 10
2799.2005626081008813
 20
162.2407632803111994
 30
0.0
 40
0.0046132142010402
 50
221.6498725733854087
 51
249.8473423423913005
  0
ARC
  5
A41A
  8
0
 10
2799.201419758469001
 20
162.2429669190044024
 30
0.0
 40
0.0069773976167231
 50
249.4739526534507945
 51
280.9424164835716056
  0
ARC
  5
A41B
  8
0
 10
2799.2018891781799539
 20
162.2413436211764974
 30
0.0
 40
0.0052967104367526
 50
279.2898825068216979
 51
312.3679466776465006
  0
ARC
  5
A41C
  8
0
 10
2799.2035205518991461
 20
162.2395737189644933
 30
0.0
 40
0.0028897116141665
 50
312.1182396918326276
 51
356.9472937666575945
  0
ARC
  5
A41D
  8
0
 10
2799.2567084540328324
 20
162.2439144694895958
 30
0.0
 40
0.0149422688660855
 50
312.0978177161271105
 51
328.8295720240785727
  0
ARC
  5
A41E
  8
0
 10
2799.2644707558220034
 20
162.2393571821461933
 30
0.0
 40
0.0059429906142096
 50
327.689017895930192
 51
354.0769625008977073
  0
ARC
  5
A41F
  8
0
 10
2799.2691587650001566
 20
162.2345137505058972
 30
0.0
 40
0.0043013725955084
 50
247.7372996884274983
 51
267.628006485033211
  0
ARC
  5
A420
  8
0
 10
2799.2714697196370253
 20
162.2400202322432961
 30
0.0
 40
0.0102730303868084
 50
233.6953829505604858
 51
247.4442850884082929
  0
ARC
  5
A421
  8
0
 10
2799.273944446284986
 20
162.2438279963602952
 30
0.0
 40
0.0147899844456389
 50
213.1446654075836875
 51
228.071860256641088
  0
ARC
  5
A422
  8
0
 10
2799.2702013425919176
 20
162.2412753515301063
 30
0.0
 40
0.0102606412890358
 50
202.4176425652917999
 51
212.6379025360224944
  0
ARC
  5
A423
  8
0
 10
2799.2650426218779103
 20
162.2391043679033942
 30
0.0
 40
0.0046640247473475
 50
184.4325063465342964
 51
201.930977840066987
  0
ARC
  5
A424
  8
0
 10
2799.2596471013780501
 20
162.2395097329838052
 30
0.0
 40
0.0096590235745235
 50
291.5624325002323189
 51
306.4614488962467931
  0
ARC
  5
A425
  8
0
 10
2799.2615334271449683
 20
162.2347168169372935
 30
0.0
 40
0.0045082799824923
 50
273.3112194501908903
 51
291.6533211411637012
  0
ARC
  5
A426
  8
0
 10
2799.2610473355639442
 20
162.231272609421012
 30
0.0
 40
0.0010567051438586
 50
252.5746757764752886
 51
269.0056238897794856
  0
ARC
  5
A427
  8
0
 10
2799.261512639790908
 20
162.2325120015887876
 30
0.0
 40
0.0023796741781214
 50
230.7389506790134988
 51
250.8216095352771049
  0
ARC
  5
A428
  8
0
 10
2799.2654770350150102
 20
162.2371126497027092
 30
0.0
 40
0.0084521832007086
 50
212.0922511116064015
 51
229.6680177226762964
  0
ARC
  5
A429
  8
0
 10
2799.2715836450402094
 20
162.241270181413995
 30
0.0
 40
0.0158369336121943
 50
198.351524846001098
 51
213.0976721055185124
  0
ARC
  5
A42A
  8
0
 10
2799.2650875123908918
 20
162.2392318925481902
 30
0.0
 40
0.0090301072095185
 50
183.0977431339792076
 51
199.0536462099514097
  0
ARC
  5
A42B
  8
0
 10
2799.2891501777407939
 20
162.2431451406544056
 30
0.0
 40
0.0306731934422362
 50
204.9299969731850979
 51
225.0045487274848028
  0
ARC
  5
A42C
  8
0
 10
2799.2726735894170815
 20
162.2267587554269141
 30
0.0
 40
0.00743585674902
 50
225.5102417923077098
 51
240.763913333261911
  0
ARC
  5
A42D
  8
0
 10
2799.2702395962378432
 20
162.2227733608791027
 30
0.0
 40
0.0027750364214588
 50
244.4298702666129088
 51
257.7542112019597766
  0
ARC
  5
A42E
  8
0
 10
2799.2697082911618054
 20
162.2206881768844937
 30
0.0
 40
0.0006293248654626
 50
264.7763187399269782
 51
327.6072261299984802
  0
ARC
  5
A42F
  8
0
 10
2799.2690277742390208
 20
162.2209569958820907
 30
0.0
 40
0.0013549646739018
 50
333.4348314623592842
 51
358.1324772685970856
  0
ENDSEC
  0
EOF
