  0
SECTION
  2
HEADER
  9
$ACADVER
  1
AC1009
  9
$INSBASE
 10
2795.9994226603898824
 20
159.9772312990735941
 30
0.0
  9
$EXTMIN
 10
2790.2776871492210375
 20
159.9666271801426944
 30
-0.0000000000112498
  9
$EXTMAX
 10
2797.5342498836907907
 20
166.4960844590551119
 30
0.0000000000002956
  9
$LIMMIN
 10
0.0
 20
0.0
  9
$LIMMAX
 10
11.6929133858000007
 20
8.2677165353999982
  9
$ORTHOMODE
 70
     0
  9
$REGENMODE
 70
     1
  9
$FILLMODE
 70
     1
  9
$QTEXTMODE
 70
     0
  9
$MIRRTEXT
 70
     0
  9
$DRAGMODE
 70
     2
  9
$LTSCALE
 40
0.6431102362
  9
$OSMODE
 70
   575
  9
$ATTMODE
 70
     1
  9
$TEXTSIZE
 40
0.2
  9
$TRACEWID
 40
0.05
  9
$TEXTSTYLE
  7
STANDARD
  9
$CLAYER
  8
0
  9
$CELTYPE
  6
BYLAYER
  9
$CECOLOR
 62
   256
  9
$DIMSCALE
 40
1.0
  9
$DIMASZ
 40
0.1875
  9
$DIMEXO
 40
0.0625
  9
$DIMDLI
 40
0.4443307087
  9
$DIMRND
 40
0.0
  9
$DIMDLE
 40
0.0
  9
$DIMEXE
 40
0.125
  9
$DIMTP
 40
0.01
  9
$DIMTM
 40
0.01
  9
$DIMTXT
 40
2.0
  9
$DIMCEN
 40
0.1052362205
  9
$DIMTSZ
 40
0.0
  9
$DIMTOL
 70
     1
  9
$DIMLIM
 70
     0
  9
$DIMTIH
 70
     1
  9
$DIMTOH
 70
     1
  9
$DIMSE1
 70
     0
  9
$DIMSE2
 70
     0
  9
$DIMTAD
 70
     0
  9
$DIMZIN
 70
     0
  9
$DIMBLK
  1

  9
$DIMASO
 70
     1
  9
$DIMSHO
 70
     1
  9
$DIMPOST
  1
\X
  9
$DIMAPOST
  1

  9
$DIMALT
 70
     1
  9
$DIMALTD
 70
     2
  9
$DIMALTF
 40
25.3999999999999986
  9
$DIMLFAC
 40
1.0
  9
$DIMTOFL
 70
     0
  9
$DIMTVP
 40
0.0
  9
$DIMTIX
 70
     0
  9
$DIMSOXD
 70
     0
  9
$DIMSAH
 70
     0
  9
$DIMBLK1
  1

  9
$DIMBLK2
  1

  9
$DIMSTYLE
  2
STANDARD
  9
$DIMCLRD
 70
     0
  9
$DIMCLRE
 70
     0
  9
$DIMCLRT
 70
     0
  9
$DIMTFAC
 40
1.0
  9
$DIMGAP
 40
0.09
  9
$LUNITS
 70
     2
  9
$LUPREC
 70
     4
  9
$SKETCHINC
 40
0.1
  9
$FILLETRAD
 40
0.0
  9
$AUNITS
 70
     0
  9
$AUPREC
 70
     0
  9
$MENU
  1
.
  9
$ELEVATION
 40
0.0
  9
$PELEVATION
 40
0.0
  9
$THICKNESS
 40
0.0
  9
$LIMCHECK
 70
     0
  9
$BLIPMODE
 70
     0
  9
$CHAMFERA
 40
0.0
  9
$CHAMFERB
 40
0.0
  9
$SKPOLY
 70
     0
  9
$TDCREATE
 40
2458060.468368056230247
  9
$TDUPDATE
 40
2459667.6701504630036652
  9
$TDINDWG
 40
1.0797177083
  9
$TDUSRTIMER
 40
1.0797177083
  9
$USRTIMER
 70
     1
  9
$ANGBASE
 50
0.0
  9
$ANGDIR
 70
     0
  9
$PDMODE
 70
     0
  9
$PDSIZE
 40
0.3125
  9
$PLINEWID
 40
0.0
  9
$COORDS
 70
     1
  9
$SPLFRAME
 70
     0
  9
$SPLINETYPE
 70
     6
  9
$SPLINESEGS
 70
     8
  9
$ATTDIA
 70
     1
  9
$ATTREQ
 70
     1
  9
$HANDLING
 70
     1
  9
$HANDSEED
  5
A0E6
  9
$SURFTAB1
 70
     6
  9
$SURFTAB2
 70
     6
  9
$SURFTYPE
 70
     6
  9
$SURFU
 70
     6
  9
$SURFV
 70
     6
  9
$UCSNAME
  2

  9
$UCSORG
 10
0.0
 20
0.0
 30
0.0
  9
$UCSXDIR
 10
1.0
 20
0.0
 30
0.0
  9
$UCSYDIR
 10
0.0
 20
1.0
 30
0.0
  9
$PUCSNAME
  2

  9
$PUCSORG
 10
0.0
 20
0.0
 30
0.0
  9
$PUCSXDIR
 10
1.0
 20
0.0
 30
0.0
  9
$PUCSYDIR
 10
0.0
 20
1.0
 30
0.0
  9
$USERI1
 70
     0
  9
$USERI2
 70
     0
  9
$USERI3
 70
     0
  9
$USERI4
 70
     0
  9
$USERI5
 70
     0
  9
$USERR1
 40
0.0
  9
$USERR2
 40
0.0
  9
$USERR3
 40
0.0
  9
$USERR4
 40
0.0
  9
$USERR5
 40
0.0
  9
$WORLDVIEW
 70
     1
  9
$SHADEDGE
 70
     3
  9
$SHADEDIF
 70
    70
  9
$TILEMODE
 70
     1
  9
$MAXACTVP
 70
    64
  9
$PLIMCHECK
 70
     0
  9
$PEXTMIN
 10
1.0000000000000000E+20
 20
1.0000000000000000E+20
 30
1.0000000000000000E+20
  9
$PEXTMAX
 10
-1.0000000000000000E+20
 20
-1.0000000000000000E+20
 30
-1.0000000000000000E+20
  9
$PLIMMIN
 10
0.0
 20
0.0
  9
$PLIMMAX
 10
12.0
 20
9.0
  9
$UNITMODE
 70
     0
  9
$VISRETAIN
 70
     1
  9
$PLINEGEN
 70
     0
  9
$PSLTSCALE
 70
     1
  0
ENDSEC
  0
SECTION
  2
TABLES
  0
TABLE
  2
VPORT
 70
     1
  0
VPORT
  2
*ACTIVE
 70
     0
 10
0.0
 20
0.0
 11
1.0
 21
1.0
 12
482.6807487937109045
 22
24.3489459737906699
 13
0.0
 23
0.0
 14
1.0
 24
1.0
 15
0.0
 25
0.0
 16
0.0
 26
0.0
 36
14.15189873613655
 17
2311.2252197265629547
 27
137.8012416672862912
 37
0.0
 40
10.5375830003293807
 41
2.2268786127167619
 42
50.0
 43
0.0
 44
0.0
 50
0.0
 51
0.0
 71
     0
 72
   100
 73
     1
 74
     1
 75
     0
 76
     0
 77
     0
 78
     0
  0
ENDTAB
  0
TABLE
  2
LTYPE
 70
     2
  0
LTYPE
  2
CONTINUOUS
 70
     0
  3
Solid line
 72
    65
 73
     0
 40
0.0
  0
LTYPE
  2
PHANTOM2
 70
     0
  3
___ _ _ ___ _ _ ___ _ _ ___ _ _
 72
    65
 73
     6
 40
1.25
 49
0.625
 49
-0.125
 49
0.125
 49
-0.125
 49
0.125
 49
-0.125
  0
ENDTAB
  0
TABLE
  2
LAYER
 70
     2
  0
LAYER
  2
0
 70
     0
 62
   255
  6
CONTINUOUS
  0
LAYER
  2
DEFPOINTS
 70
     0
 62
     7
  6
CONTINUOUS
  0
ENDTAB
  0
TABLE
  2
STYLE
 70
     1
  0
STYLE
  2
STANDARD
 70
     0
 40
0.0
 41
0.8
 50
0.0
 71
     0
 42
0.2
  3
txt
  4

  0
ENDTAB
  0
TABLE
  2
VIEW
 70
     0
  0
ENDTAB
  0
TABLE
  2
UCS
 70
     0
  0
ENDTAB
  0
TABLE
  2
APPID
 70
    10
  0
APPID
  2
ACAD
 70
     0
  0
APPID
  2
ACAD_MLEADERVER
 70
     0
  0
APPID
  2
ACAD_EXEMPT_FROM_CAD_STANDARDS
 70
     0
  0
APPID
  2
ACAD_NAV_VCDISPLAY
 70
     0
  0
APPID
  2
ACAECLAYERSTANDARD
 70
     0
  0
APPID
  2
ACCMTRANSPARENCY
 70
     0
  0
APPID
  2
ACAD_DSTYLE_DIMJAG
 70
     0
  0
APPID
  2
ACAD_DSTYLE_DIMTALN
 70
     0
  0
APPID
  2
ACDBATTR
 70
     0
  0
APPID
  2
DCO15
 70
     0
  0
ENDTAB
  0
TABLE
  2
DIMSTYLE
 70
     1
  0
DIMSTYLE
  2
STANDARD
 70
     0
  3

  4

  5

  6

  7

 40
1.0
 41
0.1875
 42
0.0625
 43
0.38
 44
0.125
 45
0.0
 46
0.0
 47
0.01
 48
0.01
140
0.15625
141
0.09
142
0.0
143
25.3999999999999986
144
1.0
145
0.0
146
1.0
147
0.09
 71
     1
 72
     0
 73
     1
 74
     1
 75
     0
 76
     0
 77
     0
 78
     4
170
     0
171
     2
172
     0
173
     0
174
     0
175
     0
176
     0
177
     0
178
     0
  0
ENDTAB
  0
ENDSEC
  0
SECTION
  2
BLOCKS
  0
BLOCK
  8
0
  2
$MODEL_SPACE
 70
     0
 10
0.0
 20
0.0
 30
0.0
  3
$MODEL_SPACE
  1

  0
ENDBLK
  5
21
  8
0
  0
BLOCK
 67
     1
  8
0
  2
$PAPER_SPACE
 70
     0
 10
0.0
 20
0.0
 30
0.0
  3
$PAPER_SPACE
  1

  0
ENDBLK
  5
1D
 67
     1
  8
0
  0
ENDSEC
  0
SECTION
  2
ENTITIES
  0
ATTDEF
  5
3930
  8
DEFPOINTS
 10
2795.9994228120908701
 20
159.9806650869873863
 30
0.0
 40
0.001
  1
K-EX28096K-4
  3

  2
MODELNUMBER
 70
     0
1001
ACDBATTR
1070
     0
1070
     1
  0
ATTDEF
  5
3931
  8
DEFPOINTS
 10
2795.9994228120908701
 20
159.9789984203206927
 30
0.0
 40
0.001
  1
COMPONENTS
  3

  2
TRADENAME
 70
     0
1001
ACDBATTR
1070
     0
1070
     1
  0
ATTDEF
  5
3932
  8
DEFPOINTS
 10
2795.9994228120908701
 20
159.9773317536541128
 30
0.0
 40
0.001
  1
BATHROOM SINK FAUCET
  3

  2
PRODUCT
 70
     0
1001
ACDBATTR
1070
     0
1070
     1
  0
LINE
  5
9F1A
  8
0
 10
2795.0545407706399601
 20
159.9772312990735941
 30
0.0
 11
2796.9443045501398046
 21
159.9772312990735941
 31
0.0
  0
LINE
  5
9F1B
  8
0
 10
2795.06285101614003
 20
160.1294166400736003
 30
0.0
 11
2796.9359943047397792
 21
160.1294166400736003
 31
0.0
  0
LINE
  5
9F1C
  8
0
 10
2796.8301313218389623
 20
160.1622706691734948
 30
0.0
 11
2795.1687139990399373
 21
160.1622706691734948
 31
0.0
  0
LINE
  5
9F1D
  8
0
 10
2790.3568785250399742
 20
163.3112903974734991
 30
0.0
 11
2790.8100059583398433
 21
163.7488704733735005
 31
0.0
  0
LINE
  5
9F1E
  8
0
 10
2790.3568785250399742
 20
163.3112903974734991
 30
0.0
 11
2790.6577148272399427
 21
162.999765287073501
 31
0.0
  0
LINE
  5
9F1F
  8
0
 10
2791.1108422605398118
 20
163.4373453629735025
 30
0.0
 11
2790.6577148272399427
 21
162.999765287073501
 31
0.0
  0
LINE
  5
9F20
  8
0
 10
2796.9359943047397792
 20
160.1294166400736003
 30
0.0
 11
2796.8301313218389623
 21
160.1622706691734948
 31
0.0
  0
LINE
  5
9F21
  8
0
 10
2793.1844620305400895
 20
166.2764438975735004
 30
0.0
 11
2793.1844620305400895
 21
166.4732942912735041
 31
0.0
  0
LINE
  5
9F22
  8
0
 10
2796.9825176946401371
 20
162.1403106955735041
 30
0.0
 11
2797.2144559254397791
 21
162.0418587576735092
 31
0.0
  0
LINE
  5
9F23
  8
0
 10
2795.4470345346389877
 20
163.8709320864736014
 30
0.0
 11
2792.8104462824398979
 21
163.8709320864736014
 31
0.0
  0
LINE
  5
9F24
  8
0
 10
2797.1901897539401034
 20
162.6295553999734977
 30
0.0
 11
2797.4221279791399866
 21
162.5311034644734889
 31
0.0
  0
LINE
  5
9F25
  8
0
 10
2795.0545407706399601
 20
159.9772312990735941
 30
0.0
 11
2795.0545407706399601
 21
160.1181363549735011
 31
0.0
  0
LINE
  5
9F26
  8
0
 10
2795.1726510068401694
 20
165.7134517715734887
 30
0.0
 11
2795.1726510068401694
 21
164.3040029526734997
 31
0.0
  0
LINE
  5
9F27
  8
0
 10
2795.1726510068401694
 20
163.8709320864736014
 30
0.0
 11
2795.1726510068401694
 21
160.1622706691734948
 31
0.0
  0
LINE
  5
9F28
  8
0
 10
2795.1726510068401694
 20
165.8236879920735021
 30
0.0
 11
2795.1726510068401694
 21
166.1780187006735048
 31
0.0
  0
LINE
  5
9F29
  8
0
 10
2795.1943045501398046
 20
165.7463170561734955
 30
0.0
 11
2795.1943045501398046
 21
165.7291998030734987
 31
0.0
  0
LINE
  5
9F2A
  8
0
 10
2792.8104462824398979
 20
164.3040029526734997
 30
0.0
 11
2795.4470345346389877
 21
164.3040029526734997
 31
0.0
  0
LINE
  5
9F2B
  8
0
 10
2795.2651706919400567
 20
165.7252627951735064
 30
0.0
 11
2795.2651706919400567
 21
165.7291998030734987
 31
0.0
  0
LINE
  5
9F2C
  8
0
 10
2795.4581959361398731
 20
163.8807746061735031
 30
0.0
 11
2795.4581959361398731
 21
164.2941604329735981
 31
0.0
  0
LINE
  5
9F2D
  8
0
 10
2796.8143832903401744
 20
165.7252627951735064
 30
0.0
 11
2795.1844620305400895
 21
165.7252627951735064
 31
0.0
  0
LINE
  5
9F2E
  8
0
 10
2795.194304550239849
 20
165.7291998030734987
 30
0.0
 11
2796.8045407706399601
 21
165.7291998030734987
 31
0.0
  0
LINE
  5
9F2F
  8
0
 10
2795.1726510068401694
 20
165.8236879920735021
 30
0.0
 11
2796.8261943139400501
 21
165.8236879920735021
 31
0.0
  0
LINE
  5
9F30
  8
0
 10
2796.7336746289402072
 20
165.7252627951735064
 30
0.0
 11
2796.7336746289402072
 21
165.7291998030734987
 31
0.0
  0
LINE
  5
9F31
  8
0
 10
2796.8045407706399601
 20
165.7463170561734955
 30
0.0
 11
2796.8045407706399601
 21
165.7291998030734987
 31
0.0
  0
LINE
  5
9F32
  8
0
 10
2796.8261943139400501
 20
165.7134517715734887
 30
0.0
 11
2796.8261943139400501
 21
165.4299872045735071
 31
0.0
  0
LINE
  5
9F33
  8
0
 10
2796.8261943139400501
 20
165.2725068896735081
 30
0.0
 11
2796.8261943139400501
 21
161.7015038709735109
 31
0.0
  0
LINE
  5
9F34
  8
0
 10
2796.8261943139400501
 20
161.1977037400735071
 30
0.0
 11
2796.8261943139400501
 21
160.1622706691734948
 31
0.0
  0
LINE
  5
9F35
  8
0
 10
2796.8261943139400501
 20
165.8236879920735021
 30
0.0
 11
2796.8261943139400501
 21
166.4732942912735041
 31
0.0
  0
LINE
  5
9F36
  8
0
 10
2796.9443045501398046
 20
159.9772312990735941
 30
0.0
 11
2796.9443045501398046
 21
160.1181363549735011
 31
0.0
  0
LINE
  5
9F37
  8
0
 10
2795.0939108494399079
 20
166.2567588581734981
 30
0.0
 11
2793.204147069840019
 21
166.2567588581734981
 31
0.0
  0
LINE
  5
9F38
  8
0
 10
2796.9762605246401108
 20
162.1557977347735005
 30
0.0
 11
2797.1747027119399718
 21
162.6232982311734929
 31
0.0
  0
LINE
  5
9F39
  8
0
 10
2797.0169460257329774
 20
162.1256967360588135
 30
0.0
 11
2796.8249589113579532
 21
161.6734034383717926
 31
0.0
  0
LINE
  5
9F3A
  8
0
 10
2797.1800275943460292
 20
162.0564727171883135
 30
0.0
 11
2796.8251806644261706
 21
161.2205057380448068
 31
0.0
  0
LINE
  5
9F3B
  8
0
 10
2797.2299429646400313
 20
162.048115927673507
 30
0.0
 11
2797.4283851519398922
 21
162.5156164240734995
 31
0.0
  0
LINE
  5
9F3C
  8
0
 10
2795.06285101614003
 20
160.1294166400736003
 30
0.0
 11
2795.1687139990399373
 21
160.1622706691734948
 31
0.0
  0
LINE
  5
9F3D
  8
0
 10
2793.204147069840019
 20
166.4929793305734904
 30
0.0
 11
2796.8065092745400761
 21
166.4929793305734904
 31
0.0
  0
ARC
  5
9F3E
  8
0
 10
2792.8104462824398979
 20
156.5874675195734937
 30
0.0
 40
7.7165354330999989
 50
90.0
 51
97.2219129219998734
  0
ARC
  5
9F3F
  8
0
 10
2792.8104462824398979
 20
156.5874675195734937
 30
0.0
 40
7.2834645669000002
 50
90.0
 51
97.2219129219998734
  0
ARC
  5
9F40
  8
0
 10
2792.0680486765400019
 20
162.4461291026734955
 30
0.0
 40
1.8110236219999989
 50
97.2219129219998734
 51
133.9999999999965894
  0
ARC
  5
9F41
  8
0
 10
2792.0680486765400019
 20
162.4461291026734955
 30
0.0
 40
1.3779527558999991
 50
97.2219129219998734
 51
134.0000000001004139
  0
ARC
  5
9F42
  8
0
 10
2795.9994226604399046
 20
164.7055777557735041
 30
0.0
 40
1.315809052499999
 50
121.8153881930310973
 51
127.7256114341068951
  0
ARC
  5
9F43
  8
0
 10
2795.9994226604399046
 20
164.7055777557735041
 30
0.0
 40
1.315809052499999
 50
52.2743885658930978
 51
58.1846118069688387
  0
ARC
  5
9F44
  8
0
 10
2797.6537020043401753
 20
165.3510325544735053
 30
0.0
 40
0.8312657903999999
 50
174.549760311199293
 51
179.9852158889000009
  0
ARC
  5
9F45
  8
0
 10
2797.653691534239897
 20
165.3514610400735023
 30
0.0
 40
0.8312553202
 50
180.0147498537992874
 51
185.4502739460999976
  0
ARC
  5
9F46
  8
0
 10
2795.0939108494399079
 20
166.1780187006735048
 30
0.0
 40
0.0787401575
 50
0.0
 51
90.0
  0
ARC
  5
9F47
  8
0
 10
2793.204147069840019
 20
166.4732942912735041
 30
0.0
 40
0.0196850394
 50
90.0
 51
180.0
  0
ARC
  5
9F48
  8
0
 10
2793.204147069840019
 20
166.2764438975735004
 30
0.0
 40
0.0196850394
 50
180.0
 51
270.0
  0
ARC
  5
9F49
  8
0
 10
2796.8065092745400761
 20
166.4732942912735041
 30
0.0
 40
0.0196850394
 50
0.0
 51
90.0
  0
ARC
  5
9F4A
  8
0
 10
2797.2190708600401194
 20
162.0527308622735063
 30
0.0
 40
0.0118110236
 50
246.9999999999994031
 51
336.9999999999956799
  0
ARC
  5
9F4B
  8
0
 10
2796.9871326292400227
 20
162.1511828001735012
 30
0.0
 40
0.0118110236
 50
156.9999999999955946
 51
246.9999999999994031
  0
ARC
  5
9F4C
  8
0
 10
2797.417513047229022
 20
162.5202313586792968
 30
0.0
 40
0.0118110237042798
 50
337.000000184432281
 51
67.0000142803262833
  0
ARC
  5
9F4D
  8
0
 10
2797.1855748165990008
 20
162.618683296514007
 30
0.0
 40
0.0118110236770706
 50
66.9999856046642179
 51
156.9999998451393139
  0
ARC
  5
9F4E
  8
0
 10
2795.0663517942398357
 20
160.1181363549735011
 30
0.0
 40
0.0118110236
 50
107.2414593985893987
 51
180.0
  0
ARC
  5
9F4F
  8
0
 10
2796.932493526539929
 20
160.1181363549735011
 30
0.0
 40
0.0118110236
 50
0.0
 51
72.7585406014105587
  0
ARC
  5
9F50
  8
0
 10
2796.8143832903401744
 20
165.7134517715734887
 30
0.0
 40
0.0118110236
 50
0.0
 51
90.0
  0
ARC
  5
9F51
  8
0
 10
2795.1844620305400895
 20
165.7134517715734887
 30
0.0
 40
0.0118110236
 50
90.0
 51
180.0
  0
ARC
  5
9F52
  8
0
 10
2802.2357026361560202
 20
161.4496038055235942
 30
0.0
 40
5.4153701564254417
 50
177.3338811536023911
 51
182.6661188463976089
  0
ARC
  5
9F53
  8
0
 10
2795.4475632166340802
 20
163.8815823274622119
 30
0.0
 40
0.0106633549020462
 50
267.1581485495922266
 51
355.655833314613119
  0
ARC
  5
9F54
  8
0
 10
2795.4475632165549541
 20
164.2933527115947072
 30
0.0
 40
0.0106633549882024
 50
4.3441671363300474
 51
92.8418509994646683
  0
LINE
  5
9F56
  8
0
 10
2796.6694212835400322
 20
165.8236879920735021
 30
0.0
 11
2796.6651131822932257
 21
165.813539856197707
 31
0.0
  0
ARC
  5
9F57
  8
0
 10
2796.7028061449268534
 20
165.9559733108706041
 30
0.0
 40
0.1503203564629968
 50
241.6450960835418869
 51
250.1529047128910008
  0
ARC
  5
9F58
  8
0
 10
2796.6691958545097805
 20
165.8639433142267023
 30
0.0
 40
0.0523469848512052
 50
250.5564581197934899
 51
258.6890575629748241
  0
ARC
  5
9F59
  8
0
 10
2796.6616516245308048
 20
165.8247836746089092
 30
0.0
 40
0.0124714658104208
 50
257.3896563841677789
 51
279.1597496925735982
  0
ARC
  5
9F5A
  8
0
 10
2796.6632800382321875
 20
165.8145182752872984
 30
0.0
 40
0.0020779126695651
 50
279.8898230758272803
 51
331.9094541315071751
  0
ENDSEC
  0
EOF
