  0
SECTION
  2
HEADER
  9
$ACADVER
  1
AC1009
  9
$INSBASE
 10
2802.4101887582041854
 20
165.5109010843974886
 30
0.0
  9
$EXTMIN
 10
2801.4653068684538084
 20
159.8683563542211914
 30
0.0
  9
$EXTMAX
 10
2803.3550706480541521
 20
166.9408024939390884
 30
0.0
  9
$LIMMIN
 10
0.0
 20
0.0
  9
$LIMMAX
 10
11.6929133858000007
 20
8.2677165353999982
  9
$ORTHOMODE
 70
     0
  9
$REGENMODE
 70
     1
  9
$FILLMODE
 70
     1
  9
$QTEXTMODE
 70
     0
  9
$MIRRTEXT
 70
     0
  9
$DRAGMODE
 70
     2
  9
$LTSCALE
 40
0.6431102362
  9
$OSMODE
 70
   575
  9
$ATTMODE
 70
     1
  9
$TEXTSIZE
 40
0.2
  9
$TRACEWID
 40
0.05
  9
$TEXTSTYLE
  7
STANDARD
  9
$CLAYER
  8
0
  9
$CELTYPE
  6
BYLAYER
  9
$CECOLOR
 62
   256
  9
$DIMSCALE
 40
1.0
  9
$DIMASZ
 40
0.1875
  9
$DIMEXO
 40
0.0625
  9
$DIMDLI
 40
0.4443307087
  9
$DIMRND
 40
0.0
  9
$DIMDLE
 40
0.0
  9
$DIMEXE
 40
0.125
  9
$DIMTP
 40
0.01
  9
$DIMTM
 40
0.01
  9
$DIMTXT
 40
2.0
  9
$DIMCEN
 40
0.1052362205
  9
$DIMTSZ
 40
0.0
  9
$DIMTOL
 70
     1
  9
$DIMLIM
 70
     0
  9
$DIMTIH
 70
     1
  9
$DIMTOH
 70
     1
  9
$DIMSE1
 70
     0
  9
$DIMSE2
 70
     0
  9
$DIMTAD
 70
     0
  9
$DIMZIN
 70
     0
  9
$DIMBLK
  1

  9
$DIMASO
 70
     1
  9
$DIMSHO
 70
     1
  9
$DIMPOST
  1
\X
  9
$DIMAPOST
  1

  9
$DIMALT
 70
     1
  9
$DIMALTD
 70
     2
  9
$DIMALTF
 40
25.3999999999999986
  9
$DIMLFAC
 40
1.0
  9
$DIMTOFL
 70
     0
  9
$DIMTVP
 40
0.0
  9
$DIMTIX
 70
     0
  9
$DIMSOXD
 70
     0
  9
$DIMSAH
 70
     0
  9
$DIMBLK1
  1

  9
$DIMBLK2
  1

  9
$DIMSTYLE
  2
STANDARD
  9
$DIMCLRD
 70
     0
  9
$DIMCLRE
 70
     0
  9
$DIMCLRT
 70
     0
  9
$DIMTFAC
 40
1.0
  9
$DIMGAP
 40
0.09
  9
$LUNITS
 70
     2
  9
$LUPREC
 70
     4
  9
$SKETCHINC
 40
0.1
  9
$FILLETRAD
 40
0.0
  9
$AUNITS
 70
     0
  9
$AUPREC
 70
     0
  9
$MENU
  1
.
  9
$ELEVATION
 40
0.0
  9
$PELEVATION
 40
0.0
  9
$THICKNESS
 40
0.0
  9
$LIMCHECK
 70
     0
  9
$BLIPMODE
 70
     0
  9
$CHAMFERA
 40
0.0
  9
$CHAMFERB
 40
0.0
  9
$SKPOLY
 70
     0
  9
$TDCREATE
 40
2458060.468368056230247
  9
$TDUPDATE
 40
2459667.6691087959334254
  9
$TDINDWG
 40
1.080608912
  9
$TDUSRTIMER
 40
1.080608912
  9
$USRTIMER
 70
     1
  9
$ANGBASE
 50
0.0
  9
$ANGDIR
 70
     0
  9
$PDMODE
 70
     0
  9
$PDSIZE
 40
0.3125
  9
$PLINEWID
 40
0.0
  9
$COORDS
 70
     1
  9
$SPLFRAME
 70
     0
  9
$SPLINETYPE
 70
     6
  9
$SPLINESEGS
 70
     8
  9
$ATTDIA
 70
     1
  9
$ATTREQ
 70
     1
  9
$HANDLING
 70
     1
  9
$HANDSEED
  5
9FA7
  9
$SURFTAB1
 70
     6
  9
$SURFTAB2
 70
     6
  9
$SURFTYPE
 70
     6
  9
$SURFU
 70
     6
  9
$SURFV
 70
     6
  9
$UCSNAME
  2

  9
$UCSORG
 10
0.0
 20
0.0
 30
0.0
  9
$UCSXDIR
 10
1.0
 20
0.0
 30
0.0
  9
$UCSYDIR
 10
0.0
 20
1.0
 30
0.0
  9
$PUCSNAME
  2

  9
$PUCSORG
 10
0.0
 20
0.0
 30
0.0
  9
$PUCSXDIR
 10
1.0
 20
0.0
 30
0.0
  9
$PUCSYDIR
 10
0.0
 20
1.0
 30
0.0
  9
$USERI1
 70
     0
  9
$USERI2
 70
     0
  9
$USERI3
 70
     0
  9
$USERI4
 70
     0
  9
$USERI5
 70
     0
  9
$USERR1
 40
0.0
  9
$USERR2
 40
0.0
  9
$USERR3
 40
0.0
  9
$USERR4
 40
0.0
  9
$USERR5
 40
0.0
  9
$WORLDVIEW
 70
     1
  9
$SHADEDGE
 70
     3
  9
$SHADEDIF
 70
    70
  9
$TILEMODE
 70
     1
  9
$MAXACTVP
 70
    64
  9
$PLIMCHECK
 70
     0
  9
$PEXTMIN
 10
1.0000000000000000E+20
 20
1.0000000000000000E+20
 30
1.0000000000000000E+20
  9
$PEXTMAX
 10
-1.0000000000000000E+20
 20
-1.0000000000000000E+20
 30
-1.0000000000000000E+20
  9
$PLIMMIN
 10
0.0
 20
0.0
  9
$PLIMMAX
 10
12.0
 20
9.0
  9
$UNITMODE
 70
     0
  9
$VISRETAIN
 70
     1
  9
$PLINEGEN
 70
     0
  9
$PSLTSCALE
 70
     1
  0
ENDSEC
  0
SECTION
  2
TABLES
  0
TABLE
  2
VPORT
 70
     1
  0
VPORT
  2
*ACTIVE
 70
     0
 10
0.0
 20
0.0
 11
1.0
 21
1.0
 12
492.0700812847344991
 22
24.0502161625876312
 13
0.0
 23
0.0
 14
1.0
 24
1.0
 15
0.0
 25
0.0
 16
0.0
 26
0.0
 36
14.15189873613655
 17
2311.2252197265629547
 27
137.8012416672862912
 37
0.0
 40
11.5565606705404296
 41
2.2268786127167619
 42
50.0
 43
0.0
 44
0.0
 50
0.0
 51
0.0
 71
     0
 72
   100
 73
     1
 74
     1
 75
     0
 76
     0
 77
     0
 78
     0
  0
ENDTAB
  0
TABLE
  2
LTYPE
 70
     2
  0
LTYPE
  2
CONTINUOUS
 70
     0
  3
Solid line
 72
    65
 73
     0
 40
0.0
  0
LTYPE
  2
PHANTOM2
 70
     0
  3
___ _ _ ___ _ _ ___ _ _ ___ _ _
 72
    65
 73
     6
 40
1.25
 49
0.625
 49
-0.125
 49
0.125
 49
-0.125
 49
0.125
 49
-0.125
  0
ENDTAB
  0
TABLE
  2
LAYER
 70
     2
  0
LAYER
  2
0
 70
     0
 62
   255
  6
CONTINUOUS
  0
LAYER
  2
DEFPOINTS
 70
     0
 62
     7
  6
CONTINUOUS
  0
ENDTAB
  0
TABLE
  2
STYLE
 70
     1
  0
STYLE
  2
STANDARD
 70
     0
 40
0.0
 41
0.8
 50
0.0
 71
     0
 42
0.2
  3
txt
  4

  0
ENDTAB
  0
TABLE
  2
VIEW
 70
     0
  0
ENDTAB
  0
TABLE
  2
UCS
 70
     0
  0
ENDTAB
  0
TABLE
  2
APPID
 70
    10
  0
APPID
  2
ACAD
 70
     0
  0
APPID
  2
ACAD_MLEADERVER
 70
     0
  0
APPID
  2
ACAD_EXEMPT_FROM_CAD_STANDARDS
 70
     0
  0
APPID
  2
ACAD_NAV_VCDISPLAY
 70
     0
  0
APPID
  2
ACAECLAYERSTANDARD
 70
     0
  0
APPID
  2
ACCMTRANSPARENCY
 70
     0
  0
APPID
  2
ACAD_DSTYLE_DIMJAG
 70
     0
  0
APPID
  2
ACAD_DSTYLE_DIMTALN
 70
     0
  0
APPID
  2
ACDBATTR
 70
     0
  0
APPID
  2
DCO15
 70
     0
  0
ENDTAB
  0
TABLE
  2
DIMSTYLE
 70
     1
  0
DIMSTYLE
  2
STANDARD
 70
     0
  3

  4

  5

  6

  7

 40
1.0
 41
0.1875
 42
0.0625
 43
0.38
 44
0.125
 45
0.0
 46
0.0
 47
0.01
 48
0.01
140
0.15625
141
0.09
142
0.0
143
25.3999999999999986
144
1.0
145
0.0
146
1.0
147
0.09
 71
     1
 72
     0
 73
     1
 74
     1
 75
     0
 76
     0
 77
     0
 78
     4
170
     0
171
     2
172
     0
173
     0
174
     0
175
     0
176
     0
177
     0
178
     0
  0
ENDTAB
  0
ENDSEC
  0
SECTION
  2
BLOCKS
  0
BLOCK
  8
0
  2
$MODEL_SPACE
 70
     0
 10
0.0
 20
0.0
 30
0.0
  3
$MODEL_SPACE
  1

  0
ENDBLK
  5
21
  8
0
  0
BLOCK
 67
     1
  8
0
  2
$PAPER_SPACE
 70
     0
 10
0.0
 20
0.0
 30
0.0
  3
$PAPER_SPACE
  1

  0
ENDBLK
  5
1D
 67
     1
  8
0
  0
ENDSEC
  0
SECTION
  2
ENTITIES
  0
ATTDEF
  5
3930
  8
DEFPOINTS
 10
2802.4101813583420153
 20
165.5098610442298934
 30
0.0
 40
0.001
  1
K-EX28096K-4
  3

  2
MODELNUMBER
 70
     0
1001
ACDBATTR
1070
     0
1070
     1
  0
ATTDEF
  5
3931
  8
DEFPOINTS
 10
2802.4101813583420153
 20
165.5081943775631999
 30
0.0
 40
0.001
  1
COMPONENTS
  3

  2
TRADENAME
 70
     0
1001
ACDBATTR
1070
     0
1070
     1
  0
ATTDEF
  5
3932
  8
DEFPOINTS
 10
2802.4101813583420153
 20
165.5065277108965915
 30
0.0
 40
0.001
  1
BATHROOM SINK FAUCET
  3

  2
PRODUCT
 70
     0
1001
ACDBATTR
1070
     0
1070
     1
  0
LINE
  5
9E7D
  8
0
 10
2801.7950312778539228
 20
159.8683569489475076
 30
0.0
 11
2803.0253462385539933
 21
159.8683569489475076
 31
0.0
  0
LINE
  5
9E7E
  8
0
 10
2802.9810548999539606
 20
162.6959404543474932
 30
0.0
 11
2801.8393226164539556
 21
162.6959404543474932
 31
0.0
  0
LINE
  5
9E7F
  8
0
 10
2801.7851887582542076
 20
159.8751941376474974
 30
0.0
 11
2801.7851887582542076
 21
164.9636791182998934
 31
0.0
  0
LINE
  5
9E80
  8
0
 10
2801.8196375771540261
 20
162.7156254937474955
 30
0.0
 11
2801.8196375771540261
 21
164.9009824471474985
 31
0.0
  0
LINE
  5
9E81
  8
0
 10
2802.2723934826540244
 20
166.6145801684475032
 30
0.0
 11
2802.2723934826540244
 21
166.8130223557475063
 31
0.0
  0
LINE
  5
9E82
  8
0
 10
2802.3216060810541421
 20
166.5166938708991893
 30
0.0
 11
2802.3216060810541421
 21
166.3329135394475031
 31
0.0
  0
LINE
  5
9E83
  8
0
 10
2802.498771435353774
 20
166.5166937632722011
 30
0.0
 11
2802.498771435353774
 21
166.3329135394475031
 31
0.0
  0
LINE
  5
9E84
  8
0
 10
2802.5479840337538917
 20
166.6145801685474908
 30
0.0
 11
2802.5479840337538917
 21
166.8130223551474955
 31
0.0
  0
LINE
  5
9E85
  8
0
 10
2803.0007399393539345
 20
164.9009824471474985
 30
0.0
 11
2803.0007399393539345
 21
162.7156254937474955
 31
0.0
  0
LINE
  5
9E86
  8
0
 10
2803.0351887582542076
 20
159.8751941376474974
 30
0.0
 11
2803.0351887582542076
 21
164.9636791182998934
 31
0.0
  0
ARC
  5
9E87
  8
0
 10
2801.8393226164539556
 20
162.7156254937474955
 30
0.0
 40
0.0196850394
 50
180.0
 51
270.0
  0
ARC
  5
9E88
  8
0
 10
2802.9810548999539606
 20
162.7156254937474955
 30
0.0
 40
0.0196850394
 50
270.0
 51
0.0
  0
ARC
  5
9E89
  8
0
 10
2802.4101887582542076
 20
165.5109010843474948
 30
0.0
 40
0.9448818898
 50
95.3793789930225131
 51
228.5888113638359869
  0
ARC
  5
9E8A
  8
0
 10
2802.4101887582542076
 20
165.5109010843474948
 30
0.0
 40
0.9448818898
 50
311.4111886361640131
 51
84.6206210130751941
  0
ARC
  5
9E8B
  8
0
 10
2802.4101887582542076
 20
165.5109010843474948
 30
0.0
 40
0.8307086613999999
 50
96.1213781914312904
 51
222.4149249061989906
  0
ARC
  5
9E8C
  8
0
 10
2802.4101887582542076
 20
165.5109010843474948
 30
0.0
 40
0.8307086613999999
 50
316.048997352694812
 51
83.878621815512787
  0
ARC
  5
9E8D
  8
0
 10
2803.0748352062610138
 20
164.9018505108678028
 30
0.0
 40
0.0741003517366548
 50
153.9831223986398072
 51
180.6712184762606057
  0
ARC
  5
9E8E
  8
0
 10
2801.7921043739288507
 20
159.8759864057718119
 30
0.0
 40
0.0069608497283929
 50
186.5354383087831991
 51
248.9276174941659008
  0
ARC
  5
9E8F
  8
0
 10
2801.7949461784219238
 20
159.8815141787329139
 30
0.0
 40
0.0131575049891934
 50
246.0337525261529947
 51
270.3705772736623771
  0
ARC
  5
9E90
  8
0
 10
2803.0254700359801063
 20
159.8812414051170947
 30
0.0
 40
0.0128850508958838
 50
269.4495032109390991
 51
297.1781866114221202
  0
ARC
  5
9E91
  8
0
 10
2803.0278954658060684
 20
159.8766958505771925
 30
0.0
 40
0.0077339604733288
 50
296.5750279170522958
 51
327.1991053992234129
  0
ARC
  5
9E92
  8
0
 10
2803.0298900284101364
 20
159.8753199506128908
 30
0.0
 40
0.0053126042895671
 50
328.0190730831849919
 51
348.3506950248519161
  0
ARC
  5
9E93
  8
0
 10
2803.0303840801871047
 20
159.8752007125071088
 30
0.0
 40
0.0048046825661111
 50
348.553690810007879
 51
359.9215948563804091
  0
ARC
  5
9E94
  8
0
 10
2802.3979300203868661
 20
166.6163799675603059
 30
0.0
 40
0.1255494387993987
 50
180.8213849969804983
 51
232.5607864921744863
  0
ARC
  5
9E95
  8
0
 10
2802.4101888288550981
 20
166.6329931047746982
 30
0.0
 40
0.1461930744188263
 50
232.704217024626189
 51
307.2957133616416172
  0
ARC
  5
9E96
  8
0
 10
2802.4236324592779965
 20
166.6157841151554919
 30
0.0
 40
0.1243574025223971
 50
307.1725878530868954
 51
359.4452912683431123
  0
ARC
  5
9E97
  8
0
 10
2802.4101887582291965
 20
166.8244494096418862
 30
0.0
 40
0.1382682737704668
 50
184.7405636822686006
 51
355.2594360683028754
  0
ARC
  5
9E98
  8
0
 10
2802.4101887582041854
 20
166.8026147357238926
 30
0.0
 40
0.1381877582151773
 50
4.3193254556097784
 51
175.6806745443821001
  0
ARC
  5
9E99
  8
0
 10
2801.6970997142047963
 20
164.874822569917086
 30
0.0
 40
0.1252991102637188
 50
12.0508335094238301
 51
37.2081374301080601
  0
ARC
  5
9E9B
  8
0
 10
2802.4101887582041854
 20
165.5109010843974886
 30
0.0
 40
0.8267716534500024
 50
317.6573945410524971
 51
222.3426054542734107
  0
ARC
  5
9E9C
  8
0
 10
2801.7408974187051172
 20
164.9009824469794125
 30
0.0
 40
0.0787401583995399
 50
0.0000002927356067
 51
42.3426050994326673
  0
ARC
  5
9E9D
  8
0
 10
2803.0773874634669482
 20
164.9026690837931994
 30
0.0
 40
0.0760575480190367
 50
137.5346976659106986
 51
155.380773424504099
  0
ENDSEC
  0
EOF
