  0
SECTION
  2
HEADER
  9
$ACADVER
  1
AC1009
  9
$INSBASE
 10
360.8734163705473179
 20
11.3899578187933699
 30
0.0
  9
$EXTMIN
 10
359.9179829411302762
 20
3.5232345352508281
 30
-0.0000000000112498
  9
$EXTMAX
 10
361.8228070861337073
 20
12.3350853288390496
 30
0.0000000000002956
  9
$LIMMIN
 10
0.0
 20
0.0
  9
$LIMMAX
 10
11.6929133858000007
 20
8.2677165353999982
  9
$ORTHOMODE
 70
     1
  9
$REGENMODE
 70
     1
  9
$FILLMODE
 70
     1
  9
$QTEXTMODE
 70
     0
  9
$MIRRTEXT
 70
     0
  9
$DRAGMODE
 70
     2
  9
$LTSCALE
 40
0.6431102362
  9
$OSMODE
 70
     7
  9
$ATTMODE
 70
     1
  9
$TEXTSIZE
 40
0.2
  9
$TRACEWID
 40
0.05
  9
$TEXTSTYLE
  7
STANDARD
  9
$CLAYER
  8
0
  9
$CELTYPE
  6
BYLAYER
  9
$CECOLOR
 62
   256
  9
$DIMSCALE
 40
1.0
  9
$DIMASZ
 40
0.1875
  9
$DIMEXO
 40
0.0625
  9
$DIMDLI
 40
0.4443307087
  9
$DIMRND
 40
0.0
  9
$DIMDLE
 40
0.0
  9
$DIMEXE
 40
0.125
  9
$DIMTP
 40
0.01
  9
$DIMTM
 40
0.01
  9
$DIMTXT
 40
2.0
  9
$DIMCEN
 40
0.1052362205
  9
$DIMTSZ
 40
0.0
  9
$DIMTOL
 70
     1
  9
$DIMLIM
 70
     0
  9
$DIMTIH
 70
     1
  9
$DIMTOH
 70
     1
  9
$DIMSE1
 70
     0
  9
$DIMSE2
 70
     0
  9
$DIMTAD
 70
     0
  9
$DIMZIN
 70
     0
  9
$DIMBLK
  1

  9
$DIMASO
 70
     1
  9
$DIMSHO
 70
     1
  9
$DIMPOST
  1
\X
  9
$DIMAPOST
  1

  9
$DIMALT
 70
     1
  9
$DIMALTD
 70
     2
  9
$DIMALTF
 40
25.3999999999999986
  9
$DIMLFAC
 40
1.0
  9
$DIMTOFL
 70
     0
  9
$DIMTVP
 40
0.0
  9
$DIMTIX
 70
     0
  9
$DIMSOXD
 70
     0
  9
$DIMSAH
 70
     0
  9
$DIMBLK1
  1

  9
$DIMBLK2
  1

  9
$DIMSTYLE
  2
STANDARD
  9
$DIMCLRD
 70
     0
  9
$DIMCLRE
 70
     0
  9
$DIMCLRT
 70
     0
  9
$DIMTFAC
 40
1.0
  9
$DIMGAP
 40
0.09
  9
$LUNITS
 70
     2
  9
$LUPREC
 70
     4
  9
$SKETCHINC
 40
0.1
  9
$FILLETRAD
 40
0.0
  9
$AUNITS
 70
     0
  9
$AUPREC
 70
     0
  9
$MENU
  1
.
  9
$ELEVATION
 40
0.0
  9
$PELEVATION
 40
0.0
  9
$THICKNESS
 40
0.0
  9
$LIMCHECK
 70
     0
  9
$BLIPMODE
 70
     0
  9
$CHAMFERA
 40
0.0
  9
$CHAMFERB
 40
0.0
  9
$SKPOLY
 70
     0
  9
$TDCREATE
 40
2458106.4931018520146608
  9
$TDUPDATE
 40
2459676.7145486110821366
  9
$TDINDWG
 40
0.2167693981
  9
$TDUSRTIMER
 40
0.2167693981
  9
$USRTIMER
 70
     1
  9
$ANGBASE
 50
0.0
  9
$ANGDIR
 70
     0
  9
$PDMODE
 70
     0
  9
$PDSIZE
 40
0.3125
  9
$PLINEWID
 40
0.0
  9
$COORDS
 70
     1
  9
$SPLFRAME
 70
     0
  9
$SPLINETYPE
 70
     6
  9
$SPLINESEGS
 70
     8
  9
$ATTDIA
 70
     1
  9
$ATTREQ
 70
     1
  9
$HANDLING
 70
     1
  9
$HANDSEED
  5
522E
  9
$SURFTAB1
 70
     6
  9
$SURFTAB2
 70
     6
  9
$SURFTYPE
 70
     6
  9
$SURFU
 70
     6
  9
$SURFV
 70
     6
  9
$UCSNAME
  2

  9
$UCSORG
 10
0.0
 20
0.0
 30
0.0
  9
$UCSXDIR
 10
1.0
 20
0.0
 30
0.0
  9
$UCSYDIR
 10
0.0
 20
1.0
 30
0.0
  9
$PUCSNAME
  2

  9
$PUCSORG
 10
0.0
 20
0.0
 30
0.0
  9
$PUCSXDIR
 10
1.0
 20
0.0
 30
0.0
  9
$PUCSYDIR
 10
0.0
 20
1.0
 30
0.0
  9
$USERI1
 70
     0
  9
$USERI2
 70
     0
  9
$USERI3
 70
     0
  9
$USERI4
 70
     0
  9
$USERI5
 70
     0
  9
$USERR1
 40
0.0
  9
$USERR2
 40
0.0
  9
$USERR3
 40
0.0
  9
$USERR4
 40
0.0
  9
$USERR5
 40
0.0
  9
$WORLDVIEW
 70
     1
  9
$SHADEDGE
 70
     3
  9
$SHADEDIF
 70
    70
  9
$TILEMODE
 70
     1
  9
$MAXACTVP
 70
    64
  9
$PLIMCHECK
 70
     0
  9
$PEXTMIN
 10
1.0000000000000000E+20
 20
1.0000000000000000E+20
 30
1.0000000000000000E+20
  9
$PEXTMAX
 10
-1.0000000000000000E+20
 20
-1.0000000000000000E+20
 30
-1.0000000000000000E+20
  9
$PLIMMIN
 10
0.0
 20
0.0
  9
$PLIMMAX
 10
12.0
 20
9.0
  9
$UNITMODE
 70
     0
  9
$VISRETAIN
 70
     1
  9
$PLINEGEN
 70
     0
  9
$PSLTSCALE
 70
     1
  0
ENDSEC
  0
SECTION
  2
TABLES
  0
TABLE
  2
VPORT
 70
     1
  0
VPORT
  2
*ACTIVE
 70
     0
 10
0.0
 20
0.0
 11
1.0
 21
1.0
 12
87.2961934571188749
 22
25.5351206660664189
 13
0.0
 23
0.0
 14
1.0
 24
1.0
 15
0.0
 25
0.0
 16
-0.0000000000000568
 26
0.0
 36
193.9250709296327955
 17
273.5742015565131169
 27
-17.6059607340214797
 37
0.0
 40
8.8749428040435063
 41
2.2831541218637992
 42
50.0
 43
0.0
 44
0.0
 50
0.0
 51
0.0
 71
     0
 72
   100
 73
     1
 74
     1
 75
     0
 76
     0
 77
     0
 78
     0
  0
ENDTAB
  0
TABLE
  2
LTYPE
 70
     2
  0
LTYPE
  2
CONTINUOUS
 70
     0
  3
Solid line
 72
    65
 73
     0
 40
0.0
  0
LTYPE
  2
PHANTOM2
 70
     0
  3
___ _ _ ___ _ _ ___ _ _ ___ _ _
 72
    65
 73
     6
 40
1.25
 49
0.625
 49
-0.125
 49
0.125
 49
-0.125
 49
0.125
 49
-0.125
  0
ENDTAB
  0
TABLE
  2
LAYER
 70
     2
  0
LAYER
  2
0
 70
     0
 62
   255
  6
CONTINUOUS
  0
LAYER
  2
DEFPOINTS
 70
     0
 62
     7
  6
CONTINUOUS
  0
ENDTAB
  0
TABLE
  2
STYLE
 70
     1
  0
STYLE
  2
STANDARD
 70
     0
 40
0.0
 41
0.8
 50
0.0
 71
     0
 42
0.2
  3
txt
  4

  0
ENDTAB
  0
TABLE
  2
VIEW
 70
     0
  0
ENDTAB
  0
TABLE
  2
UCS
 70
     0
  0
ENDTAB
  0
TABLE
  2
APPID
 70
     9
  0
APPID
  2
ACAD
 70
     0
  0
APPID
  2
ACAD_MLEADERVER
 70
     0
  0
APPID
  2
ACAD_EXEMPT_FROM_CAD_STANDARDS
 70
     0
  0
APPID
  2
ACAD_NAV_VCDISPLAY
 70
     0
  0
APPID
  2
ACAD_DSTYLE_DIMJAG
 70
     0
  0
APPID
  2
ACAD_DSTYLE_DIMTALN
 70
     0
  0
APPID
  2
ACAECLAYERSTANDARD
 70
     0
  0
APPID
  2
ACCMTRANSPARENCY
 70
     0
  0
APPID
  2
ACDBATTR
 70
     0
  0
ENDTAB
  0
TABLE
  2
DIMSTYLE
 70
     1
  0
DIMSTYLE
  2
STANDARD
 70
     0
  3

  4

  5

  6

  7

 40
1.0
 41
0.1875
 42
0.0625
 43
0.38
 44
0.125
 45
0.0
 46
0.0
 47
0.01
 48
0.01
140
0.15625
141
0.09
142
0.0
143
25.3999999999999986
144
1.0
145
0.0
146
1.0
147
0.09
 71
     1
 72
     0
 73
     1
 74
     1
 75
     0
 76
     0
 77
     0
 78
     4
170
     0
171
     2
172
     0
173
     0
174
     0
175
     0
176
     0
177
     0
178
     0
  0
ENDTAB
  0
ENDSEC
  0
SECTION
  2
BLOCKS
  0
BLOCK
  8
0
  2
$MODEL_SPACE
 70
     0
 10
0.0
 20
0.0
 30
0.0
  3
$MODEL_SPACE
  1

  0
ENDBLK
  5
21
  8
0
  0
BLOCK
 67
     1
  8
0
  2
$PAPER_SPACE
 70
     0
 10
0.0
 20
0.0
 30
0.0
  3
$PAPER_SPACE
  1

  0
ENDBLK
  5
1D
 67
     1
  8
0
  0
BLOCK
  8
0
  2
*U0
 70
     1
 10
0.0
 20
0.0
 30
0.0
  3
*U0
  1

  0
ARC
  5
2491
  8
0
 10
0.8232588021359976
 20
-0.0017121382794052
 30
0.0
 40
0.8166016608999997
 50
179.1228157720869092
 51
180.61096396185701
  0
ARC
  5
2492
  8
0
 10
0.8225954609359974
 20
-0.0020412533794048
 30
0.0
 40
0.8166016609000003
 50
179.0997213778393871
 51
180.5891010244334893
  0
ARC
  5
2493
  8
0
 10
0.8219167846359978
 20
-0.0023349206794041
 30
0.0
 40
0.8166026295
 50
179.0791183337705945
 51
180.5690347302206931
  0
ARC
  5
2494
  8
0
 10
0.8212248230359984
 20
-0.0025916810794033
 30
0.0
 40
0.8166043920000005
 50
179.061077517981488
 51
180.5538784673788939
  0
ARC
  5
2495
  8
0
 10
0.8205150358359976
 20
-0.0028144686794036
 30
0.0
 40
0.8166016608999997
 50
179.0454638591239132
 51
180.5386783924801932
  0
ARC
  5
2496
  8
0
 10
0.8239040113359986
 20
0.0229273456205945
 30
0.0
 40
0.8166016609000003
 50
180.85167775154639
 51
182.3380479481103862
  0
ARC
  5
2497
  8
0
 10
0.8197977634359983
 20
-0.002998475379405
 30
0.0
 40
0.8166016608999996
 50
179.0325518926127017
 51
180.5270884661377977
  0
ARC
  5
2498
  8
0
 10
0.8232588036359986
 20
0.0232907263205959
 30
0.0
 40
0.8166016609000006
 50
180.877177353206406
 51
182.3647238914813897
  0
ARC
  5
2499
  8
0
 10
0.8190718438359985
 20
-0.0031446907794042
 30
0.0
 40
0.8166016608999996
 50
179.0222918299911044
 51
180.518165207339905
  0
ARC
  5
249A
  8
0
 10
0.8225954623359985
 20
0.0236198414205955
 30
0.0
 40
0.8166016609000003
 50
180.9002723703503932
 51
182.3890295574884135
  0
ARC
  5
249B
  8
0
 10
0.8183392668359984
 20
-0.0032527141794052
 30
0.0
 40
0.8166016608999999
 50
179.0147118141981935
 51
180.5119336121649951
  0
ARC
  5
249C
  8
0
 10
0.8219167846359978
 20
0.0239135053205946
 30
0.0
 40
0.8166026295000005
 50
180.9208816662323045
 51
182.4108805946947029
  0
ARC
  5
249D
  8
0
 10
0.8176020402359984
 20
-0.003322249379405
 30
0.0
 40
0.8166016609000001
 50
179.0098326524934009
 51
180.5084104717203957
  0
ARC
  5
249E
  8
0
 10
0.8212247565359982
 20
0.0241703131205942
 30
0.0
 40
0.8166043144999999
 50
180.938875425927705
 51
182.4294508911106902
  0
ARC
  5
249F
  8
0
 10
0.8168621847359993
 20
-0.0033531057794036
 30
0.0
 40
0.8166016609000006
 50
179.0076677353843877
 51
180.5076052600946923
  0
ARC
  5
24A0
  8
0
 10
0.8205150367359985
 20
0.0243930569205961
 30
0.0
 40
0.8166016608999997
 50
180.9545323502883889
 51
182.4479649741809055
  0
ARC
  5
24A1
  8
0
 10
0.8161217283359976
 20
-0.0033451988794031
 30
0.0
 40
0.8166016608999999
 50
179.0082230012459092
 51
180.5095204882611881
  0
ARC
  5
24A2
  8
0
 10
0.8197977641359983
 20
0.0245770637205958
 30
0.0
 40
0.8166016608999996
 50
180.9674451985021051
 51
182.4613181832440034
  0
ARC
  5
24A3
  8
0
 10
0.8153827005359985
 20
-0.0032985502794052
 30
0.0
 40
0.8166016609000001
 50
179.0114969363067985
 51
180.5140881665464008
  0
ARC
  5
24A4
  8
0
 10
0.8190718443359984
 20
0.0247232791205949
 30
0.0
 40
0.8166016608999999
 50
180.9777061140381136
 51
182.4729091004201109
  0
ARC
  5
24A5
  8
0
 10
0.8146481159359977
 20
-0.0032135354794054
 30
0.0
 40
0.8166026295
 50
179.0174630453228133
 51
180.5200021006953079
  0
ARC
  5
24A6
  8
0
 10
0.8183392671359976
 20
0.0248313025205942
 30
0.0
 40
0.8166016609000006
 50
180.9852869617143085
 51
182.4818328836782086
  0
ARC
  5
24A7
  8
0
 10
0.8176020403359984
 20
0.0249008377205939
 30
0.0
 40
0.8166016608999996
 50
180.9901669414834942
 51
182.4880655664231881
  0
ARC
  5
24A8
  8
0
 10
0.8168621846359975
 20
0.0249316941205962
 30
0.0
 40
0.8166016608999999
 50
180.9923326697548873
 51
182.491589736966489
  0
ARC
  5
24A9
  8
0
 10
0.8139204794359979
 20
-0.0030899157794035
 30
0.0
 40
0.8166043919999999
 50
179.0261475650140994
 51
180.5329752396903871
  0
ARC
  5
24AA
  8
0
 10
0.8161217280359984
 20
0.0249237872205956
 30
0.0
 40
0.8166016609000003
 50
180.991778214835989
 51
182.4923955404599951
  0
ARC
  5
24AB
  8
0
 10
0.8131943919359985
 20
-0.002927961879406
 30
0.0
 40
0.8166016608999997
 50
179.0375036311097858
 51
180.5441684276864862
  0
ARC
  5
24AC
  8
0
 10
0.8153827000359986
 20
0.0248771386205959
 30
0.0
 40
0.8166016608999999
 50
180.9885050972112879
 51
182.4904810687150984
  0
ARC
  5
24AD
  8
0
 10
0.8124812124359985
 20
-0.0027286801794055
 30
0.0
 40
0.8166016609000006
 50
179.0514883682301956
 51
180.5594583859079876
  0
ARC
  5
24AE
  8
0
 10
0.8146481159359977
 20
0.0247921202205941
 30
0.0
 40
0.8166026294999994
 50
180.9825369546753109
 51
182.4858029652461084
  0
ARC
  5
24AF
  8
0
 10
0.8117794399359992
 20
-0.0024923465794053
 30
0.0
 40
0.8166016609000001
 50
179.0680731134766006
 51
180.5773265193595023
  0
ARC
  5
24B0
  8
0
 10
0.8139203981359983
 20
0.0246685082205946
 30
0.0
 40
0.8166043144999999
 50
180.9738681682532899
 51
182.4770659588824913
  0
ARC
  5
24B1
  8
0
 10
0.8110909978359988
 20
-0.0022196090794058
 30
0.0
 40
0.8166016608999999
 50
179.0872121512946933
 51
180.5977237049359019
  0
ARC
  5
24B2
  8
0
 10
0.8131943909359975
 20
0.024506550020595
 30
0.0
 40
0.8166016609000003
 50
180.9625005458090072
 51
182.4700039857771969
  0
ARC
  5
24B3
  8
0
 10
0.810417773335998
 20
-0.0019112149794047
 30
0.0
 40
0.8166016609000003
 50
179.108853655454908
 51
180.6205940160135128
  0
ARC
  5
24B4
  8
0
 10
0.8124812112359984
 20
0.0243072683205945
 30
0.0
 40
0.8166016609000001
 50
180.9485167179545044
 51
182.4558361892262042
  0
ARC
  5
24B5
  8
0
 10
0.8097616114359986
 20
-0.0015680096794046
 30
0.0
 40
0.8166016608999997
 50
179.1329371543261004
 51
180.6458747810893044
  0
ARC
  5
24B6
  8
0
 10
0.811779438535999
 20
0.0240709347205943
 30
0.0
 40
0.8166016608999997
 50
180.9319329259938058
 51
182.4405471096970075
  0
ARC
  5
24B7
  8
0
 10
0.8091243108359985
 20
-0.0011909338794034
 30
0.0
 40
0.8166016609000001
 50
179.1593977323292961
 51
180.6734969146453977
  0
ARC
  5
24B8
  8
0
 10
0.8110909963359986
 20
0.0237981970205947
 30
0.0
 40
0.8166016609000001
 50
180.9127944552330973
 51
182.4226799587455048
  0
ARC
  5
24B9
  8
0
 10
0.8104177715359988
 20
0.0234898029205937
 30
0.0
 40
0.8166016608999997
 50
180.8911544648755125
 51
182.4022836612043932
  0
ARC
  5
24BA
  8
0
 10
0.8097616096359976
 20
0.0231465975205953
 30
0.0
 40
0.8166016609000001
 50
180.8670711915455911
 51
182.3794141513145064
  0
ARC
  5
24BB
  8
0
 10
0.8245293150359991
 20
-0.0009521074794048
 30
0.0
 40
0.8166016608999996
 50
179.1761470180331912
 51
180.6619434872386876
  0
ARC
  5
24BC
  8
0
 10
0.8239040096359984
 20
-0.0013487576794056
 30
0.0
 40
0.8166016609000003
 50
179.1483142238683115
 51
180.6352686932293921
  0
ARC
  5
24BD
  8
0
 10
0.8091243088359991
 20
0.0227695216205959
 30
0.0
 40
0.8166016609000003
 50
180.8406118327256991
 51
182.3541342255668098
  0
ARC
  5
24BE
  8
0
 10
0.8085076160359987
 20
0.0223596088205955
 30
0.0
 40
0.8166016608999996
 50
180.8118485184546103
 51
182.3265134712544011
  0
ENDBLK
  5
24BF
  8
0
  0
ENDSEC
  0
SECTION
  2
ENTITIES
  0
ATTDEF
  5
FAA
  8
DEFPOINTS
 10
360.8736338618126069
 20
11.3935701623814101
 30
0.0
 40
0.001
  1
K-EX28095T-8
  3

  2
MODELNUMBER
 70
     0
1001
ACDBATTR
1070
     0
1070
     1
  0
ATTDEF
  5
FAB
  8
DEFPOINTS
 10
360.8736338618126069
 20
11.3919034957147502
 30
0.0
 40
0.001
  1

  3

  2
TRADENAME
 70
     0
1001
ACDBATTR
1070
     0
1070
     1
  0
ATTDEF
  5
FAC
  8
DEFPOINTS
 10
360.8736338618126069
 20
11.3902368290480798
 30
0.0
 40
0.001
  1
BATHROOM SINK FAUCET
  3

  2
PRODUCT
 70
     0
1001
ACDBATTR
1070
     0
1070
     1
  0
ARC
  5
246D
  8
0
 10
360.8734163705473179
 20
11.3899578187933699
 30
0.0
 40
0.9448818898000004
 50
304.2497132551209233
 51
235.7502867448791051
  0
ARC
  5
246E
  8
0
 10
360.8734163705473179
 20
11.3899578187933699
 30
0.0
 40
0.8307086614000001
 50
316.1320536645174002
 51
223.8679463354802976
  0
CIRCLE
  5
246F
  8
0
 10
360.8734163705473179
 20
11.3899578187933699
 30
0.0
 40
0.8266529528068957
  0
CIRCLE
  5
2470
  8
0
 10
360.8734163705473179
 20
11.3899578187933699
 30
0.0
 40
0.7963276299133053
  0
CIRCLE
  5
2471
  8
0
 10
360.8734163705473179
 20
11.3899578187933699
 30
0.0
 40
0.7559055118000009
  0
LINE
  5
2473
  8
0
 10
360.3419203075472979
 20
10.5939906290929198
 30
0.0
 11
360.3419203075472979
 21
4.041890543543853
 31
0.0
  0
ARC
  5
2474
  8
0
 10
359.9481253806832228
 20
10.5939667903542798
 30
0.0
 40
0.3937949275856383
 50
0.003468452852418
 51
40.4183820342746216
  0
LINE
  5
2475
  8
0
 10
361.4049124335472811
 20
10.5939906290929198
 30
0.0
 11
361.4049124335472811
 21
4.041890543543853
 31
0.0
  0
ARC
  5
2476
  8
0
 10
361.798707360411413
 20
10.5939667903542798
 30
0.0
 40
0.3937949275856383
 50
139.581617965725286
 51
179.9965315471467875
  0
ARC
  5
2477
  8
0
 10
360.8998246288134055
 20
4.2374166487392664
 30
0.0
 40
0.557966774831744
 50
180.8572670486462926
 51
204.1374532746883119
  0
ARC
  5
2478
  8
0
 10
360.8878378044599913
 20
4.2323592909812042
 30
0.0
 40
0.544959978544833
 50
204.16758139171381
 51
223.9257664511582107
  0
ARC
  5
2479
  8
0
 10
360.8785159952743129
 20
4.2233836205884892
 30
0.0
 40
0.5320193919754328
 50
223.9259979689587112
 51
242.9859331551913044
  0
ARC
  5
247A
  8
0
 10
360.8470081122811166
 20
4.2374166487392664
 30
0.0
 40
0.557966774831744
 50
335.8625467253116881
 51
359.1427329513535938
  0
ARC
  5
247B
  8
0
 10
360.858994936634474
 20
4.2323592909812042
 30
0.0
 40
0.544959978544833
 50
316.0742335488416757
 51
335.8324186082861047
  0
ARC
  5
247C
  8
0
 10
360.8683167458203229
 20
4.2233836205884892
 30
0.0
 40
0.5320193919754328
 50
297.0140668448055976
 51
316.074002031039015
  0
ARC
  5
247D
  8
0
 10
360.8734163705473179
 20
4.2126969665339651
 30
0.0
 40
0.5201825010652839
 50
242.951705797147298
 51
297.0482942028526168
  0
ARC
  5
247E
  8
0
 10
360.8470850938846866
 20
4.0419204347207334
 30
0.0
 40
0.5051647872217327
 50
180.0033902567072914
 51
192.3386191801114933
  0
ARC
  5
247F
  8
0
 10
360.8557847523819078
 20
4.0446821185582813
 30
0.0
 40
0.5142543243254921
 50
192.4320825172883076
 51
226.2295925164953019
  0
LINE
  5
2480
  8
0
 10
361.4049124335472811
 20
10.5939906290929198
 30
0.0
 11
361.4049124335472811
 21
4.041890543543853
 31
0.0
  0
ARC
  5
2481
  8
0
 10
360.8997476472098924
 20
4.0419204347207334
 30
0.0
 40
0.5051647872217327
 50
347.661380819888393
 51
359.9966097432924812
  0
ARC
  5
2482
  8
0
 10
360.8910479887127281
 20
4.0446821185582813
 30
0.0
 40
0.5142543243254921
 50
313.7704074835045844
 51
347.5679174827117208
  0
ARC
  5
2483
  8
0
 10
360.8734163705473179
 20
4.0655129672975043
 30
0.0
 40
0.5414962770541285
 50
226.4071485600157985
 51
313.5928514399840878
  0
CIRCLE
  5
2484
  8
0
 10
360.8734163705473179
 20
11.3899578187933699
 30
0.0
 40
0.8267716535000033
  0
ENDSEC
  0
EOF
