  0
SECTION
  2
HEADER
  9
$ACADVER
  1
AC1009
  9
$INSBASE
 10
359.1602940006191034
 20
12.9682292527354299
 30
0.0
  9
$EXTMIN
 10
358.1922418375880284
 20
5.1014368142756288
 30
-0.0000000000000058
  9
$EXTMAX
 10
360.1155540052050128
 20
13.9134533467666497
 30
0.0000000000000104
  9
$LIMMIN
 10
0.0
 20
0.0
  9
$LIMMAX
 10
11.6929133858000007
 20
8.2677165353999982
  9
$ORTHOMODE
 70
     1
  9
$REGENMODE
 70
     1
  9
$FILLMODE
 70
     1
  9
$QTEXTMODE
 70
     0
  9
$MIRRTEXT
 70
     0
  9
$DRAGMODE
 70
     2
  9
$LTSCALE
 40
0.6431102362
  9
$OSMODE
 70
     7
  9
$ATTMODE
 70
     1
  9
$TEXTSIZE
 40
0.2
  9
$TRACEWID
 40
0.05
  9
$TEXTSTYLE
  7
STANDARD
  9
$CLAYER
  8
0
  9
$CELTYPE
  6
BYLAYER
  9
$CECOLOR
 62
   256
  9
$DIMSCALE
 40
1.0
  9
$DIMASZ
 40
0.1875
  9
$DIMEXO
 40
0.0625
  9
$DIMDLI
 40
0.4443307087
  9
$DIMRND
 40
0.0
  9
$DIMDLE
 40
0.0
  9
$DIMEXE
 40
0.125
  9
$DIMTP
 40
0.01
  9
$DIMTM
 40
0.01
  9
$DIMTXT
 40
2.0
  9
$DIMCEN
 40
0.1052362205
  9
$DIMTSZ
 40
0.0
  9
$DIMTOL
 70
     1
  9
$DIMLIM
 70
     0
  9
$DIMTIH
 70
     1
  9
$DIMTOH
 70
     1
  9
$DIMSE1
 70
     0
  9
$DIMSE2
 70
     0
  9
$DIMTAD
 70
     0
  9
$DIMZIN
 70
     0
  9
$DIMBLK
  1

  9
$DIMASO
 70
     1
  9
$DIMSHO
 70
     1
  9
$DIMPOST
  1
\X
  9
$DIMAPOST
  1

  9
$DIMALT
 70
     1
  9
$DIMALTD
 70
     2
  9
$DIMALTF
 40
25.3999999999999986
  9
$DIMLFAC
 40
1.0
  9
$DIMTOFL
 70
     0
  9
$DIMTVP
 40
0.0
  9
$DIMTIX
 70
     0
  9
$DIMSOXD
 70
     0
  9
$DIMSAH
 70
     0
  9
$DIMBLK1
  1

  9
$DIMBLK2
  1

  9
$DIMSTYLE
  2
STANDARD
  9
$DIMCLRD
 70
     0
  9
$DIMCLRE
 70
     0
  9
$DIMCLRT
 70
     0
  9
$DIMTFAC
 40
1.0
  9
$DIMGAP
 40
0.09
  9
$LUNITS
 70
     2
  9
$LUPREC
 70
     4
  9
$SKETCHINC
 40
0.1
  9
$FILLETRAD
 40
0.0
  9
$AUNITS
 70
     0
  9
$AUPREC
 70
     0
  9
$MENU
  1
.
  9
$ELEVATION
 40
0.0
  9
$PELEVATION
 40
0.0
  9
$THICKNESS
 40
0.0
  9
$LIMCHECK
 70
     0
  9
$BLIPMODE
 70
     0
  9
$CHAMFERA
 40
0.0
  9
$CHAMFERB
 40
0.0
  9
$SKPOLY
 70
     0
  9
$TDCREATE
 40
2458106.4931018520146608
  9
$TDUPDATE
 40
2459676.7082060188986361
  9
$TDINDWG
 40
0.2142809722
  9
$TDUSRTIMER
 40
0.2142809722
  9
$USRTIMER
 70
     1
  9
$ANGBASE
 50
0.0
  9
$ANGDIR
 70
     0
  9
$PDMODE
 70
     0
  9
$PDSIZE
 40
0.3125
  9
$PLINEWID
 40
0.0
  9
$COORDS
 70
     1
  9
$SPLFRAME
 70
     0
  9
$SPLINETYPE
 70
     6
  9
$SPLINESEGS
 70
     8
  9
$ATTDIA
 70
     1
  9
$ATTREQ
 70
     1
  9
$HANDLING
 70
     1
  9
$HANDSEED
  5
4D0A
  9
$SURFTAB1
 70
     6
  9
$SURFTAB2
 70
     6
  9
$SURFTYPE
 70
     6
  9
$SURFU
 70
     6
  9
$SURFV
 70
     6
  9
$UCSNAME
  2

  9
$UCSORG
 10
0.0
 20
0.0
 30
0.0
  9
$UCSXDIR
 10
1.0
 20
0.0
 30
0.0
  9
$UCSYDIR
 10
0.0
 20
1.0
 30
0.0
  9
$PUCSNAME
  2

  9
$PUCSORG
 10
0.0
 20
0.0
 30
0.0
  9
$PUCSXDIR
 10
1.0
 20
0.0
 30
0.0
  9
$PUCSYDIR
 10
0.0
 20
1.0
 30
0.0
  9
$USERI1
 70
     0
  9
$USERI2
 70
     0
  9
$USERI3
 70
     0
  9
$USERI4
 70
     0
  9
$USERI5
 70
     0
  9
$USERR1
 40
0.0
  9
$USERR2
 40
0.0
  9
$USERR3
 40
0.0
  9
$USERR4
 40
0.0
  9
$USERR5
 40
0.0
  9
$WORLDVIEW
 70
     1
  9
$SHADEDGE
 70
     3
  9
$SHADEDIF
 70
    70
  9
$TILEMODE
 70
     1
  9
$MAXACTVP
 70
    64
  9
$PLIMCHECK
 70
     0
  9
$PEXTMIN
 10
1.0000000000000000E+20
 20
1.0000000000000000E+20
 30
1.0000000000000000E+20
  9
$PEXTMAX
 10
-1.0000000000000000E+20
 20
-1.0000000000000000E+20
 30
-1.0000000000000000E+20
  9
$PLIMMIN
 10
0.0
 20
0.0
  9
$PLIMMAX
 10
12.0
 20
9.0
  9
$UNITMODE
 70
     0
  9
$VISRETAIN
 70
     1
  9
$PLINEGEN
 70
     0
  9
$PSLTSCALE
 70
     1
  0
ENDSEC
  0
SECTION
  2
TABLES
  0
TABLE
  2
VPORT
 70
     1
  0
VPORT
  2
*ACTIVE
 70
     0
 10
0.0
 20
0.0
 11
1.0
 21
1.0
 12
85.5796963648833753
 22
27.1134058145426202
 13
0.0
 23
0.0
 14
1.0
 24
1.0
 15
0.0
 25
0.0
 16
-0.0000000000000568
 26
0.0
 36
193.9250709296327955
 17
273.5742015565131169
 27
-17.6059607340214797
 37
0.0
 40
8.8751097296210304
 41
2.2831541218637992
 42
50.0
 43
0.0
 44
0.0
 50
0.0
 51
0.0
 71
     0
 72
   100
 73
     1
 74
     1
 75
     0
 76
     0
 77
     0
 78
     0
  0
ENDTAB
  0
TABLE
  2
LTYPE
 70
     2
  0
LTYPE
  2
CONTINUOUS
 70
     0
  3
Solid line
 72
    65
 73
     0
 40
0.0
  0
LTYPE
  2
PHANTOM2
 70
     0
  3
___ _ _ ___ _ _ ___ _ _ ___ _ _
 72
    65
 73
     6
 40
1.25
 49
0.625
 49
-0.125
 49
0.125
 49
-0.125
 49
0.125
 49
-0.125
  0
ENDTAB
  0
TABLE
  2
LAYER
 70
     2
  0
LAYER
  2
0
 70
     0
 62
   255
  6
CONTINUOUS
  0
LAYER
  2
DEFPOINTS
 70
     0
 62
     7
  6
CONTINUOUS
  0
ENDTAB
  0
TABLE
  2
STYLE
 70
     1
  0
STYLE
  2
STANDARD
 70
     0
 40
0.0
 41
0.8
 50
0.0
 71
     0
 42
0.2
  3
txt
  4

  0
ENDTAB
  0
TABLE
  2
VIEW
 70
     0
  0
ENDTAB
  0
TABLE
  2
UCS
 70
     0
  0
ENDTAB
  0
TABLE
  2
APPID
 70
     9
  0
APPID
  2
ACAD
 70
     0
  0
APPID
  2
ACAD_MLEADERVER
 70
     0
  0
APPID
  2
ACAD_EXEMPT_FROM_CAD_STANDARDS
 70
     0
  0
APPID
  2
ACAD_NAV_VCDISPLAY
 70
     0
  0
APPID
  2
ACAD_DSTYLE_DIMJAG
 70
     0
  0
APPID
  2
ACAD_DSTYLE_DIMTALN
 70
     0
  0
APPID
  2
ACAECLAYERSTANDARD
 70
     0
  0
APPID
  2
ACCMTRANSPARENCY
 70
     0
  0
APPID
  2
ACDBATTR
 70
     0
  0
ENDTAB
  0
TABLE
  2
DIMSTYLE
 70
     1
  0
DIMSTYLE
  2
STANDARD
 70
     0
  3

  4

  5

  6

  7

 40
1.0
 41
0.1875
 42
0.0625
 43
0.38
 44
0.125
 45
0.0
 46
0.0
 47
0.01
 48
0.01
140
0.15625
141
0.09
142
0.0
143
25.3999999999999986
144
1.0
145
0.0
146
1.0
147
0.09
 71
     1
 72
     0
 73
     1
 74
     1
 75
     0
 76
     0
 77
     0
 78
     4
170
     0
171
     2
172
     0
173
     0
174
     0
175
     0
176
     0
177
     0
178
     0
  0
ENDTAB
  0
ENDSEC
  0
SECTION
  2
BLOCKS
  0
BLOCK
  8
0
  2
$MODEL_SPACE
 70
     0
 10
0.0
 20
0.0
 30
0.0
  3
$MODEL_SPACE
  1

  0
ENDBLK
  5
21
  8
0
  0
BLOCK
 67
     1
  8
0
  2
$PAPER_SPACE
 70
     0
 10
0.0
 20
0.0
 30
0.0
  3
$PAPER_SPACE
  1

  0
ENDBLK
  5
1D
 67
     1
  8
0
  0
BLOCK
  8
0
  2
*U0
 70
     1
 10
0.0
 20
0.0
 30
0.0
  3
*U0
  1

  0
ARC
  5
1F72
  8
0
 10
0.8232588021359976
 20
-0.0017121382794052
 30
0.0
 40
0.8166016608999997
 50
179.1228157720869092
 51
180.61096396185701
  0
ARC
  5
1F73
  8
0
 10
0.8225954609359974
 20
-0.0020412533794048
 30
0.0
 40
0.8166016609000003
 50
179.0997213778393871
 51
180.5891010244334893
  0
ARC
  5
1F74
  8
0
 10
0.8219167846359978
 20
-0.0023349206794041
 30
0.0
 40
0.8166026295
 50
179.0791183337705945
 51
180.5690347302206931
  0
ARC
  5
1F75
  8
0
 10
0.8212248230359984
 20
-0.0025916810794033
 30
0.0
 40
0.8166043920000005
 50
179.061077517981488
 51
180.5538784673788939
  0
ARC
  5
1F76
  8
0
 10
0.8205150358359976
 20
-0.0028144686794036
 30
0.0
 40
0.8166016608999997
 50
179.0454638591239132
 51
180.5386783924801932
  0
ARC
  5
1F77
  8
0
 10
0.8239040113359986
 20
0.0229273456205945
 30
0.0
 40
0.8166016609000003
 50
180.85167775154639
 51
182.3380479481103862
  0
ARC
  5
1F78
  8
0
 10
0.8197977634359983
 20
-0.002998475379405
 30
0.0
 40
0.8166016608999996
 50
179.0325518926127017
 51
180.5270884661377977
  0
ARC
  5
1F79
  8
0
 10
0.8232588036359986
 20
0.0232907263205959
 30
0.0
 40
0.8166016609000006
 50
180.877177353206406
 51
182.3647238914813897
  0
ARC
  5
1F7A
  8
0
 10
0.8190718438359985
 20
-0.0031446907794042
 30
0.0
 40
0.8166016608999996
 50
179.0222918299911044
 51
180.518165207339905
  0
ARC
  5
1F7B
  8
0
 10
0.8225954623359985
 20
0.0236198414205955
 30
0.0
 40
0.8166016609000003
 50
180.9002723703503932
 51
182.3890295574884135
  0
ARC
  5
1F7C
  8
0
 10
0.8183392668359984
 20
-0.0032527141794052
 30
0.0
 40
0.8166016608999999
 50
179.0147118141981935
 51
180.5119336121649951
  0
ARC
  5
1F7D
  8
0
 10
0.8219167846359978
 20
0.0239135053205946
 30
0.0
 40
0.8166026295000005
 50
180.9208816662323045
 51
182.4108805946947029
  0
ARC
  5
1F7E
  8
0
 10
0.8176020402359984
 20
-0.003322249379405
 30
0.0
 40
0.8166016609000001
 50
179.0098326524934009
 51
180.5084104717203957
  0
ARC
  5
1F7F
  8
0
 10
0.8212247565359982
 20
0.0241703131205942
 30
0.0
 40
0.8166043144999999
 50
180.938875425927705
 51
182.4294508911106902
  0
ARC
  5
1F80
  8
0
 10
0.8168621847359993
 20
-0.0033531057794036
 30
0.0
 40
0.8166016609000006
 50
179.0076677353843877
 51
180.5076052600946923
  0
ARC
  5
1F81
  8
0
 10
0.8205150367359985
 20
0.0243930569205961
 30
0.0
 40
0.8166016608999997
 50
180.9545323502883889
 51
182.4479649741809055
  0
ARC
  5
1F82
  8
0
 10
0.8161217283359976
 20
-0.0033451988794031
 30
0.0
 40
0.8166016608999999
 50
179.0082230012459092
 51
180.5095204882611881
  0
ARC
  5
1F83
  8
0
 10
0.8197977641359983
 20
0.0245770637205958
 30
0.0
 40
0.8166016608999996
 50
180.9674451985021051
 51
182.4613181832440034
  0
ARC
  5
1F84
  8
0
 10
0.8153827005359985
 20
-0.0032985502794052
 30
0.0
 40
0.8166016609000001
 50
179.0114969363067985
 51
180.5140881665464008
  0
ARC
  5
1F85
  8
0
 10
0.8190718443359984
 20
0.0247232791205949
 30
0.0
 40
0.8166016608999999
 50
180.9777061140381136
 51
182.4729091004201109
  0
ARC
  5
1F86
  8
0
 10
0.8146481159359977
 20
-0.0032135354794054
 30
0.0
 40
0.8166026295
 50
179.0174630453228133
 51
180.5200021006953079
  0
ARC
  5
1F87
  8
0
 10
0.8183392671359976
 20
0.0248313025205942
 30
0.0
 40
0.8166016609000006
 50
180.9852869617143085
 51
182.4818328836782086
  0
ARC
  5
1F88
  8
0
 10
0.8176020403359984
 20
0.0249008377205939
 30
0.0
 40
0.8166016608999996
 50
180.9901669414834942
 51
182.4880655664231881
  0
ARC
  5
1F89
  8
0
 10
0.8168621846359975
 20
0.0249316941205962
 30
0.0
 40
0.8166016608999999
 50
180.9923326697548873
 51
182.491589736966489
  0
ARC
  5
1F8A
  8
0
 10
0.8139204794359979
 20
-0.0030899157794035
 30
0.0
 40
0.8166043919999999
 50
179.0261475650140994
 51
180.5329752396903871
  0
ARC
  5
1F8B
  8
0
 10
0.8161217280359984
 20
0.0249237872205956
 30
0.0
 40
0.8166016609000003
 50
180.991778214835989
 51
182.4923955404599951
  0
ARC
  5
1F8C
  8
0
 10
0.8131943919359985
 20
-0.002927961879406
 30
0.0
 40
0.8166016608999997
 50
179.0375036311097858
 51
180.5441684276864862
  0
ARC
  5
1F8D
  8
0
 10
0.8153827000359986
 20
0.0248771386205959
 30
0.0
 40
0.8166016608999999
 50
180.9885050972112879
 51
182.4904810687150984
  0
ARC
  5
1F8E
  8
0
 10
0.8124812124359985
 20
-0.0027286801794055
 30
0.0
 40
0.8166016609000006
 50
179.0514883682301956
 51
180.5594583859079876
  0
ARC
  5
1F8F
  8
0
 10
0.8146481159359977
 20
0.0247921202205941
 30
0.0
 40
0.8166026294999994
 50
180.9825369546753109
 51
182.4858029652461084
  0
ARC
  5
1F90
  8
0
 10
0.8117794399359992
 20
-0.0024923465794053
 30
0.0
 40
0.8166016609000001
 50
179.0680731134766006
 51
180.5773265193595023
  0
ARC
  5
1F91
  8
0
 10
0.8139203981359983
 20
0.0246685082205946
 30
0.0
 40
0.8166043144999999
 50
180.9738681682532899
 51
182.4770659588824913
  0
ARC
  5
1F92
  8
0
 10
0.8110909978359988
 20
-0.0022196090794058
 30
0.0
 40
0.8166016608999999
 50
179.0872121512946933
 51
180.5977237049359019
  0
ARC
  5
1F93
  8
0
 10
0.8131943909359975
 20
0.024506550020595
 30
0.0
 40
0.8166016609000003
 50
180.9625005458090072
 51
182.4700039857771969
  0
ARC
  5
1F94
  8
0
 10
0.810417773335998
 20
-0.0019112149794047
 30
0.0
 40
0.8166016609000003
 50
179.108853655454908
 51
180.6205940160135128
  0
ARC
  5
1F95
  8
0
 10
0.8124812112359984
 20
0.0243072683205945
 30
0.0
 40
0.8166016609000001
 50
180.9485167179545044
 51
182.4558361892262042
  0
ARC
  5
1F96
  8
0
 10
0.8097616114359986
 20
-0.0015680096794046
 30
0.0
 40
0.8166016608999997
 50
179.1329371543261004
 51
180.6458747810893044
  0
ARC
  5
1F97
  8
0
 10
0.811779438535999
 20
0.0240709347205943
 30
0.0
 40
0.8166016608999997
 50
180.9319329259938058
 51
182.4405471096970075
  0
ARC
  5
1F98
  8
0
 10
0.8091243108359985
 20
-0.0011909338794034
 30
0.0
 40
0.8166016609000001
 50
179.1593977323292961
 51
180.6734969146453977
  0
ARC
  5
1F99
  8
0
 10
0.8110909963359986
 20
0.0237981970205947
 30
0.0
 40
0.8166016609000001
 50
180.9127944552330973
 51
182.4226799587455048
  0
ARC
  5
1F9A
  8
0
 10
0.8104177715359988
 20
0.0234898029205937
 30
0.0
 40
0.8166016608999997
 50
180.8911544648755125
 51
182.4022836612043932
  0
ARC
  5
1F9B
  8
0
 10
0.8097616096359976
 20
0.0231465975205953
 30
0.0
 40
0.8166016609000001
 50
180.8670711915455911
 51
182.3794141513145064
  0
ARC
  5
1F9C
  8
0
 10
0.8245293150359991
 20
-0.0009521074794048
 30
0.0
 40
0.8166016608999996
 50
179.1761470180331912
 51
180.6619434872386876
  0
ARC
  5
1F9D
  8
0
 10
0.8239040096359984
 20
-0.0013487576794056
 30
0.0
 40
0.8166016609000003
 50
179.1483142238683115
 51
180.6352686932293921
  0
ARC
  5
1F9E
  8
0
 10
0.8091243088359991
 20
0.0227695216205959
 30
0.0
 40
0.8166016609000003
 50
180.8406118327256991
 51
182.3541342255668098
  0
ARC
  5
1F9F
  8
0
 10
0.8085076160359987
 20
0.0223596088205955
 30
0.0
 40
0.8166016608999996
 50
180.8118485184546103
 51
182.3265134712544011
  0
ENDBLK
  5
1FA0
  8
0
  0
ENDSEC
  0
SECTION
  2
ENTITIES
  0
ATTDEF
  5
FAA
  8
DEFPOINTS
 10
359.1603984242046863
 20
12.9716916160327305
 30
0.0
 40
0.001
  1
K-EX28094T-8
  3

  2
MODELNUMBER
 70
     0
1001
ACDBATTR
1070
     0
1070
     1
  0
ATTDEF
  5
FAB
  8
DEFPOINTS
 10
359.1603984242046863
 20
12.9700249493660706
 30
0.0
 40
0.001
  1

  3

  2
TRADENAME
 70
     0
1001
ACDBATTR
1070
     0
1070
     1
  0
ATTDEF
  5
FAC
  8
DEFPOINTS
 10
359.1603984242046863
 20
12.9683582826994002
 30
0.0
 40
0.001
  1
BATHROOM SINK FAUCET
  3

  2
PRODUCT
 70
     0
1001
ACDBATTR
1070
     0
1070
     1
  0
ARC
  5
1F4E
  8
0
 10
359.1602940006191034
 20
12.9682292527354299
 30
0.0
 40
0.9448818898000004
 50
304.2497132551209233
 51
235.7502867448789061
  0
ARC
  5
1F4F
  8
0
 10
359.1602940006191034
 20
12.9682292527354299
 30
0.0
 40
0.8307086614000001
 50
316.1320536645196739
 51
223.8679463354802124
  0
CIRCLE
  5
1F50
  8
0
 10
359.1602940006191034
 20
12.9682292527354299
 30
0.0
 40
0.8266529528068957
  0
CIRCLE
  5
1F51
  8
0
 10
359.1602940006191034
 20
12.9682292527354299
 30
0.0
 40
0.7963276299133053
  0
CIRCLE
  5
1F52
  8
0
 10
359.1602940006191034
 20
12.9682292527354299
 30
0.0
 40
0.7559055118000009
  0
LINE
  5
1F54
  8
0
 10
358.628797937619197
 20
12.1722620630349798
 30
0.0
 11
358.628797937619197
 21
5.6201619774859131
 31
0.0
  0
ARC
  5
1F55
  8
0
 10
358.235003010755122
 20
12.1722382242963398
 30
0.0
 40
0.3937949275856383
 50
0.0034684528528251
 51
40.4183820342724331
  0
LINE
  5
1F56
  8
0
 10
359.6917900636191803
 20
12.1722620630349798
 30
0.0
 11
359.6917900636191803
 21
5.6201619774859131
 31
0.0
  0
ARC
  5
1F57
  8
0
 10
360.0855849904831985
 20
12.1722382242963398
 30
0.0
 40
0.3937949275856383
 50
139.5816179657275029
 51
179.9965315471472138
  0
ARC
  5
1F58
  8
0
 10
359.1867022588854184
 20
5.8156880826813211
 30
0.0
 40
0.557966774831744
 50
180.8572670486464915
 51
204.137453274688113
  0
ARC
  5
1F59
  8
0
 10
359.1747154345318904
 20
5.8106307249232581
 30
0.0
 40
0.544959978544833
 50
204.1675813917136111
 51
223.9257664511584096
  0
ARC
  5
1F5A
  8
0
 10
359.1653936253460984
 20
5.801655054530543
 30
0.0
 40
0.5320193919754328
 50
223.9259979689587112
 51
242.9859331551942887
  0
ARC
  5
1F5B
  8
0
 10
359.1338857423530158
 20
5.8156880826813211
 30
0.0
 40
0.557966774831744
 50
335.8625467253116881
 51
359.1427329513534232
  0
ARC
  5
1F5C
  8
0
 10
359.1458725667063732
 20
5.8106307249232581
 30
0.0
 40
0.544959978544833
 50
316.0742335488415051
 51
335.8324186082862752
  0
ARC
  5
1F5D
  8
0
 10
359.1551943758922221
 20
5.801655054530543
 30
0.0
 40
0.5320193919754328
 50
297.0140668448057113
 51
316.074002031039015
  0
ARC
  5
1F5E
  8
0
 10
359.1602940006191034
 20
5.790968400476026
 30
0.0
 40
0.5201825010652839
 50
242.951705797147298
 51
297.0482942028526168
  0
ARC
  5
1F5F
  8
0
 10
359.133962723956472
 20
5.6201918686627863
 30
0.0
 40
0.5051647872217327
 50
180.0033902567070925
 51
192.3386191801112943
  0
ARC
  5
1F60
  8
0
 10
359.1426623824538069
 20
5.6229535525003342
 30
0.0
 40
0.5142543243254921
 50
192.4320825172885066
 51
226.2295925164953019
  0
LINE
  5
1F61
  8
0
 10
359.6917900636191803
 20
12.1722620630349798
 30
0.0
 11
359.6917900636191803
 21
5.6201619774859131
 31
0.0
  0
ARC
  5
1F62
  8
0
 10
359.1866252772817916
 20
5.6201918686627863
 30
0.0
 40
0.5051647872217327
 50
347.6613808198885067
 51
359.9966097432927086
  0
ARC
  5
1F63
  8
0
 10
359.1779256187845135
 20
5.6229535525003342
 30
0.0
 40
0.5142543243254921
 50
313.7704074835045844
 51
347.5679174827114934
  0
ARC
  5
1F64
  8
0
 10
359.1602940006191034
 20
5.6437844012395644
 30
0.0
 40
0.5414962770541285
 50
226.4071485600157985
 51
313.5928514399842015
  0
CIRCLE
  5
1F65
  8
0
 10
359.1602940006191034
 20
12.9682292527354299
 30
0.0
 40
0.8267716535000033
  0
ENDSEC
  0
EOF
