  0
SECTION
  2
HEADER
  9
$ACADVER
  1
AC1009
  9
$INSBASE
 10
341.7428992005026203
 20
16.3622628320169206
 30
0.0
  9
$EXTMIN
 10
335.8903796779026152
 20
16.3622628320169206
 30
0.0
  9
$EXTMAX
 10
343.1727892556397137
 20
23.9646224779169188
 30
0.0
  9
$LIMMIN
 10
0.0
 20
0.0
  9
$LIMMAX
 10
11.6929133858000007
 20
8.2677165353999982
  9
$ORTHOMODE
 70
     1
  9
$REGENMODE
 70
     1
  9
$FILLMODE
 70
     1
  9
$QTEXTMODE
 70
     0
  9
$MIRRTEXT
 70
     0
  9
$DRAGMODE
 70
     2
  9
$LTSCALE
 40
0.6431102362
  9
$OSMODE
 70
     7
  9
$ATTMODE
 70
     1
  9
$TEXTSIZE
 40
0.2
  9
$TRACEWID
 40
0.05
  9
$TEXTSTYLE
  7
STANDARD
  9
$CLAYER
  8
0
  9
$CELTYPE
  6
BYLAYER
  9
$CECOLOR
 62
   256
  9
$DIMSCALE
 40
1.0
  9
$DIMASZ
 40
0.1875
  9
$DIMEXO
 40
0.0625
  9
$DIMDLI
 40
0.4443307087
  9
$DIMRND
 40
0.0
  9
$DIMDLE
 40
0.0
  9
$DIMEXE
 40
0.125
  9
$DIMTP
 40
0.01
  9
$DIMTM
 40
0.01
  9
$DIMTXT
 40
2.0
  9
$DIMCEN
 40
0.1052362205
  9
$DIMTSZ
 40
0.0
  9
$DIMTOL
 70
     1
  9
$DIMLIM
 70
     0
  9
$DIMTIH
 70
     1
  9
$DIMTOH
 70
     1
  9
$DIMSE1
 70
     0
  9
$DIMSE2
 70
     0
  9
$DIMTAD
 70
     0
  9
$DIMZIN
 70
     0
  9
$DIMBLK
  1

  9
$DIMASO
 70
     1
  9
$DIMSHO
 70
     1
  9
$DIMPOST
  1
\X
  9
$DIMAPOST
  1

  9
$DIMALT
 70
     1
  9
$DIMALTD
 70
     2
  9
$DIMALTF
 40
25.3999999999999986
  9
$DIMLFAC
 40
1.0
  9
$DIMTOFL
 70
     0
  9
$DIMTVP
 40
0.0
  9
$DIMTIX
 70
     0
  9
$DIMSOXD
 70
     0
  9
$DIMSAH
 70
     0
  9
$DIMBLK1
  1

  9
$DIMBLK2
  1

  9
$DIMSTYLE
  2
STANDARD
  9
$DIMCLRD
 70
     0
  9
$DIMCLRE
 70
     0
  9
$DIMCLRT
 70
     0
  9
$DIMTFAC
 40
1.0
  9
$DIMGAP
 40
0.09
  9
$LUNITS
 70
     2
  9
$LUPREC
 70
     4
  9
$SKETCHINC
 40
0.1
  9
$FILLETRAD
 40
0.0
  9
$AUNITS
 70
     0
  9
$AUPREC
 70
     0
  9
$MENU
  1
.
  9
$ELEVATION
 40
0.0
  9
$PELEVATION
 40
0.0
  9
$THICKNESS
 40
0.0
  9
$LIMCHECK
 70
     0
  9
$BLIPMODE
 70
     0
  9
$CHAMFERA
 40
0.0
  9
$CHAMFERB
 40
0.0
  9
$SKPOLY
 70
     0
  9
$TDCREATE
 40
2458106.4931018520146608
  9
$TDUPDATE
 40
2459676.7118287030607462
  9
$TDINDWG
 40
0.2045008796
  9
$TDUSRTIMER
 40
0.2045008796
  9
$USRTIMER
 70
     1
  9
$ANGBASE
 50
0.0
  9
$ANGDIR
 70
     0
  9
$PDMODE
 70
     0
  9
$PDSIZE
 40
0.3125
  9
$PLINEWID
 40
0.0
  9
$COORDS
 70
     1
  9
$SPLFRAME
 70
     0
  9
$SPLINETYPE
 70
     6
  9
$SPLINESEGS
 70
     8
  9
$ATTDIA
 70
     1
  9
$ATTREQ
 70
     1
  9
$HANDLING
 70
     1
  9
$HANDSEED
  5
1D9C
  9
$SURFTAB1
 70
     6
  9
$SURFTAB2
 70
     6
  9
$SURFTYPE
 70
     6
  9
$SURFU
 70
     6
  9
$SURFV
 70
     6
  9
$UCSNAME
  2

  9
$UCSORG
 10
0.0
 20
0.0
 30
0.0
  9
$UCSXDIR
 10
1.0
 20
0.0
 30
0.0
  9
$UCSYDIR
 10
0.0
 20
1.0
 30
0.0
  9
$PUCSNAME
  2

  9
$PUCSORG
 10
0.0
 20
0.0
 30
0.0
  9
$PUCSXDIR
 10
1.0
 20
0.0
 30
0.0
  9
$PUCSYDIR
 10
0.0
 20
1.0
 30
0.0
  9
$USERI1
 70
     0
  9
$USERI2
 70
     0
  9
$USERI3
 70
     0
  9
$USERI4
 70
     0
  9
$USERI5
 70
     0
  9
$USERR1
 40
0.0
  9
$USERR2
 40
0.0
  9
$USERR3
 40
0.0
  9
$USERR4
 40
0.0
  9
$USERR5
 40
0.0
  9
$WORLDVIEW
 70
     1
  9
$SHADEDGE
 70
     3
  9
$SHADEDIF
 70
    70
  9
$TILEMODE
 70
     1
  9
$MAXACTVP
 70
    64
  9
$PLIMCHECK
 70
     0
  9
$PEXTMIN
 10
1.0000000000000000E+20
 20
1.0000000000000000E+20
 30
1.0000000000000000E+20
  9
$PEXTMAX
 10
-1.0000000000000000E+20
 20
-1.0000000000000000E+20
 30
-1.0000000000000000E+20
  9
$PLIMMIN
 10
0.0
 20
0.0
  9
$PLIMMAX
 10
12.0
 20
9.0
  9
$UNITMODE
 70
     0
  9
$VISRETAIN
 70
     1
  9
$PLINEGEN
 70
     0
  9
$PSLTSCALE
 70
     1
  0
ENDSEC
  0
SECTION
  2
TABLES
  0
TABLE
  2
VPORT
 70
     1
  0
VPORT
  2
*ACTIVE
 70
     0
 10
0.0
 20
0.0
 11
1.0
 21
1.0
 12
65.9510041057604894
 22
37.7703003200258465
 13
0.0
 23
0.0
 14
1.0
 24
1.0
 15
0.0
 25
0.0
 16
-0.0000000000000568
 26
0.0
 36
193.9250709296327955
 17
273.5742015565131169
 27
-17.6059607340214797
 37
0.0
 40
7.6669417624761591
 41
2.2831541218637992
 42
50.0
 43
0.0
 44
0.0
 50
0.0
 51
0.0
 71
     0
 72
   100
 73
     1
 74
     1
 75
     0
 76
     0
 77
     0
 78
     0
  0
ENDTAB
  0
TABLE
  2
LTYPE
 70
     2
  0
LTYPE
  2
CONTINUOUS
 70
     0
  3
Solid line
 72
    65
 73
     0
 40
0.0
  0
LTYPE
  2
PHANTOM2
 70
     0
  3
___ _ _ ___ _ _ ___ _ _ ___ _ _
 72
    65
 73
     6
 40
1.25
 49
0.625
 49
-0.125
 49
0.125
 49
-0.125
 49
0.125
 49
-0.125
  0
ENDTAB
  0
TABLE
  2
LAYER
 70
     2
  0
LAYER
  2
0
 70
     0
 62
   255
  6
CONTINUOUS
  0
LAYER
  2
DEFPOINTS
 70
     0
 62
     7
  6
CONTINUOUS
  0
ENDTAB
  0
TABLE
  2
STYLE
 70
     1
  0
STYLE
  2
STANDARD
 70
     0
 40
0.0
 41
0.8
 50
0.0
 71
     0
 42
0.2
  3
txt
  4

  0
ENDTAB
  0
TABLE
  2
VIEW
 70
     0
  0
ENDTAB
  0
TABLE
  2
UCS
 70
     0
  0
ENDTAB
  0
TABLE
  2
APPID
 70
     9
  0
APPID
  2
ACAD
 70
     0
  0
APPID
  2
ACAD_MLEADERVER
 70
     0
  0
APPID
  2
ACAD_EXEMPT_FROM_CAD_STANDARDS
 70
     0
  0
APPID
  2
ACAD_NAV_VCDISPLAY
 70
     0
  0
APPID
  2
ACAD_DSTYLE_DIMJAG
 70
     0
  0
APPID
  2
ACAD_DSTYLE_DIMTALN
 70
     0
  0
APPID
  2
ACAECLAYERSTANDARD
 70
     0
  0
APPID
  2
ACCMTRANSPARENCY
 70
     0
  0
APPID
  2
ACDBATTR
 70
     0
  0
ENDTAB
  0
TABLE
  2
DIMSTYLE
 70
     1
  0
DIMSTYLE
  2
STANDARD
 70
     0
  3

  4

  5

  6

  7

 40
1.0
 41
0.1875
 42
0.0625
 43
0.38
 44
0.125
 45
0.0
 46
0.0
 47
0.01
 48
0.01
140
0.15625
141
0.09
142
0.0
143
25.3999999999999986
144
1.0
145
0.0
146
1.0
147
0.09
 71
     1
 72
     0
 73
     1
 74
     1
 75
     0
 76
     0
 77
     0
 78
     4
170
     0
171
     2
172
     0
173
     0
174
     0
175
     0
176
     0
177
     0
178
     0
  0
ENDTAB
  0
ENDSEC
  0
SECTION
  2
BLOCKS
  0
BLOCK
  8
0
  2
$MODEL_SPACE
 70
     0
 10
0.0
 20
0.0
 30
0.0
  3
$MODEL_SPACE
  1

  0
ENDBLK
  5
21
  8
0
  0
BLOCK
 67
     1
  8
0
  2
$PAPER_SPACE
 70
     0
 10
0.0
 20
0.0
 30
0.0
  3
$PAPER_SPACE
  1

  0
ENDBLK
  5
1D
 67
     1
  8
0
  0
ENDSEC
  0
SECTION
  2
ENTITIES
  0
ATTDEF
  5
FAA
  8
DEFPOINTS
 10
341.743116691768023
 20
16.365875175604959
 30
0.0
 40
0.001
  1
K-EX28093T-8
  3

  2
MODELNUMBER
 70
     0
1001
ACDBATTR
1070
     0
1070
     1
  0
ATTDEF
  5
FAB
  8
DEFPOINTS
 10
341.743116691768023
 20
16.3642085089382903
 30
0.0
 40
0.001
  1

  3

  2
TRADENAME
 70
     0
1001
ACDBATTR
1070
     0
1070
     1
  0
ATTDEF
  5
FAC
  8
DEFPOINTS
 10
341.743116691768023
 20
16.3625418422716287
 30
0.0
 40
0.001
  1
BATHROOM SINK FAUCET
  3

  2
PRODUCT
 70
     0
1001
ACDBATTR
1070
     0
1070
     1
  0
LINE
  5
1B32
  8
0
 10
340.7980173107026189
 20
16.3622628320169206
 30
0.0
 11
342.6877810903026216
 21
16.3622628320169206
 31
0.0
  0
LINE
  5
1B33
  8
0
 10
340.7980173107026189
 20
16.5031678875446595
 30
0.0
 11
340.7980173107026189
 21
16.3622628320169206
 31
0.0
  0
LINE
  5
1B34
  8
0
 10
340.9121905391025962
 20
16.5473022021169207
 30
0.0
 11
342.5736078619025875
 21
16.5473022021169207
 31
0.0
  0
LINE
  5
1B35
  8
0
 10
340.8063275564707055
 20
16.5144481730001083
 30
0.0
 11
340.9121905391025962
 21
16.5473022021169207
 31
0.0
  0
ARC
  5
1B36
  8
0
 10
340.8098283347180768
 20
16.5031678875446595
 30
0.0
 40
0.011811024015458
 50
107.2414607725654037
 51
179.9999986792959987
  0
LINE
  5
1B37
  8
0
 10
340.9161275470025885
 20
16.5473022021169207
 30
0.0
 11
340.9161275470025885
 21
21.0473022021168994
 31
0.0
  0
LINE
  5
1B38
  8
0
 10
336.1193015456772741
 20
21.8740738556169205
 30
0.0
 11
342.5499974183975951
 21
21.8740738556169205
 31
0.0
  0
LINE
  5
1B39
  8
0
 10
340.9280572712050912
 20
21.9961185409169211
 30
0.0
 11
342.5577411298000925
 21
21.9961185409169211
 31
0.0
  0
LINE
  5
1B3A
  8
0
 10
340.9869936887026256
 20
23.9646224779169188
 30
0.0
 11
342.4988047123026149
 21
23.9646224779169188
 31
0.0
  0
LINE
  5
1B3B
  8
0
 10
340.9489057238026248
 20
23.9269134883169201
 30
0.0
 11
342.5368926772026157
 21
23.9269134883169201
 31
0.0
  0
LINE
  5
1B3C
  8
0
 10
340.9469943049423932
 20
23.9134439344169216
 30
0.0
 11
342.5388040960627904
 21
23.9134439344169216
 31
0.0
  0
LINE
  5
1B3D
  8
0
 10
340.9489057238129135
 20
23.9269134883270382
 30
0.0
 11
340.9869936887026256
 21
23.9646224779169188
 31
0.0
  0
ARC
  5
1B3E
  8
0
 10
340.9544455863638746
 20
23.9213179501640099
 30
0.0
 40
0.0078740157746008
 50
134.7135307546024876
 51
270.0
  0
ARC
  5
1B3F
  8
0
 10
340.9469943049423932
 20
23.9016329106767706
 30
0.0
 40
0.0118110237401483
 50
90.0000001928403321
 51
179.4270611127284951
  0
LINE
  5
1B40
  8
0
 10
340.935183871709512
 20
23.9017510150481804
 30
0.0
 11
340.9162468382025963
 21
22.0080476688169213
 31
0.0
  0
ARC
  5
1B41
  8
0
 10
340.9280572712050912
 20
22.0079295644866093
 30
0.0
 40
0.0118110235093952
 50
179.4270613009666135
 51
270.0
  0
ARC
  5
1B42
  8
0
 10
341.7428683636026108
 20
21.4725199310169188
 30
0.0
 40
0.8928393031999796
 50
144.0950624973305025
 51
153.2723943194114895
  0
ARC
  5
1B43
  8
0
 10
346.3693438328845104
 20
20.6016565241301706
 30
0.0
 40
5.6297561431205709
 50
144.1473948390236046
 51
163.4312281792950898
  0
ARC
  5
1B44
  8
0
 10
345.9103133504262928
 20
20.8887107021327409
 30
0.0
 40
5.123815316320381
 50
144.0193128645312015
 51
165.0932976749633099
  0
ARC
  5
1B45
  8
0
 10
345.5192841478012724
 20
21.1362610451746811
 30
0.0
 40
4.696174487793205
 50
143.9635988408531944
 51
166.8278165141541933
  0
ARC
  5
1B46
  8
0
 10
345.1825131652101959
 20
21.3523324109654311
 30
0.0
 40
4.3308840560683404
 50
143.9827576395151993
 51
168.6346252112089132
  0
ARC
  5
1B47
  8
0
 10
344.8899916055084987
 20
21.5428221102366706
 30
0.0
 40
4.0162924133639262
 50
144.0797136587858063
 51
170.5082942721458892
  0
ARC
  5
1B48
  8
0
 10
344.6342796747733814
 20
21.7121746457743399
 30
0.0
 40
3.7437006598418079
 50
144.2577263411463946
 51
172.4515247654329926
  0
ARC
  5
1B49
  8
0
 10
344.4097530619433201
 20
21.8638187124976007
 30
0.0
 40
3.5064930820782201
 50
144.520684633447587
 51
174.4735978821030926
  0
ARC
  5
1B4A
  8
0
 10
344.2237488911048899
 20
21.9947574755959003
 30
0.0
 40
3.3123641632363969
 50
144.9077921277082908
 51
176.3119060155837872
  0
ARC
  5
1B4B
  8
0
 10
344.09035437865208
 20
22.0994546826290694
 30
0.0
 40
3.1760891174621131
 50
145.4869257286825928
 51
176.9141243902529084
  0
ARC
  5
1B4C
  8
0
 10
343.9667446492073282
 20
22.1995696397127986
 30
0.0
 40
3.0502323184715721
 50
146.1411582961389115
 51
177.457418799219397
  0
ARC
  5
1B4D
  8
0
 10
343.8514468615128976
 20
22.2958733836747598
 30
0.0
 40
2.9331418520484158
 50
146.8689884944747917
 51
177.9560132462148943
  0
ARC
  5
1B4E
  8
0
 10
343.7437454513039938
 20
22.3887509582499895
 30
0.0
 40
2.8240101708377439
 50
147.6705618684619026
 51
178.3931621617290091
  0
ARC
  5
1B4F
  8
0
 10
343.6426820827213078
 20
22.4786918585773492
 30
0.0
 40
2.7217700749722882
 50
148.5449661783214879
 51
178.7729853969987062
  0
ARC
  5
1B50
  8
0
 10
343.5475922508882149
 20
22.5660321134404995
 30
0.0
 40
2.6256842269571998
 50
149.4918331936763991
 51
179.0736918438265093
  0
ARC
  5
1B51
  8
0
 10
343.4579977811278013
 20
22.6510142960092082
 30
0.0
 40
2.535223416171938
 50
150.5110945340761077
 51
179.1535032652159032
  0
ARC
  5
1B52
  8
0
 10
343.3734106512953872
 20
22.7338737440268304
 30
0.0
 40
2.4498539314532568
 50
151.6023976026079936
 51
178.9912633781262059
  0
ARC
  5
1B53
  8
0
 10
343.2901534854274814
 20
22.8158499848348093
 30
0.0
 40
2.3657474189549661
 50
152.7517696791879018
 51
179.1062799915767982
  0
ARC
  5
1B54
  8
0
 10
343.2157675993981911
 20
22.8946188977370184
 30
0.0
 40
2.2906726877429371
 50
153.9938148155565898
 51
178.8115823874001933
  0
ARC
  5
1B55
  8
0
 10
343.1417902331533014
 20
22.9727838755763507
 30
0.0
 40
2.215913640218754
 50
155.2921639450686939
 51
178.810273997091798
  0
ARC
  5
1B56
  8
0
 10
343.071086879126824
 20
23.0493980829419307
 30
0.0
 40
2.1444478468451749
 50
156.6591011376999916
 51
178.7997644422750056
  0
ARC
  5
1B57
  8
0
 10
343.071086879126824
 20
23.0493980829419307
 30
0.0
 40
2.1444478468451749
 50
180.0543581596604952
 51
180.054454582099595
  0
ARC
  5
1B58
  8
0
 10
343.0196021604576799
 20
23.1212937626816206
 30
0.0
 40
2.092247726463345
 50
158.1777166266373058
 51
178.7896565035036929
  0
ARC
  5
1B59
  8
0
 10
342.9350774356275906
 20
23.1989135025791597
 30
0.0
 40
2.006920665361017
 50
159.5816746301854891
 51
178.8577705089203107
  0
ARC
  5
1B5A
  8
0
 10
342.8772072787123761
 20
23.2701308085717393
 30
0.0
 40
1.9484085217561511
 50
161.1670076095909963
 51
178.6784161528590005
  0
ARC
  5
1B5B
  8
0
 10
342.8201508093757752
 20
23.3404906847474685
 30
0.0
 40
1.8906538434180999
 50
162.8139912266942133
 51
178.6613723843952926
  0
ARC
  5
1B5C
  8
0
 10
342.761968946356717
 20
23.41021847195384
 30
0.0
 40
1.8317198855652139
 50
164.5177348187831115
 51
178.7961094453090141
  0
ARC
  5
1B5D
  8
0
 10
342.7051212728925975
 20
23.4786262465102311
 30
0.0
 40
1.7741370695641761
 50
166.2861663025771861
 51
178.9672827741451044
  0
ARC
  5
1B5E
  8
0
 10
342.6504349226250952
 20
23.5454368636213509
 30
0.0
 40
1.718760800802678
 50
168.1190758799650951
 51
179.0744819162806891
  0
ARC
  5
1B5F
  8
0
 10
342.5971505719703032
 20
23.6107579155943803
 30
0.0
 40
1.66481129162497
 50
170.0163724436652046
 51
179.161382328360304
  0
ARC
  5
1B60
  8
0
 10
342.5461761696633971
 20
23.6744485233331901
 30
0.0
 40
1.6131960105028951
 50
171.980597530269506
 51
179.2121824978823099
  0
ARC
  5
1B61
  8
0
 10
342.5057524812660859
 20
23.7358507146069897
 30
0.0
 40
1.57217400991371
 50
174.0183904609262129
 51
179.1039274010074962
  0
ARC
  5
1B62
  8
0
 10
342.4713349009039121
 20
23.7958530854168515
 30
0.0
 40
1.537154675601289
 50
176.1148432492510949
 51
179.1238683503304117
  0
ARC
  5
1B63
  8
0
 10
346.9157174582840071
 20
20.2638675562811486
 30
0.0
 40
6.2363976429855796
 50
144.3457590472810921
 51
161.8426455193605875
  0
ARC
  5
1B64
  8
0
 10
347.5190890620114033
 20
19.8894821066331211
 30
0.0
 40
6.9109967792868501
 50
144.5376455121127037
 51
160.4024079590766121
  0
ARC
  5
1B65
  8
0
 10
348.3652933532113138
 20
19.37980302425958
 30
0.0
 40
7.8624033242750153
 50
144.9152059545112934
 51
158.9204332018722994
  0
ARC
  5
1B66
  8
0
 10
349.4402168046333941
 20
18.737195742532549
 30
0.0
 40
9.078209792736013
 50
145.3477275935113937
 51
157.524183267171594
  0
ARC
  5
1B67
  8
0
 10
350.8251574433991777
 20
17.9140063473965583
 30
0.0
 40
10.6528223975065899
 50
145.8180251412831012
 51
156.2298533040109874
  0
ARC
  5
1B68
  8
0
 10
352.7315624399440139
 20
16.7891195677530796
 30
0.0
 40
12.8297846753902807
 50
146.3464272820297936
 51
155.016392694540599
  0
ARC
  5
1B69
  8
0
 10
355.5791639155794996
 20
15.1207366027607204
 30
0.0
 40
16.09342594353447
 50
146.9441470705322104
 51
153.8719300318525995
  0
ARC
  5
1B6A
  8
0
 10
360.2945889020419941
 20
12.3737667718242399
 30
0.0
 40
21.5138261090147793
 50
147.6077515061429892
 51
152.799146856634394
  0
ARC
  5
1B6B
  8
0
 10
369.678075100858905
 20
6.9315598311562487
 30
0.0
 40
32.3244072946539873
 50
148.3377598723232893
 51
151.7969505909736085
  0
ARC
  5
1B6C
  8
0
 10
397.7317285228995161
 20
-9.2899301656496842
 30
0.0
 40
64.6933910166544166
 50
149.1348852619088916
 51
150.8642620889912962
  0
LINE
  5
1B6D
  8
0
 10
341.2582970796477184
 20
22.2080044801219714
 30
0.0
 11
342.2345884553463975
 21
23.8989907457601305
 31
0.0
  0
ARC
  5
1B6E
  8
0
 10
285.8112605626097888
 20
55.2781101119518965
 30
0.0
 40
64.5906336473146894
 50
329.2031556054050156
 51
330.9340989105116932
  0
ARC
  5
1B6F
  8
0
 10
313.8646996435689971
 20
39.0570385975109531
 30
0.0
 40
32.2221680589977026
 50
328.4728239643591223
 51
331.938261107484891
  0
ARC
  5
1B70
  8
0
 10
323.247830587250121
 20
33.6155236071546923
 30
0.0
 40
21.412444677053859
 50
327.8082043221965023
 51
333.0135998352611182
  0
ARC
  5
1B71
  8
0
 10
327.9627598841900067
 20
30.8695123920306393
 30
0.0
 40
15.9932362818743599
 50
327.208744631428317
 51
334.1612286666053251
  0
ARC
  5
1B72
  8
0
 10
330.8097259780972763
 20
29.2023452377592783
 30
0.0
 40
12.7311127886547606
 50
326.6740452665997054
 51
335.3821944322675108
  0
ARC
  5
1B73
  8
0
 10
332.7219889045002219
 20
28.0752520918097197
 30
0.0
 40
10.5484376539396401
 50
326.2037943102550912
 51
336.6773931244015898
  0
ARC
  5
1B74
  8
0
 10
334.0993860160502891
 20
27.2574215360507601
 30
0.0
 40
8.983508964021194
 50
325.7989898994010218
 51
338.0476735415002736
  0
ARC
  5
1B75
  8
0
 10
335.1417203335989825
 20
26.6335166925653617
 30
0.0
 40
7.8055944356594189
 50
325.4593087125019224
 51
339.4934023029343848
  0
ARC
  5
1B76
  8
0
 10
335.9598900779200221
 20
26.1395123862824796
 30
0.0
 40
6.8866089437171958
 50
325.185642022444199
 51
341.0147765939846067
  0
ARC
  5
1B77
  8
0
 10
336.5839239881428284
 20
25.7550084847606087
 30
0.0
 40
6.1899109496578619
 50
325.0362725141649207
 51
342.5534848663892262
  0
ARC
  5
1B78
  8
0
 10
337.1643786579068092
 20
25.4020889158678607
 30
0.0
 40
5.5473132387378756
 50
324.8427076235827826
 51
344.2811405775751155
  0
ARC
  5
1B79
  8
0
 10
337.6227199697211745
 20
25.1171625588032512
 30
0.0
 40
5.0438242210834261
 50
324.7732865215762104
 51
346.0274114956220046
  0
ARC
  5
1B7A
  8
0
 10
338.0120436452065746
 20
24.8722647593553496
 30
0.0
 40
4.6198071235873774
 50
324.7781318027816724
 51
347.8430862044555738
  0
ARC
  5
1B7B
  8
0
 10
338.3469823274730857
 20
24.6589196962395185
 30
0.0
 40
4.258323487270065
 50
324.8583949942402
 51
349.7270890821037028
  0
ARC
  5
1B7C
  8
0
 10
338.637546538649076
 20
24.4712019063629107
 30
0.0
 40
3.9477023132226199
 50
325.0163232772320043
 51
351.6759327946073768
  0
ARC
  5
1B7D
  8
0
 10
338.8911779031071774
 20
24.3046378879430094
 30
0.0
 40
3.679225589180728
 50
325.2560775188061939
 51
353.6859806660888239
  0
ARC
  5
1B7E
  8
0
 10
339.113502840141507
 20
24.1557692712725398
 30
0.0
 40
3.4462589276254301
 50
325.581113739892885
 51
355.7729859363794844
  0
ARC
  5
1B7F
  8
0
 10
339.325292165417693
 20
24.0166400249182992
 30
0.0
 40
3.2271409343714801
 50
325.9086616014375863
 51
357.9597895469839841
  0
ARC
  5
1B80
  8
0
 10
339.4332061936007108
 20
23.9211582463617987
 30
0.0
 40
3.118152091197683
 50
326.6699357026284929
 51
359.0553775987744984
  0
ARC
  5
1B81
  8
0
 10
339.5442290243859134
 20
23.8273449225701484
 30
0.0
 40
3.0073760532409479
 50
327.4189555760364101
 51
359.6421476189195232
  0
ARC
  5
1B82
  8
0
 10
339.6471714319948774
 20
23.7369100268599489
 30
0.0
 40
2.9050218937154382
 50
328.2427492494888952
 51
0.1594996191228878
  0
ARC
  5
1B83
  8
0
 10
339.7351085368601957
 20
23.6527823587828792
 30
0.0
 40
2.8185431320631089
 50
329.1622519735076935
 51
359.3066394517964
  0
ARC
  5
1B84
  8
0
 10
339.8300282623264934
 20
23.565259405302811
 30
0.0
 40
2.7241252535649529
 50
330.1164081391045215
 51
359.708190640324176
  0
ARC
  5
1B85
  8
0
 10
339.9190460275407872
 20
23.4801267572251717
 30
0.0
 40
2.635765720137611
 50
331.1421245883611846
 51
0.0429654270799602
  0
ARC
  5
1B86
  8
0
 10
340.0024096893168917
 20
23.39722298573448
 30
0.0
 40
2.5531799054378128
 50
332.2393966291846255
 51
0.1886145113884295
  0
ARC
  5
1B87
  8
0
 10
340.0809410105650841
 20
23.3161732110871185
 30
0.0
 40
2.4754777674557631
 50
333.4063114282419065
 51
0.135223536099678
  0
ARC
  5
1B88
  8
0
 10
340.1570554177333179
 20
23.2362004498749286
 30
0.0
 40
2.4001561813344359
 50
334.6340286619711719
 51
0.1625563267685343
  0
ARC
  5
1B89
  8
0
 10
340.2269146288415982
 20
23.1583274126424215
 30
0.0
 40
2.3311203006301211
 50
335.9399678470336994
 51
0.0350806309332195
  0
ARC
  5
1B8A
  8
0
 10
340.2953131140336041
 20
23.0812517015580916
 30
0.0
 40
2.2634849574682279
 50
337.3036957547893735
 51
0.0571491097307892
  0
ARC
  5
1B8B
  8
0
 10
340.3605577613236051
 20
23.0054928180893405
 30
0.0
 40
2.1989992333085979
 50
338.7313177786414258
 51
0.0550603381905643
  0
ARC
  5
1B8C
  8
0
 10
340.4220704844993861
 20
22.9312239584293884
 30
0.0
 40
2.1382652456930722
 50
340.223449182655088
 51
359.9587956300557039
  0
ARC
  5
1B8D
  8
0
 10
340.4871586114999786
 20
22.8568437540822806
 30
0.0
 40
2.073850337355625
 50
341.7569266917863047
 51
0.1789350815492355
  0
ARC
  5
1B8E
  8
0
 10
340.5364326813373168
 20
22.7863394120921612
 30
0.0
 40
2.0254010592160001
 50
343.3943120604507158
 51
359.8385901510148983
  0
ARC
  5
1B8F
  8
0
 10
340.5909919015481933
 20
22.7153569816411505
 30
0.0
 40
1.971526958366415
 50
345.0666002870087254
 51
359.8926718021062925
  0
ARC
  5
1B90
  8
0
 10
340.6493868005903209
 20
22.6445787560925389
 30
0.0
 40
1.9137469385785451
 50
346.7845813395974801
 51
0.1880922601223207
  0
ARC
  5
1B91
  8
0
 10
340.6970371649559866
 20
22.5763903404822983
 30
0.0
 40
1.866780123993947
 50
348.5806907567236976
 51
0.186374097740852
  0
ARC
  5
1B92
  8
0
 10
340.7474364684563284
 20
22.5088511885095492
 30
0.0
 40
1.8170401707646919
 50
350.4189019866921058
 51
0.2786993420040083
  0
ARC
  5
1B93
  8
0
 10
340.927001959754989
 20
22.4291740802271811
 30
0.0
 40
1.6375474529656671
 50
352.159889073838599
 51
1.412857545280612
  0
ARC
  5
1B94
  8
0
 10
340.8980492646107905
 20
22.3735373905328885
 30
0.0
 40
1.6675904137261579
 50
354.2038416210028231
 51
2.0787895041095141
  0
ARC
  5
1B95
  8
0
 10
340.8776428568028791
 20
22.3148659996168988
 30
0.0
 40
1.6887791817996931
 50
356.2347397822364883
 51
0.2732924258898563
  0
ARC
  5
1B96
  8
0
 10
340.8982006492038863
 20
22.2530777061168692
 30
0.0
 40
1.6688362713987219
 50
358.229238927104177
 51
0.2988360662216412
  0
LINE
  5
1B97
  8
0
 10
342.5506145292956717
 20
23.9017510150481804
 30
0.0
 11
342.569551562802701
 21
22.0080476688169213
 31
0.0
  0
ARC
  5
1B98
  8
0
 10
337.1164545681206732
 20
20.6016565241301706
 30
0.0
 40
5.6297561431205709
 50
16.5687718207048498
 51
35.8526051609763314
  0
ARC
  5
1B99
  8
0
 10
337.5754850505790046
 20
20.8887107021327409
 30
0.0
 40
5.123815316320381
 50
14.9067023250367008
 51
35.9806871354688127
  0
ARC
  5
1B9A
  8
0
 10
337.966514253204025
 20
21.1362610451746811
 30
0.0
 40
4.696174487793205
 50
13.17218348584578
 51
36.0364011591467417
  0
ARC
  5
1B9B
  8
0
 10
338.3032852357951015
 20
21.3523324109654311
 30
0.0
 40
4.3308840560683404
 50
11.3653747887910104
 51
36.0172423604848504
  0
ARC
  5
1B9C
  8
0
 10
338.595806795496685
 20
21.5428221102366706
 30
0.0
 40
4.0162924133639262
 50
9.4917057278540593
 51
35.9202863412142008
  0
ARC
  5
1B9D
  8
0
 10
338.8515187262318022
 20
21.7121746457743399
 30
0.0
 40
3.7437006598418079
 50
7.5484752345670243
 51
35.7422736588535628
  0
ARC
  5
1B9E
  8
0
 10
339.0760453390619773
 20
21.8638187124976007
 30
0.0
 40
3.5064930820782201
 50
5.5264021178968381
 51
35.4793153665524272
  0
ARC
  5
1B9F
  8
0
 10
339.2620495099002937
 20
21.9947574755959003
 30
0.0
 40
3.3123641632363969
 50
3.6880939844160769
 51
35.0922078722916808
  0
ARC
  5
1BA0
  8
0
 10
339.3954440223532174
 20
22.0994546826290694
 30
0.0
 40
3.1760891174621131
 50
3.085875609747136
 51
34.5130742713173291
  0
ARC
  5
1BA1
  8
0
 10
339.519053751798026
 20
22.1995696397127986
 30
0.0
 40
3.0502323184715721
 50
2.5425812007805928
 51
33.8588417038610601
  0
ARC
  5
1BA2
  8
0
 10
339.6343515394922861
 20
22.2958733836747598
 30
0.0
 40
2.9331418520484158
 50
2.043986753785064
 51
33.1310115055251799
  0
ARC
  5
1BA3
  8
0
 10
339.7420529497011898
 20
22.3887509582499895
 30
0.0
 40
2.8240101708377439
 50
1.6068378382709789
 51
32.3294381315381187
  0
ARC
  5
1BA4
  8
0
 10
339.8431163182838759
 20
22.4786918585773492
 30
0.0
 40
2.7217700749722882
 50
1.227014603001322
 51
31.4550338216784411
  0
ARC
  5
1BA5
  8
0
 10
339.9382061501170824
 20
22.5660321134404995
 30
0.0
 40
2.6256842269571998
 50
0.9263081561734489
 51
30.5081668063236116
  0
ARC
  5
1BA6
  8
0
 10
340.0278006198773824
 20
22.6510142960092082
 30
0.0
 40
2.535223416171938
 50
0.8464967347840795
 51
29.488905465923839
  0
ARC
  5
1BA7
  8
0
 10
340.1123877497097965
 20
22.7338737440268304
 30
0.0
 40
2.4498539314532568
 50
1.008736621873779
 51
28.3976023973919389
  0
ARC
  5
1BA8
  8
0
 10
340.1956449155778159
 20
22.8158499848348093
 30
0.0
 40
2.3657474189549661
 50
0.893720008423145
 51
27.2482303208120307
  0
ARC
  5
1BA9
  8
0
 10
340.2700308016071062
 20
22.8946188977370184
 30
0.0
 40
2.2906726877429371
 50
1.188417612599773
 51
26.0061851844434102
  0
ARC
  5
1BAA
  8
0
 10
340.3440081678518823
 20
22.9727838755763507
 30
0.0
 40
2.215913640218754
 50
1.189726002908128
 51
24.707836054931299
  0
ARC
  5
1BAB
  8
0
 10
340.4147115218784734
 20
23.0493980829419307
 30
0.0
 40
2.1444478468451749
 50
1.200235557724997
 51
23.3408988622999516
  0
ARC
  5
1BAC
  8
0
 10
340.4147115218784734
 20
23.0493980829419307
 30
0.0
 40
2.1444478468451749
 50
359.9455454179002913
 51
359.9456418403394196
  0
ARC
  5
1BAD
  8
0
 10
340.4661962405476174
 20
23.1212937626816206
 30
0.0
 40
2.092247726463345
 50
1.2103434964962621
 51
21.82228337336268
  0
ARC
  5
1BAE
  8
0
 10
340.5507209653775931
 20
23.1989135025791597
 30
0.0
 40
2.006920665361017
 50
1.1422294910797259
 51
20.4183253698144789
  0
ARC
  5
1BAF
  8
0
 10
340.6085911222928075
 20
23.2701308085717393
 30
0.0
 40
1.9484085217561511
 50
1.3215838471409731
 51
18.8329923904089398
  0
ARC
  5
1BB0
  8
0
 10
340.6656475916294085
 20
23.3404906847474685
 30
0.0
 40
1.8906538434180999
 50
1.3386276156046399
 51
17.1860087733059004
  0
ARC
  5
1BB1
  8
0
 10
340.7238294546485804
 20
23.41021847195384
 30
0.0
 40
1.8317198855652139
 50
1.2038905546909351
 51
15.4822651812170093
  0
ARC
  5
1BB2
  8
0
 10
340.7806771281125862
 20
23.4786262465102311
 30
0.0
 40
1.7741370695641761
 50
1.032717225854934
 51
13.7138336974227801
  0
ARC
  5
1BB3
  8
0
 10
340.8353634783800885
 20
23.5454368636213509
 30
0.0
 40
1.718760800802678
 50
0.9255180837193012
 51
11.8809241200348303
  0
ARC
  5
1BB4
  8
0
 10
340.8886478290349942
 20
23.6107579155943803
 30
0.0
 40
1.66481129162497
 50
0.8386176716396962
 51
9.9836275563347598
  0
ARC
  5
1BB5
  8
0
 10
340.9396222313419003
 20
23.6744485233331901
 30
0.0
 40
1.6131960105028951
 50
0.7878175021177442
 51
8.01940246973043
  0
ARC
  5
1BB6
  8
0
 10
340.9800459197392115
 20
23.7358507146069897
 30
0.0
 40
1.57217400991371
 50
0.8960725989924805
 51
5.9816095390737978
  0
ARC
  5
1BB7
  8
0
 10
341.0144635001012716
 20
23.7958530854168515
 30
0.0
 40
1.537154675601289
 50
0.8761316496695831
 51
3.8851567507489109
  0
ARC
  5
1BB8
  8
0
 10
336.5700809427211766
 20
20.2638675562811486
 30
0.0
 40
6.2363976429855796
 50
18.1573544806393805
 51
35.6542409527189079
  0
ARC
  5
1BB9
  8
0
 10
335.9667093389937804
 20
19.8894821066331211
 30
0.0
 40
6.9109967792868501
 50
19.5975920409234199
 51
35.4623544878872465
  0
ARC
  5
1BBA
  8
0
 10
335.1205050477939835
 20
19.37980302425958
 30
0.0
 40
7.8624033242750153
 50
21.0795667981277113
 51
35.0847940454886427
  0
ARC
  5
1BBB
  8
0
 10
334.0455815963717896
 20
18.737195742532549
 30
0.0
 40
9.078209792736013
 50
22.4758167328283491
 51
34.6522724064886134
  0
ARC
  5
1BBC
  8
0
 10
332.6606409576061196
 20
17.9140063473965583
 30
0.0
 40
10.6528223975065899
 50
23.7701466959889416
 51
34.1819748587168419
  0
ARC
  5
1BBD
  8
0
 10
330.7542359610612266
 20
16.7891195677530796
 30
0.0
 40
12.8297846753902807
 50
24.983607305459401
 51
33.6535727179701567
  0
ARC
  5
1BBE
  8
0
 10
327.9066344854257977
 20
15.1207366027607204
 30
0.0
 40
16.09342594353447
 50
26.1280699681472903
 51
33.0558529294677967
  0
ARC
  5
1BBF
  8
0
 10
323.1912094989633033
 20
12.3737667718242399
 30
0.0
 40
21.5138261090147793
 50
27.2008531433656096
 51
32.3922484938570321
  0
ARC
  5
1BC0
  8
0
 10
313.8077233001463924
 20
6.9315598311562487
 30
0.0
 40
32.3244072946539873
 50
28.2030494090264412
 51
31.6622401276765899
  0
ARC
  5
1BC1
  8
0
 10
285.7540698781057813
 20
-9.2899301656496842
 30
0.0
 40
64.6933910166544166
 50
29.1357379110086008
 51
30.8651147380910515
  0
LINE
  5
1BC2
  8
0
 10
342.2275013213575221
 20
22.2080044801219714
 30
0.0
 11
341.2512099456587862
 21
23.8989907457601305
 31
0.0
  0
ARC
  5
1BC3
  8
0
 10
397.6745378383953948
 20
55.2781101119518965
 30
0.0
 40
64.5906336473146894
 50
209.0659010894881931
 51
210.7968443945948991
  0
ARC
  5
1BC4
  8
0
 10
369.6210987574361866
 20
39.0570385975109531
 30
0.0
 40
32.2221680589977026
 50
208.0617388925149953
 51
211.5271760356407924
  0
ARC
  5
1BC5
  8
0
 10
360.2379678137551764
 20
33.6155236071546923
 30
0.0
 40
21.412444677053859
 50
206.9864001647387113
 51
212.1917956778034124
  0
ARC
  5
1BC6
  8
0
 10
355.5230385168152907
 20
30.8695123920306393
 30
0.0
 40
15.9932362818743599
 50
205.8387713333947033
 51
212.7912553685717114
  0
ARC
  5
1BC7
  8
0
 10
352.6760724229080211
 20
29.2023452377592783
 30
0.0
 40
12.7311127886547606
 50
204.6178055677326029
 51
213.3259547334002946
  0
ARC
  5
1BC8
  8
0
 10
350.7638094965050186
 20
28.0752520918097197
 30
0.0
 40
10.5484376539396401
 50
203.3226068755982965
 51
213.7962056897449088
  0
ARC
  5
1BC9
  8
0
 10
349.3864123849548946
 20
27.2574215360507601
 30
0.0
 40
8.983508964021194
 50
201.952326458499698
 51
214.2010101005988929
  0
ARC
  5
1BCA
  8
0
 10
348.3440780674062012
 20
26.6335166925653617
 30
0.0
 40
7.8055944356594189
 50
200.5065976970655015
 51
214.5406912874979923
  0
ARC
  5
1BCB
  8
0
 10
347.5259083230852184
 20
26.1395123862824796
 30
0.0
 40
6.8866089437171958
 50
198.985223406015308
 51
214.8143579775556873
  0
ARC
  5
1BCC
  8
0
 10
346.9018744128625258
 20
25.7550084847606087
 30
0.0
 40
6.1899109496578619
 50
197.4465151336108022
 51
214.9637274858351077
  0
ARC
  5
1BCD
  8
0
 10
346.3214197430983745
 20
25.4020889158678607
 30
0.0
 40
5.5473132387378756
 50
195.7188594224247993
 51
215.1572923764151994
  0
ARC
  5
1BCE
  8
0
 10
345.8630784312840092
 20
25.1171625588032512
 30
0.0
 40
5.0438242210834261
 50
193.9725885043779954
 51
215.2267134784237896
  0
ARC
  5
1BCF
  8
0
 10
345.4737547557987227
 20
24.8722647593553496
 30
0.0
 40
4.6198071235873774
 50
192.1569137955443125
 51
215.2218681972182139
  0
ARC
  5
1BD0
  8
0
 10
345.138816073532098
 20
24.6589196962395185
 30
0.0
 40
4.258323487270065
 50
190.2729109178962119
 51
215.1416050057598
  0
ARC
  5
1BD1
  8
0
 10
344.8482518623561077
 20
24.4712019063629107
 30
0.0
 40
3.9477023132226199
 50
188.3240672053925095
 51
214.9836767227679104
  0
ARC
  5
1BD2
  8
0
 10
344.59462049789812
 20
24.3046378879430094
 30
0.0
 40
3.679225589180728
 50
186.3140193339112045
 51
214.7439224811936924
  0
ARC
  5
1BD3
  8
0
 10
344.3722955608637903
 20
24.1557692712725398
 30
0.0
 40
3.4462589276254301
 50
184.2270140636204019
 51
214.4188862601070866
  0
ARC
  5
1BD4
  8
0
 10
344.1605062355874907
 20
24.0166400249182992
 30
0.0
 40
3.2271409343714801
 50
182.0402104530159022
 51
214.0913383985623
  0
ARC
  5
1BD5
  8
0
 10
344.0525922074044729
 20
23.9211582463617987
 30
0.0
 40
3.118152091197683
 50
180.9446224012253026
 51
213.3300642973713934
  0
ARC
  5
1BD6
  8
0
 10
343.941569376619384
 20
23.8273449225701484
 30
0.0
 40
3.0073760532409479
 50
180.3578523810803915
 51
212.5810444239635046
  0
ARC
  5
1BD7
  8
0
 10
343.8386269690103063
 20
23.7369100268599489
 30
0.0
 40
2.9050218937154382
 50
179.8405003808771028
 51
211.7572507505109058
  0
ARC
  5
1BD8
  8
0
 10
343.750689864144988
 20
23.6527823587828792
 30
0.0
 40
2.8185431320631089
 50
180.6933605482034011
 51
210.8377480264921076
  0
ARC
  5
1BD9
  8
0
 10
343.6557701386786903
 20
23.565259405302811
 30
0.0
 40
2.7241252535649529
 50
180.2918093596757956
 51
209.8835918608955069
  0
ARC
  5
1BDA
  8
0
 10
343.5667523734643964
 20
23.4801267572251717
 30
0.0
 40
2.635765720137611
 50
179.9570345729200085
 51
208.8578754116387017
  0
ARC
  5
1BDB
  8
0
 10
343.4833887116884057
 20
23.39722298573448
 30
0.0
 40
2.5531799054378128
 50
179.8113854886115917
 51
207.7606033708152893
  0
ARC
  5
1BDC
  8
0
 10
343.4048573904400996
 20
23.3161732110871185
 30
0.0
 40
2.4754777674557631
 50
179.8647764639003128
 51
206.5936885717580935
  0
ARC
  5
1BDD
  8
0
 10
343.3287429832719795
 20
23.2362004498749286
 30
0.0
 40
2.4001561813344359
 50
179.8374436732314052
 51
205.3659713380287997
  0
ARC
  5
1BDE
  8
0
 10
343.2588837721635855
 20
23.1583274126424215
 30
0.0
 40
2.3311203006301211
 50
179.9649193690667914
 51
204.0600321529661016
  0
ARC
  5
1BDF
  8
0
 10
343.1904852869715796
 20
23.0812517015580916
 30
0.0
 40
2.2634849574682279
 50
179.9428508902691988
 51
202.6963042452103991
  0
ARC
  5
1BE0
  8
0
 10
343.1252406396816923
 20
23.0054928180893405
 30
0.0
 40
2.1989992333085979
 50
179.9449396618093999
 51
201.2686822213586026
  0
ARC
  5
1BE1
  8
0
 10
343.0637279165057976
 20
22.9312239584293884
 30
0.0
 40
2.1382652456930722
 50
180.0412043699442108
 51
199.776550817344912
  0
ARC
  5
1BE2
  8
0
 10
342.998639789505205
 20
22.8568437540822806
 30
0.0
 40
2.073850337355625
 50
179.8210649184507872
 51
198.2430733082136953
  0
ARC
  5
1BE3
  8
0
 10
342.9493657196679237
 20
22.7863394120921612
 30
0.0
 40
2.0254010592160001
 50
180.161409848984988
 51
196.605687939549199
  0
ARC
  5
1BE4
  8
0
 10
342.8948064994571041
 20
22.7153569816411505
 30
0.0
 40
1.971526958366415
 50
180.1073281978937075
 51
194.9333997129911893
  0
ARC
  5
1BE5
  8
0
 10
342.8364116004149196
 20
22.6445787560925389
 30
0.0
 40
1.9137469385785451
 50
179.8119077398777108
 51
193.2154186604024062
  0
ARC
  5
1BE6
  8
0
 10
342.7887612360493108
 20
22.5763903404822983
 30
0.0
 40
1.866780123993947
 50
179.8136259022591048
 51
191.4193092432761887
  0
ARC
  5
1BE7
  8
0
 10
342.7383619325489121
 20
22.5088511885095492
 30
0.0
 40
1.8170401707646919
 50
179.7213006579960108
 51
189.581098013307809
  0
ARC
  5
1BE8
  8
0
 10
342.5587964412503084
 20
22.4291740802271811
 30
0.0
 40
1.6375474529656671
 50
178.5871424547192987
 51
187.8401109261612874
  0
ARC
  5
1BE9
  8
0
 10
342.5877491363943932
 20
22.3735373905328885
 30
0.0
 40
1.6675904137261579
 50
177.9212104958905911
 51
185.7961583789972053
  0
ARC
  5
1BEA
  8
0
 10
342.6081555442023046
 20
22.3148659996168988
 30
0.0
 40
1.6887791817996931
 50
179.7267075741100939
 51
183.7652602177635117
  0
ARC
  5
1BEB
  8
0
 10
342.5875977518014111
 20
22.2530777061168692
 30
0.0
 40
1.6688362713987219
 50
179.7011639337783038
 51
181.7707610728955956
  0
LINE
  5
1BEC
  8
0
 10
342.6877810903026216
 20
16.5031678875446595
 30
0.0
 11
342.6877810903026216
 21
16.3622628320169206
 31
0.0
  0
LINE
  5
1BED
  8
0
 10
342.6794708445345918
 20
16.5144481730001083
 30
0.0
 11
342.5736078619025875
 21
16.5473022021169207
 31
0.0
  0
ARC
  5
1BEE
  8
0
 10
342.6759700662872206
 20
16.5031678875446595
 30
0.0
 40
0.011811024015458
 50
0.0000013207039073
 51
72.7585392274345537
  0
LINE
  5
1BEF
  8
0
 10
342.5368926771923839
 20
23.9269134883270382
 30
0.0
 11
342.4988047123026149
 21
23.9646224779169188
 31
0.0
  0
ARC
  5
1BF0
  8
0
 10
342.5313528146413091
 20
23.9213179501640099
 30
0.0
 40
0.0078740157746008
 50
270.0
 51
45.2864692453974698
  0
ARC
  5
1BF1
  8
0
 10
342.5388040960627904
 20
23.9016329106767706
 30
0.0
 40
0.0118110237401483
 50
0.5729388872714982
 51
89.9999998071596679
  0
ARC
  5
1BF2
  8
0
 10
342.5577411298000925
 20
22.0079295644866093
 30
0.0
 40
0.0118110235093952
 50
270.0
 51
0.5729386990333984
  0
ARC
  5
1BF3
  8
0
 10
342.5499858091001215
 20
21.854388814137689
 30
0.0
 40
0.0196850449025253
 50
0.0000063428954204
 51
89.9662096891379122
  0
ARC
  5
1BF4
  8
0
 10
341.7429300374025729
 20
21.4725199310169188
 30
0.0
 40
0.8928393031999796
 50
26.7276056805884501
 51
35.904937502669533
  0
LINE
  5
1BF5
  8
0
 10
342.5696708540025952
 20
16.5473022021169207
 30
0.0
 11
342.5696708540025952
 21
17.5827352750643584
 31
0.0
  0
LINE
  5
1BF6
  8
0
 10
342.5696708540025952
 20
18.0865354017694706
 30
0.0
 11
342.5696708540025952
 21
21.85438881631692
 31
0.0
  0
LINE
  5
1BF7
  8
0
 10
337.025989161402606
 20
21.1437550466169206
 30
0.0
 11
336.9261273845025926
 21
20.7112061693169203
 31
0.0
  0
LINE
  5
1BF8
  8
0
 10
336.9261273845025926
 20
20.7112061693169203
 30
0.0
 11
335.8903796779026152
 21
20.9503273688169109
 31
0.0
  0
LINE
  5
1BF9
  8
0
 10
335.8903796779026152
 20
20.9503273688169109
 30
0.0
 11
336.1001210326026012
 21
21.8588169866169189
 31
0.0
  0
ARC
  5
1BFA
  8
0
 10
336.1193015456772741
 20
21.8543888162588793
 30
0.0
 40
0.0196850393580553
 50
90.0
 51
167.0000000010637962
  0
ARC
  5
1BFB
  8
0
 10
337.1027303875237067
 20
21.1260186480797891
 30
0.0
 40
0.0787641772611559
 50
90.160316080919003
 51
166.9863270944657927
  0
LINE
  5
1BFC
  8
0
 10
337.1025100022205265
 20
21.2047825170169197
 30
0.0
 11
340.7586528444693954
 21
21.2047825170169197
 31
0.0
  0
ARC
  5
1BFD
  8
0
 10
340.7586472320026019
 20
21.0473022021168994
 30
0.0
 40
0.1574803150000277
 50
0.0
 51
89.9979580263383241
  0
LINE
  5
1BFE
  8
0
 10
342.5684354514241932
 20
18.0584349712228303
 30
0.0
 11
342.7604112105032073
 21
18.5107015174182798
 31
0.0
  0
LINE
  5
1BFF
  8
0
 10
342.5686572045162279
 20
17.6055372707902187
 30
0.0
 11
342.9234927790254233
 21
18.441477498570471
 31
0.0
  0
ARC
  5
1C00
  8
0
 10
347.9791787696170786
 20
17.8346353384169092
 30
0.0
 40
5.415369750165989
 50
177.3338809756617991
 51
182.666119024338002
  0
LINE
  5
1C01
  8
0
 10
342.725982884402697
 20
18.5253154748169102
 30
0.0
 11
342.9579211102026193
 21
18.4268635390169102
 31
0.0
  0
ARC
  5
1C02
  8
0
 10
342.7305978141408787
 20
18.5361875815884893
 30
0.0
 40
0.0118110237550326
 50
157.0000005902188036
 51
247.0000258341407005
  0
LINE
  5
1C03
  8
0
 10
342.7197257094026099
 20
18.5408025161169085
 30
0.0
 11
342.9181678967025846
 21
19.0083030125169188
 31
0.0
  0
ARC
  5
1C04
  8
0
 10
342.9290400013096018
 20
19.0036880778059896
 30
0.0
 40
0.0118110237054606
 50
66.9999859187223308
 51
156.9999995263430037
  0
LINE
  5
1C05
  8
0
 10
342.9336549386026149
 20
19.0145601813169201
 30
0.0
 11
343.1655931639025994
 21
18.9161082458169112
 31
0.0
  0
ARC
  5
1C06
  8
0
 10
342.9625360446443096
 20
18.4377356438351683
 30
0.0
 40
0.0118110237947223
 50
247.0000011293712987
 51
336.9999993273926862
  0
LINE
  5
1C07
  8
0
 10
342.973408149317379
 20
18.4331207090516109
 30
0.0
 11
343.1718503366174104
 21
18.9006212054516105
 31
0.0
  0
ARC
  5
1C08
  8
0
 10
343.1609782319342798
 20
18.9052361399832911
 30
0.0
 40
0.0118110237054606
 50
337.0000004710162216
 51
67.000014078639424
  0
LINE
  5
1C0A
  8
0
 10
340.8063275564707055
 20
16.5144481730001083
 30
0.0
 11
342.6794708445345918
 21
16.5144481730001083
 31
0.0
  0
ENDSEC
  0
EOF
