  0
SECTION
  2
HEADER
  9
$ACADVER
  1
AC1009
  9
$INSBASE
 10
357.1205383934797055
 20
17.5808114771351889
 30
0.0
  9
$EXTMIN
 10
356.1613490927750263
 20
11.7274248755706498
 30
-0.0015258207003583
  9
$EXTMAX
 10
358.0889863278121084
 20
19.0109098973654405
 30
0.0000000349246037
  9
$LIMMIN
 10
0.0
 20
0.0
  9
$LIMMAX
 10
11.6929133858000007
 20
8.2677165353999982
  9
$ORTHOMODE
 70
     1
  9
$REGENMODE
 70
     1
  9
$FILLMODE
 70
     1
  9
$QTEXTMODE
 70
     0
  9
$MIRRTEXT
 70
     0
  9
$DRAGMODE
 70
     2
  9
$LTSCALE
 40
0.6431102362
  9
$OSMODE
 70
     7
  9
$ATTMODE
 70
     1
  9
$TEXTSIZE
 40
0.2
  9
$TRACEWID
 40
0.05
  9
$TEXTSTYLE
  7
STANDARD
  9
$CLAYER
  8
0
  9
$CELTYPE
  6
BYLAYER
  9
$CECOLOR
 62
   256
  9
$DIMSCALE
 40
1.0
  9
$DIMASZ
 40
0.1875
  9
$DIMEXO
 40
0.0625
  9
$DIMDLI
 40
0.4443307087
  9
$DIMRND
 40
0.0
  9
$DIMDLE
 40
0.0
  9
$DIMEXE
 40
0.125
  9
$DIMTP
 40
0.01
  9
$DIMTM
 40
0.01
  9
$DIMTXT
 40
2.0
  9
$DIMCEN
 40
0.1052362205
  9
$DIMTSZ
 40
0.0
  9
$DIMTOL
 70
     1
  9
$DIMLIM
 70
     0
  9
$DIMTIH
 70
     1
  9
$DIMTOH
 70
     1
  9
$DIMSE1
 70
     0
  9
$DIMSE2
 70
     0
  9
$DIMTAD
 70
     0
  9
$DIMZIN
 70
     0
  9
$DIMBLK
  1

  9
$DIMASO
 70
     1
  9
$DIMSHO
 70
     1
  9
$DIMPOST
  1
\X
  9
$DIMAPOST
  1

  9
$DIMALT
 70
     1
  9
$DIMALTD
 70
     2
  9
$DIMALTF
 40
25.3999999999999986
  9
$DIMLFAC
 40
1.0
  9
$DIMTOFL
 70
     0
  9
$DIMTVP
 40
0.0
  9
$DIMTIX
 70
     0
  9
$DIMSOXD
 70
     0
  9
$DIMSAH
 70
     0
  9
$DIMBLK1
  1

  9
$DIMBLK2
  1

  9
$DIMSTYLE
  2
STANDARD
  9
$DIMCLRD
 70
     0
  9
$DIMCLRE
 70
     0
  9
$DIMCLRT
 70
     0
  9
$DIMTFAC
 40
1.0
  9
$DIMGAP
 40
0.09
  9
$LUNITS
 70
     2
  9
$LUPREC
 70
     4
  9
$SKETCHINC
 40
0.1
  9
$FILLETRAD
 40
0.0
  9
$AUNITS
 70
     0
  9
$AUPREC
 70
     0
  9
$MENU
  1
.
  9
$ELEVATION
 40
0.0
  9
$PELEVATION
 40
0.0
  9
$THICKNESS
 40
0.0
  9
$LIMCHECK
 70
     0
  9
$BLIPMODE
 70
     0
  9
$CHAMFERA
 40
0.0
  9
$CHAMFERB
 40
0.0
  9
$SKPOLY
 70
     0
  9
$TDCREATE
 40
2458106.4931018520146608
  9
$TDUPDATE
 40
2459676.7116898149251938
  9
$TDINDWG
 40
0.2028110648
  9
$TDUSRTIMER
 40
0.2028110648
  9
$USRTIMER
 70
     1
  9
$ANGBASE
 50
0.0
  9
$ANGDIR
 70
     0
  9
$PDMODE
 70
     0
  9
$PDSIZE
 40
0.3125
  9
$PLINEWID
 40
0.0
  9
$COORDS
 70
     1
  9
$SPLFRAME
 70
     0
  9
$SPLINETYPE
 70
     6
  9
$SPLINESEGS
 70
     8
  9
$ATTDIA
 70
     1
  9
$ATTREQ
 70
     1
  9
$HANDLING
 70
     1
  9
$HANDSEED
  5
1932
  9
$SURFTAB1
 70
     6
  9
$SURFTAB2
 70
     6
  9
$SURFTYPE
 70
     6
  9
$SURFU
 70
     6
  9
$SURFV
 70
     6
  9
$UCSNAME
  2

  9
$UCSORG
 10
0.0
 20
0.0
 30
0.0
  9
$UCSXDIR
 10
1.0
 20
0.0
 30
0.0
  9
$UCSYDIR
 10
0.0
 20
1.0
 30
0.0
  9
$PUCSNAME
  2

  9
$PUCSORG
 10
0.0
 20
0.0
 30
0.0
  9
$PUCSXDIR
 10
1.0
 20
0.0
 30
0.0
  9
$PUCSYDIR
 10
0.0
 20
1.0
 30
0.0
  9
$USERI1
 70
     0
  9
$USERI2
 70
     0
  9
$USERI3
 70
     0
  9
$USERI4
 70
     0
  9
$USERI5
 70
     0
  9
$USERR1
 40
0.0
  9
$USERR2
 40
0.0
  9
$USERR3
 40
0.0
  9
$USERR4
 40
0.0
  9
$USERR5
 40
0.0
  9
$WORLDVIEW
 70
     1
  9
$SHADEDGE
 70
     3
  9
$SHADEDIF
 70
    70
  9
$TILEMODE
 70
     1
  9
$MAXACTVP
 70
    64
  9
$PLIMCHECK
 70
     0
  9
$PEXTMIN
 10
1.0000000000000000E+20
 20
1.0000000000000000E+20
 30
1.0000000000000000E+20
  9
$PEXTMAX
 10
-1.0000000000000000E+20
 20
-1.0000000000000000E+20
 30
-1.0000000000000000E+20
  9
$PLIMMIN
 10
0.0
 20
0.0
  9
$PLIMMAX
 10
12.0
 20
9.0
  9
$UNITMODE
 70
     0
  9
$VISRETAIN
 70
     1
  9
$PLINEGEN
 70
     0
  9
$PSLTSCALE
 70
     1
  0
ENDSEC
  0
SECTION
  2
TABLES
  0
TABLE
  2
VPORT
 70
     1
  0
VPORT
  2
*ACTIVE
 70
     0
 10
0.0
 20
0.0
 11
1.0
 21
1.0
 12
83.5509661537804504
 22
32.9751281204895292
 13
0.0
 23
0.0
 14
1.0
 24
1.0
 15
0.0
 25
0.0
 16
-0.0000000000000568
 26
0.0
 36
193.9250709296327955
 17
273.5742015565131169
 27
-17.6059607340214797
 37
0.0
 40
7.3383846844920582
 41
2.2831541218637992
 42
50.0
 43
0.0
 44
0.0
 50
0.0
 51
0.0
 71
     0
 72
   100
 73
     1
 74
     1
 75
     0
 76
     0
 77
     0
 78
     0
  0
ENDTAB
  0
TABLE
  2
LTYPE
 70
     2
  0
LTYPE
  2
CONTINUOUS
 70
     0
  3
Solid line
 72
    65
 73
     0
 40
0.0
  0
LTYPE
  2
PHANTOM2
 70
     0
  3
___ _ _ ___ _ _ ___ _ _ ___ _ _
 72
    65
 73
     6
 40
1.25
 49
0.625
 49
-0.125
 49
0.125
 49
-0.125
 49
0.125
 49
-0.125
  0
ENDTAB
  0
TABLE
  2
LAYER
 70
     2
  0
LAYER
  2
0
 70
     0
 62
   255
  6
CONTINUOUS
  0
LAYER
  2
DEFPOINTS
 70
     0
 62
     7
  6
CONTINUOUS
  0
ENDTAB
  0
TABLE
  2
STYLE
 70
     1
  0
STYLE
  2
STANDARD
 70
     0
 40
0.0
 41
0.8
 50
0.0
 71
     0
 42
0.2
  3
txt
  4

  0
ENDTAB
  0
TABLE
  2
VIEW
 70
     0
  0
ENDTAB
  0
TABLE
  2
UCS
 70
     0
  0
ENDTAB
  0
TABLE
  2
APPID
 70
     9
  0
APPID
  2
ACAD
 70
     0
  0
APPID
  2
ACAD_MLEADERVER
 70
     0
  0
APPID
  2
ACAD_EXEMPT_FROM_CAD_STANDARDS
 70
     0
  0
APPID
  2
ACAD_NAV_VCDISPLAY
 70
     0
  0
APPID
  2
ACAD_DSTYLE_DIMJAG
 70
     0
  0
APPID
  2
ACAD_DSTYLE_DIMTALN
 70
     0
  0
APPID
  2
ACAECLAYERSTANDARD
 70
     0
  0
APPID
  2
ACCMTRANSPARENCY
 70
     0
  0
APPID
  2
ACDBATTR
 70
     0
  0
ENDTAB
  0
TABLE
  2
DIMSTYLE
 70
     1
  0
DIMSTYLE
  2
STANDARD
 70
     0
  3

  4

  5

  6

  7

 40
1.0
 41
0.1875
 42
0.0625
 43
0.38
 44
0.125
 45
0.0
 46
0.0
 47
0.01
 48
0.01
140
0.15625
141
0.09
142
0.0
143
25.3999999999999986
144
1.0
145
0.0
146
1.0
147
0.09
 71
     1
 72
     0
 73
     1
 74
     1
 75
     0
 76
     0
 77
     0
 78
     4
170
     0
171
     2
172
     0
173
     0
174
     0
175
     0
176
     0
177
     0
178
     0
  0
ENDTAB
  0
ENDSEC
  0
SECTION
  2
BLOCKS
  0
BLOCK
  8
0
  2
$MODEL_SPACE
 70
     0
 10
0.0
 20
0.0
 30
0.0
  3
$MODEL_SPACE
  1

  0
ENDBLK
  5
21
  8
0
  0
BLOCK
 67
     1
  8
0
  2
$PAPER_SPACE
 70
     0
 10
0.0
 20
0.0
 30
0.0
  3
$PAPER_SPACE
  1

  0
ENDBLK
  5
1D
 67
     1
  8
0
  0
BLOCK
  8
0
  2
_FILLED
 70
     0
 10
0.0
 20
0.0
 30
0.0
  3
_FILLED
  1

  0
SOLID
  5
180B
  8
0
  6
BYBLOCK
 62
     0
 10
0.0
 20
0.0
 30
0.0
 11
-1.0
 21
0.1666666667
 31
0.0
 12
-1.0
 22
-0.1666666667
 32
0.0
 13
-1.0
 23
-0.1666666667
 33
0.0
  0
ENDBLK
  5
180C
  8
0
  6
BYBLOCK
 62
     0
  0
ENDSEC
  0
SECTION
  2
ENTITIES
  0
ATTDEF
  5
FAA
  8
DEFPOINTS
 10
357.1207558847451082
 20
17.5844238207232308
 30
0.0
 40
0.001
  1
K-EX28093T-8
  3

  2
MODELNUMBER
 70
     0
1001
ACDBATTR
1070
     0
1070
     1
  0
ATTDEF
  5
FAB
  8
DEFPOINTS
 10
357.1207558847451082
 20
17.5827571540565692
 30
0.0
 40
0.001
  1

  3

  2
TRADENAME
 70
     0
1001
ACDBATTR
1070
     0
1070
     1
  0
ATTDEF
  5
FAC
  8
DEFPOINTS
 10
357.1207558847451082
 20
17.5810904873899005
 30
0.0
 40
0.001
  1
BATHROOM SINK FAUCET
  3

  2
PRODUCT
 70
     0
1001
ACDBATTR
1070
     0
1070
     1
  0
ARC
  5
1841
  8
0
 10
357.1205383934797055
 20
17.5808114771351889
 30
0.0
 40
0.9448818898000004
 50
95.3793789930159761
 51
235.7502867448789914
  0
ARC
  5
1842
  8
0
 10
357.1205383934797055
 20
17.5808114771351889
 30
0.0
 40
0.9448818898000004
 50
304.2497132551209802
 51
84.6206210069840239
  0
ARC
  5
1843
  8
0
 10
357.1205383934797055
 20
17.5808114771351889
 30
0.0
 40
0.8307086614000001
 50
96.1213781914313188
 51
223.8679463354800987
  0
CIRCLE
  5
1844
  8
0
 10
357.1205383934797055
 20
17.5808114771351889
 30
0.0
 40
0.8267716534999998
  0
CIRCLE
  5
1845
  8
0
 10
357.1205383934797055
 20
17.5808114771351889
 30
0.0
 40
0.7963276299133053
  0
CIRCLE
  5
1846
  8
0
 10
357.1205383934797055
 20
17.5808114771351889
 30
0.0
 40
0.7559055118000009
  0
LINE
  5
1847
  8
0
 10
356.5890423304796855
 20
16.7848442874347299
 30
0.0
 11
356.5890423304796855
 21
12.2461658078356805
 31
0.0
  0
ARC
  5
1848
  8
0
 10
356.1952474036156104
 20
16.7848204486960917
 30
0.0
 40
0.3937949275856383
 50
0.0034684528527233
 51
40.4183820342746216
  0
LINE
  5
1849
  8
0
 10
356.9827431178798065
 20
18.8831343442993287
 30
0.0
 11
356.9827431178798065
 21
18.6844792057351903
 31
0.0
  0
ARC
  5
184A
  8
0
 10
357.1018025005006962
 20
18.6844792057351903
 30
0.0
 40
0.1190593826209838
 50
180.0000000000001137
 51
200.0434884662622039
  0
ARC
  5
184B
  8
0
 10
357.1096463849655152
 20
18.6877943441259013
 30
0.0
 40
0.1275651041348859
 50
200.2348216121021096
 51
231.1288100840656057
  0
ARC
  5
184C
  8
0
 10
357.1014237768981729
 20
18.8831343442993287
 30
0.0
 40
0.1186806590184979
 50
151.7579697755811026
 51
208.2420302244146058
  0
ARC
  5
184D
  8
0
 10
357.1116440966578125
 20
18.877858172383899
 30
0.0
 40
0.1301811222163808
 50
128.9746123402779006
 51
151.8407780378717007
  0
ARC
  5
184E
  8
0
 10
357.1180914973326139
 20
18.86978137816455
 30
0.0
 40
0.14051549829817
 50
107.6555456043730032
 51
128.9469907580435972
  0
ARC
  5
184F
  8
0
 10
357.1101812081982985
 20
18.8879383938575991
 30
0.0
 40
0.1286688683193639
 50
208.2812909564235895
 51
231.3795178708751905
  0
ARC
  5
1850
  8
0
 10
357.1182171249204202
 20
18.8979566607934188
 30
0.0
 40
0.1415118057186531
 50
231.3692135889598944
 51
252.6401854031176129
  0
LINE
  5
1851
  8
0
 10
357.0319557162796968
 20
18.402823932230131
 30
0.0
 11
357.0319557162798105
 21
18.5866337617612807
 31
0.0
  0
LINE
  5
1852
  8
0
 10
357.6520344564797256
 20
16.7848442874347299
 30
0.0
 11
357.6520344564797256
 21
12.2461658078356805
 31
0.0
  0
ARC
  5
1853
  8
0
 10
358.0458293833438006
 20
16.7848204486960917
 30
0.0
 40
0.3937949275856383
 50
139.5816179657275029
 51
179.9965315471472991
  0
LINE
  5
1854
  8
0
 10
357.2583336690797182
 20
18.8831343442993287
 30
0.0
 11
357.2583336690797182
 21
18.6844792057351903
 31
0.0
  0
ARC
  5
1855
  8
0
 10
357.1392742864587149
 20
18.6844792057351903
 30
0.0
 40
0.1190593826209838
 50
339.9565115337376824
 51
359.9999999999998863
  0
ARC
  5
1856
  8
0
 10
357.1314304019938959
 20
18.6877943441259013
 30
0.0
 40
0.1275651041348859
 50
308.8711899159342806
 51
339.7651783878977199
  0
ARC
  5
1857
  8
0
 10
357.1396530100611812
 20
18.8831343442993287
 30
0.0
 40
0.1186806590184979
 50
331.7579697755854227
 51
28.2420302244189187
  0
ARC
  5
1858
  8
0
 10
357.1294326903017122
 20
18.877858172383899
 30
0.0
 40
0.1301811222163808
 50
28.1592219621283206
 51
51.025387659722071
  0
ARC
  5
1859
  8
0
 10
357.1229852896269108
 20
18.86978137816455
 30
0.0
 40
0.14051549829817
 50
51.053009241956353
 51
72.3444543956269541
  0
ARC
  5
185A
  8
0
 10
357.1308955787612263
 20
18.8879383938575991
 30
0.0
 40
0.1286688683193639
 50
308.6204821291248095
 51
331.7187090435763821
  0
ARC
  5
185B
  8
0
 10
357.1228596620389908
 20
18.8979566607934188
 30
0.0
 40
0.1415118057186531
 50
287.3598145968824156
 51
308.6307864110401056
  0
LINE
  5
185C
  8
0
 10
357.2091210706797142
 20
18.402823932230131
 30
0.0
 11
357.2091210706797142
 21
18.5866337617612807
 31
0.0
  0
ARC
  5
185D
  8
0
 10
357.1205383934797055
 20
18.8626150041473295
 30
0.0
 40
0.1480865281249879
 50
72.2832753265939516
 51
107.7167246734061052
  0
ARC
  5
185E
  8
0
 10
357.1205383934797055
 20
18.905156058287659
 30
0.0
 40
0.1490758849524732
 50
252.614265630454895
 51
287.3857343695452187
  0
ARC
  5
185F
  8
0
 10
357.1205383934797055
 20
18.7027332378088289
 30
0.0
 40
0.1460341707903885
 50
231.4800226863438013
 51
308.5199773136559998
  0
ARC
  5
1860
  8
0
 10
357.1469466517459068
 20
12.4829354925057707
 30
0.0
 40
0.557966774831744
 50
180.8572670486464915
 51
204.1374532746881982
  0
ARC
  5
1861
  8
0
 10
357.1349598273923789
 20
12.4778781347477103
 30
0.0
 40
0.544959978544833
 50
204.1675813917136963
 51
223.9257664511584949
  0
ARC
  5
1862
  8
0
 10
357.1256380182067005
 20
12.4689024643549793
 30
0.0
 40
0.5320193919754328
 50
223.9259979689587112
 51
242.9859331551942887
  0
ARC
  5
1863
  8
0
 10
357.0941301352136179
 20
12.4829354925057707
 30
0.0
 40
0.557966774831744
 50
335.8625467253116881
 51
359.1427329513534232
  0
ARC
  5
1864
  8
0
 10
357.1061169595669753
 20
12.4778781347477103
 30
0.0
 40
0.544959978544833
 50
316.0742335488415051
 51
335.8324186082862752
  0
ARC
  5
1865
  8
0
 10
357.1154387687527105
 20
12.4689024643549793
 30
0.0
 40
0.5320193919754328
 50
297.0140668448057113
 51
316.0740020310412888
  0
ARC
  5
1866
  8
0
 10
357.1205383934797055
 20
12.4582158103004694
 30
0.0
 40
0.5201825010652839
 50
242.951705797147298
 51
297.0482942028526168
  0
ARC
  5
1867
  8
0
 10
357.0942071168170742
 20
12.2461956990125405
 30
0.0
 40
0.5051647872217327
 50
180.0033902567072062
 51
192.3386191801112943
  0
ARC
  5
1868
  8
0
 10
357.1029067753144091
 20
12.2489573828500902
 30
0.0
 40
0.5142543243254921
 50
192.4320825172885066
 51
226.2295925164953871
  0
LINE
  5
1869
  8
0
 10
357.6520344564797256
 20
16.7848442874347299
 30
0.0
 11
357.6520344564797256
 21
12.2461658078356805
 31
0.0
  0
ARC
  5
186A
  8
0
 10
357.14686967014228
 20
12.2461956990125405
 30
0.0
 40
0.5051647872217327
 50
347.6613808198886204
 51
359.9966097432927086
  0
ARC
  5
186B
  8
0
 10
357.1381700116451157
 20
12.2489573828500902
 30
0.0
 40
0.5142543243254921
 50
313.7704074835045844
 51
347.5679174827114934
  0
ARC
  5
186C
  8
0
 10
357.1205383934797055
 20
12.2697882315893203
 30
0.0
 40
0.5414962770541285
 50
226.4071485600157985
 51
313.5928514399842015
  0
ENDSEC
  0
EOF
