  0
SECTION
  2
HEADER
  9
$ACADVER
  1
AC1009
  9
$INSBASE
 10
4226.5692938423389933
 20
181.5967675764719047
 30
0.0
  9
$EXTMIN
 10
4219.0750797616219643
 20
172.5574887964905884
 30
-0.0000000349181948
  9
$EXTMAX
 10
4233.9337026590928872
 20
182.9718605657689068
 30
0.0000000814935746
  9
$LIMMIN
 10
0.0
 20
0.0
  9
$LIMMAX
 10
11.6929133858000007
 20
8.2677165353999982
  9
$ORTHOMODE
 70
     1
  9
$REGENMODE
 70
     1
  9
$FILLMODE
 70
     1
  9
$QTEXTMODE
 70
     0
  9
$MIRRTEXT
 70
     0
  9
$DRAGMODE
 70
     2
  9
$LTSCALE
 40
0.6431102362
  9
$OSMODE
 70
  4095
  9
$ATTMODE
 70
     1
  9
$TEXTSIZE
 40
0.2
  9
$TRACEWID
 40
0.05
  9
$TEXTSTYLE
  7
STANDARD
  9
$CLAYER
  8
0
  9
$CELTYPE
  6
BYLAYER
  9
$CECOLOR
 62
   256
  9
$DIMSCALE
 40
1.0
  9
$DIMASZ
 40
0.1875
  9
$DIMEXO
 40
0.0625
  9
$DIMDLI
 40
0.4443307087
  9
$DIMRND
 40
0.0
  9
$DIMDLE
 40
0.0
  9
$DIMEXE
 40
0.125
  9
$DIMTP
 40
0.01
  9
$DIMTM
 40
0.01
  9
$DIMTXT
 40
2.0
  9
$DIMCEN
 40
0.1052362205
  9
$DIMTSZ
 40
0.0
  9
$DIMTOL
 70
     1
  9
$DIMLIM
 70
     0
  9
$DIMTIH
 70
     1
  9
$DIMTOH
 70
     1
  9
$DIMSE1
 70
     0
  9
$DIMSE2
 70
     0
  9
$DIMTAD
 70
     0
  9
$DIMZIN
 70
     0
  9
$DIMBLK
  1

  9
$DIMASO
 70
     1
  9
$DIMSHO
 70
     1
  9
$DIMPOST
  1
\X
  9
$DIMAPOST
  1

  9
$DIMALT
 70
     1
  9
$DIMALTD
 70
     2
  9
$DIMALTF
 40
25.3999999999999986
  9
$DIMLFAC
 40
1.0
  9
$DIMTOFL
 70
     0
  9
$DIMTVP
 40
0.0
  9
$DIMTIX
 70
     0
  9
$DIMSOXD
 70
     0
  9
$DIMSAH
 70
     0
  9
$DIMBLK1
  1

  9
$DIMBLK2
  1

  9
$DIMSTYLE
  2
STANDARD
  9
$DIMCLRD
 70
     0
  9
$DIMCLRE
 70
     0
  9
$DIMCLRT
 70
     0
  9
$DIMTFAC
 40
1.0
  9
$DIMGAP
 40
0.09
  9
$LUNITS
 70
     2
  9
$LUPREC
 70
     4
  9
$SKETCHINC
 40
0.1
  9
$FILLETRAD
 40
0.0
  9
$AUNITS
 70
     0
  9
$AUPREC
 70
     0
  9
$MENU
  1
.
  9
$ELEVATION
 40
0.0
  9
$PELEVATION
 40
0.0
  9
$THICKNESS
 40
0.0
  9
$LIMCHECK
 70
     0
  9
$BLIPMODE
 70
     0
  9
$CHAMFERA
 40
0.0
  9
$CHAMFERB
 40
0.0
  9
$SKPOLY
 70
     0
  9
$TDCREATE
 40
2458060.468368056230247
  9
$TDUPDATE
 40
2459477.3742245370522141
  9
$TDINDWG
 40
0.4281552083
  9
$TDUSRTIMER
 40
0.4281552083
  9
$USRTIMER
 70
     1
  9
$ANGBASE
 50
0.0
  9
$ANGDIR
 70
     0
  9
$PDMODE
 70
     0
  9
$PDSIZE
 40
0.3125
  9
$PLINEWID
 40
0.0
  9
$COORDS
 70
     1
  9
$SPLFRAME
 70
     0
  9
$SPLINETYPE
 70
     6
  9
$SPLINESEGS
 70
     8
  9
$ATTDIA
 70
     1
  9
$ATTREQ
 70
     1
  9
$HANDLING
 70
     1
  9
$HANDSEED
  5
D1BB
  9
$SURFTAB1
 70
     6
  9
$SURFTAB2
 70
     6
  9
$SURFTYPE
 70
     6
  9
$SURFU
 70
     6
  9
$SURFV
 70
     6
  9
$UCSNAME
  2

  9
$UCSORG
 10
0.0
 20
0.0
 30
0.0
  9
$UCSXDIR
 10
1.0
 20
0.0
 30
0.0
  9
$UCSYDIR
 10
0.0
 20
1.0
 30
0.0
  9
$PUCSNAME
  2

  9
$PUCSORG
 10
0.0
 20
0.0
 30
0.0
  9
$PUCSXDIR
 10
1.0
 20
0.0
 30
0.0
  9
$PUCSYDIR
 10
0.0
 20
1.0
 30
0.0
  9
$USERI1
 70
     0
  9
$USERI2
 70
     0
  9
$USERI3
 70
     0
  9
$USERI4
 70
     0
  9
$USERI5
 70
     0
  9
$USERR1
 40
0.0
  9
$USERR2
 40
0.0
  9
$USERR3
 40
0.0
  9
$USERR4
 40
0.0
  9
$USERR5
 40
0.0
  9
$WORLDVIEW
 70
     1
  9
$SHADEDGE
 70
     3
  9
$SHADEDIF
 70
    70
  9
$TILEMODE
 70
     1
  9
$MAXACTVP
 70
    64
  9
$PLIMCHECK
 70
     0
  9
$PEXTMIN
 10
1.0000000000000000E+20
 20
1.0000000000000000E+20
 30
1.0000000000000000E+20
  9
$PEXTMAX
 10
-1.0000000000000000E+20
 20
-1.0000000000000000E+20
 30
-1.0000000000000000E+20
  9
$PLIMMIN
 10
0.0
 20
0.0
  9
$PLIMMAX
 10
12.0
 20
9.0
  9
$UNITMODE
 70
     0
  9
$VISRETAIN
 70
     1
  9
$PLINEGEN
 70
     0
  9
$PSLTSCALE
 70
     1
  0
ENDSEC
  0
SECTION
  2
TABLES
  0
TABLE
  2
VPORT
 70
     1
  0
VPORT
  2
*ACTIVE
 70
     0
 10
0.0
 20
0.0
 11
1.0
 21
1.0
 12
422.9603238275449257
 22
51.7694124843798278
 13
0.0
 23
0.0
 14
1.0
 24
1.0
 15
0.0
 25
0.0
 16
0.0
 26
0.0
 36
17.1152628219792007
 17
3803.5440673828129547
 27
125.9952621967499056
 37
0.0
 40
10.5050629603025101
 41
2.7718023255813948
 42
50.0
 43
0.0
 44
0.0
 50
0.0
 51
0.0
 71
     0
 72
   100
 73
     1
 74
     1
 75
     0
 76
     0
 77
     0
 78
     0
  0
ENDTAB
  0
TABLE
  2
LTYPE
 70
     2
  0
LTYPE
  2
CONTINUOUS
 70
     0
  3
Solid line
 72
    65
 73
     0
 40
0.0
  0
LTYPE
  2
PHANTOM2
 70
     0
  3
___ _ _ ___ _ _ ___ _ _ ___ _ _
 72
    65
 73
     6
 40
1.25
 49
0.625
 49
-0.125
 49
0.125
 49
-0.125
 49
0.125
 49
-0.125
  0
ENDTAB
  0
TABLE
  2
LAYER
 70
     2
  0
LAYER
  2
0
 70
     0
 62
   255
  6
CONTINUOUS
  0
LAYER
  2
DEFPOINTS
 70
     0
 62
     7
  6
CONTINUOUS
  0
ENDTAB
  0
TABLE
  2
STYLE
 70
     1
  0
STYLE
  2
STANDARD
 70
     0
 40
0.0
 41
0.8
 50
0.0
 71
     0
 42
0.2
  3
txt
  4

  0
ENDTAB
  0
TABLE
  2
VIEW
 70
     0
  0
ENDTAB
  0
TABLE
  2
UCS
 70
     0
  0
ENDTAB
  0
TABLE
  2
APPID
 70
     9
  0
APPID
  2
ACAD
 70
     0
  0
APPID
  2
ACAD_MLEADERVER
 70
     0
  0
APPID
  2
ACAD_EXEMPT_FROM_CAD_STANDARDS
 70
     0
  0
APPID
  2
ACAD_NAV_VCDISPLAY
 70
     0
  0
APPID
  2
ACAECLAYERSTANDARD
 70
     0
  0
APPID
  2
ACCMTRANSPARENCY
 70
     0
  0
APPID
  2
ACAD_DSTYLE_DIMJAG
 70
     0
  0
APPID
  2
ACAD_DSTYLE_DIMTALN
 70
     0
  0
APPID
  2
ACDBATTR
 70
     0
  0
ENDTAB
  0
TABLE
  2
DIMSTYLE
 70
     1
  0
DIMSTYLE
  2
STANDARD
 70
     0
  3

  4

  5

  6

  7

 40
1.0
 41
0.1875
 42
0.0625
 43
0.38
 44
0.125
 45
0.0
 46
0.0
 47
0.01
 48
0.01
140
0.15625
141
0.09
142
0.0
143
25.3999999999999986
144
1.0
145
0.0
146
1.0
147
0.09
 71
     1
 72
     0
 73
     1
 74
     1
 75
     0
 76
     0
 77
     0
 78
     4
170
     0
171
     2
172
     0
173
     0
174
     0
175
     0
176
     0
177
     0
178
     0
  0
ENDTAB
  0
ENDSEC
  0
SECTION
  2
BLOCKS
  0
BLOCK
  8
0
  2
$MODEL_SPACE
 70
     0
 10
0.0
 20
0.0
 30
0.0
  3
$MODEL_SPACE
  1

  0
ENDBLK
  5
21
  8
0
  0
BLOCK
 67
     1
  8
0
  2
$PAPER_SPACE
 70
     0
 10
0.0
 20
0.0
 30
0.0
  3
$PAPER_SPACE
  1

  0
ENDBLK
  5
1D
 67
     1
  8
0
  0
ENDSEC
  0
SECTION
  2
ENTITIES
  0
ATTDEF
  5
C4C4
  8
DEFPOINTS
 10
4226.5706493974666955
 20
181.6020278650331079
 30
0.0
 40
0.001
  1
K-EX27105T-9
  3

  2
MODELNUMBER
 70
     0
1001
ACDBATTR
1070
     0
1070
     1
  0
ATTDEF
  5
C4C5
  8
DEFPOINTS
 10
4226.5706493974666955
 20
181.6003611983664996
 30
0.0
 40
0.001
  1

  3

  2
TRADENAME
 70
     0
1001
ACDBATTR
1070
     0
1070
     1
  0
ATTDEF
  5
C4C6
  8
DEFPOINTS
 10
4226.5706493974666955
 20
181.598694531699806
 30
0.0
 40
0.001
  1
DECK MOUNT BATH FAUCET TRIM
  3

  2
PRODUCT
 70
     0
1001
ACDBATTR
1070
     0
1070
     1
  0
LINE
  5
CE14
  8
0
 10
4226.5692938420534119
 20
182.9688133795526142
 30
0.0
 11
4226.5692938442143713
 21
172.5707370769667932
 31
0.0
  0
LINE
  5
CE15
  8
0
 10
4225.9493087256696526
 20
181.7105723262583865
 30
0.0
 11
4225.9493087256696526
 21
173.0317349893092
 31
0.0
  0
ARC
  5
CE16
  8
0
 10
4225.238129016584935
 20
181.9538221433172112
 30
0.0
 40
0.0483167734657641
 50
143.2839382067255087
 51
180.1967213532230971
  0
ARC
  5
CE17
  8
0
 10
4227.472678723665922
 20
180.2761453936599025
 30
0.0
 40
2.8425627037929249
 50
108.8587192227856946
 51
143.1042649375879989
  0
ARC
  5
CE18
  8
0
 10
4226.5692942083396701
 20
182.9233288818817869
 30
0.0
 40
0.0454844976722851
 50
70.1430636235456575
 51
109.8346622484167057
  0
ARC
  5
CE19
  8
0
 10
4226.5468411967176507
 20
182.9912426695304077
 30
0.0
 40
2.7712821435191528
 50
252.9058042093789993
 51
257.5483371734550815
  0
ARC
  5
CE1A
  8
0
 10
4225.7445582079371889
 20
180.3856201350538129
 30
0.0
 40
0.0449525714488575
 50
213.902859478821
 51
254.0970696768631001
  0
ARC
  5
CE1B
  8
0
 10
4228.0418177519050005
 20
181.9993904433347041
 30
0.0
 40
2.8523718926595301
 50
180.9187050564698893
 51
215.0684776947182968
  0
LINE
  5
CE1C
  8
0
 10
4225.1923730848411651
 20
181.9693432679027865
 30
0.0
 11
4225.9515577086285703
 21
181.7214849054936963
 31
0.0
  0
ARC
  5
CE1D
  8
0
 10
4225.9968309114610747
 20
181.7053428680148102
 30
0.0
 40
0.0480648340118195
 50
146.9705156702827082
 51
173.6376502444909136
  0
ARC
  5
CE1E
  8
0
 10
4226.8758243599104389
 20
181.0988679895613984
 30
0.0
 40
1.115961905479834
 50
106.5363069963003966
 51
145.4634960923106917
  0
ARC
  5
CE1F
  8
0
 10
4226.5692899049308835
 20
182.1313080685162049
 30
0.0
 40
0.0389772775850121
 50
73.4513097792807201
 51
106.5363069963003966
  0
LINE
  5
CE20
  8
0
 10
4225.7196252818157518
 20
180.3482158187933919
 30
0.0
 11
4225.9493087256696526
 21
180.6655921493305073
 31
0.0
  0
ARC
  5
CE21
  8
0
 10
4225.9376215618776769
 20
182.3906447759935077
 30
0.0
 40
0.1617953838235866
 50
126.9000595720689972
 51
146.2892404559507042
  0
ARC
  5
CE22
  8
0
 10
4225.9491822002291883
 20
182.3829316516747099
 30
0.0
 40
0.1756928888451832
 50
146.2892404559507042
 51
174.0539524433185932
  0
ARC
  5
CE23
  8
0
 10
4225.9403279533280511
 20
182.3838538416694064
 30
0.0
 40
0.166790747385265
 50
174.0539524433185932
 51
199.018021580285307
  0
ARC
  5
CE24
  8
0
 10
4225.8773904370609671
 20
182.3621605713422014
 30
0.0
 40
0.1002195153753045
 50
199.018021580285307
 51
219.6268212508246052
  0
ARC
  5
CE25
  8
0
 10
4225.8739263569241302
 20
182.3592921025748979
 30
0.0
 40
0.095721964456344
 50
219.6268212508246052
 51
252.7154192544045941
  0
ARC
  5
CE26
  8
0
 10
4225.8765390811886391
 20
182.3801024150048988
 30
0.0
 40
0.1164272249850828
 50
254.5308368671834955
 51
280.9797148773151889
  0
ARC
  5
CE27
  8
0
 10
4225.8553578955179546
 20
182.4892765163720867
 30
0.0
 40
0.2276370583441663
 50
280.9797148773151889
 51
303.8191871874603862
  0
ARC
  5
CE28
  8
0
 10
4225.7943445683449681
 20
182.5803511453358112
 30
0.0
 40
0.3372601130980433
 50
303.8191871874603862
 51
317.1501209447465044
  0
ARC
  5
CE29
  8
0
 10
4225.920839695032555
 20
182.4630106597836914
 30
0.0
 40
0.1647208230065801
 50
317.1501209447465044
 51
344.0780381087704995
  0
ARC
  5
CE2A
  8
0
 10
4225.993071223604602
 20
182.4424050308525125
 30
0.0
 40
0.0896076706061912
 50
344.0780381087704995
 51
25.5140878377485798
  0
ARC
  5
CE2B
  8
0
 10
4225.9368516084850853
 20
182.3909797173241998
 30
0.0
 40
0.161065774006176
 50
107.7319508624827051
 51
126.7525692919263065
  0
ARC
  5
CE2C
  8
0
 10
4225.9409242838810314
 20
182.3782428655439105
 30
0.0
 40
0.1744379121356795
 50
78.3155657040985744
 51
107.7319508624827051
  0
ARC
  5
CE2D
  8
0
 10
4225.9421000937591089
 20
182.3839284147591968
 30
0.0
 40
0.1686320531337825
 50
53.5507587216359511
 51
78.3155657040982334
  0
ARC
  5
CE2E
  8
0
 10
4225.9817636256129845
 20
182.437630033314889
 30
0.0
 40
0.1018708398843262
 50
25.1984368504427003
 51
53.5507587216369174
  0
ARC
  5
CE2F
  8
0
 10
4226.874730257200099
 20
173.6406306580607861
 30
0.0
 40
1.1141937343591839
 50
214.5036133508181138
 51
253.494951805477001
  0
ARC
  5
CE30
  8
0
 10
4225.9904456878475685
 20
173.0327965987466996
 30
0.0
 40
0.0411506582185268
 50
181.4782871509216875
 51
214.5036133508181138
  0
LINE
  5
CE31
  8
0
 10
4226.5692938420534119
 20
182.9688133795526142
 30
0.0
 11
4226.5692938442143713
 21
172.5707370769941065
 31
0.0
  0
LINE
  5
CE32
  8
0
 10
4227.1892795123731048
 20
181.7105723262583865
 30
0.0
 11
4227.1892795123731048
 21
173.0317349893092
 31
0.0
  0
ARC
  5
CE33
  8
0
 10
4227.9004592214587319
 20
181.9538221433172112
 30
0.0
 40
0.0483167734657641
 50
359.8032786467769029
 51
36.7160617932744771
  0
ARC
  5
CE34
  8
0
 10
4225.6659095143777449
 20
180.2761453936599025
 30
0.0
 40
2.8425627037929249
 50
36.8957350624119798
 51
71.1412807772142202
  0
ARC
  5
CE35
  8
0
 10
4226.5917470413241972
 20
182.9912426695304077
 30
0.0
 40
2.7712821435191528
 50
282.4516628265449185
 51
287.094195790621086
  0
ARC
  5
CE36
  8
0
 10
4227.3940300301073876
 20
180.3856201350538129
 30
0.0
 40
0.0449525714488575
 50
285.9029303231370136
 51
326.0971405211790284
  0
ARC
  5
CE37
  8
0
 10
4225.096770486137757
 20
181.9993904433347041
 30
0.0
 40
2.8523718926595301
 50
324.9315223052817032
 51
359.0812949435301107
  0
LINE
  5
CE38
  8
0
 10
4227.9462151532015923
 20
181.9693432679027865
 30
0.0
 11
4227.1870305294141872
 21
181.7214849054936963
 31
0.0
  0
ARC
  5
CE39
  8
0
 10
4227.1417573265825922
 20
181.7053428680148102
 30
0.0
 40
0.0480648340118195
 50
6.3623497555090802
 51
33.029484329717242
  0
ARC
  5
CE3A
  8
0
 10
4226.262763878133228
 20
181.0988679895613984
 30
0.0
 40
1.115961905479834
 50
34.5365039076892799
 51
73.4636930036996034
  0
LINE
  5
CE3B
  8
0
 10
4227.4189629562270056
 20
180.3482158187933919
 30
0.0
 11
4227.1892795123731048
 21
180.6655921493305073
 31
0.0
  0
ARC
  5
CE3C
  8
0
 10
4226.5692960651867907
 20
172.6098224877412974
 30
0.0
 40
0.0390854108102431
 50
253.4965358790821028
 51
286.5050481945235106
  0
ARC
  5
CE3D
  8
0
 10
4226.2638579808453869
 20
173.6406306580607861
 30
0.0
 40
1.1141937343591839
 50
286.505048194522999
 51
325.4963866491818862
  0
ARC
  5
CE3E
  8
0
 10
4227.148142550195189
 20
173.0327965987466996
 30
0.0
 40
0.0411506582185268
 50
325.4963866491818862
 51
358.5217128490783125
  0
LINE
  5
CE40
  8
0
 10
4220.6631325800026389
 20
182.8848057592634007
 30
0.0
 11
4220.6631325800026389
 21
182.8132132445315108
 31
0.0
  0
LINE
  5
CE41
  8
0
 10
4220.6631325800026389
 20
182.5037626978721903
 30
0.0
 11
4220.6631325800026389
 21
182.3745241981775962
 31
0.0
  0
ARC
  5
CE42
  8
0
 10
4220.6533518258693221
 20
182.7705252817198982
 30
0.0
 40
0.1146982593547609
 50
74.2998178938225919
 51
85.1082315309875241
  0
ARC
  5
CE43
  8
0
 10
4219.8150048322304428
 20
180.353359450379287
 30
0.0
 40
2.6729225123593272
 50
36.9407642768443623
 51
71.0188996498343528
  0
ARC
  5
CE44
  8
0
 10
4221.903180799443362
 20
181.9235842644696959
 30
0.0
 40
0.0602448139653886
 50
357.3778496012168944
 51
36.9000920964389181
  0
ARC
  5
CE45
  8
0
 10
4219.2908240836877667
 20
181.9665991988354961
 30
0.0
 40
2.6729303701391571
 50
324.9408406065414852
 51
359.0188228501846197
  0
ARC
  5
CE46
  8
0
 10
4221.4294941558227947
 20
180.4658431284669007
 30
0.0
 40
0.0602347534468451
 50
285.3734647920986731
 51
324.9018109067220053
  0
ARC
  5
CE47
  8
0
 10
4220.6631318772479062
 20
182.9636169508945898
 30
0.0
 40
2.6729062624120021
 50
270.0000150640710217
 51
287.0190298762825023
  0
ARC
  5
CE48
  8
0
 10
4220.6631324862037218
 20
182.7877987176007935
 30
0.0
 40
0.0254145269309329
 50
70.8808469867947935
 51
89.9998115928857061
  0
ARC
  5
CE49
  8
0
 10
4219.8230675202694329
 20
180.3644560389693083
 30
0.0
 40
2.5902339913511181
 50
37.1192500133283403
 51
70.8808469867947935
  0
ARC
  5
CE4A
  8
0
 10
4221.8682024401523449
 20
181.9122598392565919
 30
0.0
 40
0.0254194864195398
 50
358.8819475232019158
 51
37.1192500133257468
  0
ARC
  5
CE4B
  8
0
 10
4219.3040496286712369
 20
181.9623022920584106
 30
0.0
 40
2.5900605700226871
 50
325.1180986157871757
 51
358.8819475232019158
  0
ARC
  5
CE4C
  8
0
 10
4221.4079067514976487
 20
180.4956190018428117
 30
0.0
 40
0.0254212840672655
 50
286.8834629363984163
 51
325.1180986157871757
  0
ARC
  5
CE4D
  8
0
 10
4220.6672053271240657
 20
182.9360866397755956
 30
0.0
 40
2.5758175065914131
 50
269.9094068901492847
 51
286.8834629363984163
  0
ARC
  5
CE4E
  8
0
 10
4220.6631465656291766
 20
182.5999053549844007
 30
0.0
 40
0.0599029241082987
 50
72.3215177109693599
 51
90.0196177615147661
  0
ARC
  5
CE4F
  8
0
 10
4220.0513659294610989
 20
180.6793259745464013
 30
0.0
 40
2.075566505636516
 50
35.6698900364958078
 51
72.3313092712537582
  0
ARC
  5
CE50
  8
0
 10
4221.6870802041466959
 20
181.8534029613373946
 30
0.0
 40
0.0621073033381147
 50
0.3300200235143843
 51
35.6698900364958078
  0
ARC
  5
CE51
  8
0
 10
4219.6736960906973763
 20
181.8418058694327044
 30
0.0
 40
2.0755248161333499
 50
323.6727273353558871
 51
0.3300200235143843
  0
ARC
  5
CE52
  8
0
 10
4221.2975389651483056
 20
180.6477842503203988
 30
0.0
 40
0.0599471550603085
 50
288.0485515939495258
 51
323.6727273353558871
  0
ARC
  5
CE53
  8
0
 10
4220.6649510140214261
 20
182.6215820462942077
 30
0.0
 40
2.132636810273199
 50
269.9511456396809876
 51
287.7781017926461118
  0
ARC
  5
CE54
  8
0
 10
4220.6635989478781994
 20
182.457748223327286
 30
0.0
 40
0.0460168378600337
 50
69.9485398863217114
 51
90.580686756448884
  0
ARC
  5
CE55
  8
0
 10
4220.0094986035637703
 20
180.6210568348458025
 30
0.0
 40
1.995703256505664
 50
37.6114647533790603
 51
70.3873195821044675
  0
ARC
  5
CE56
  8
0
 10
4221.5521992701424097
 20
181.8095881222261028
 30
0.0
 40
0.0482608394513931
 50
358.3805480451787844
 51
37.6114647533790603
  0
ARC
  5
CE57
  8
0
 10
4219.6045916010416477
 20
181.8646514665884979
 30
0.0
 40
1.996646736709129
 50
325.6204452498416231
 51
358.3805480451787844
  0
ARC
  5
CE58
  8
0
 10
4221.2127824695471645
 20
180.7643428991171106
 30
0.0
 40
0.0480685850309931
 50
286.1657576677492898
 51
325.620445249840202
  0
ARC
  5
CE59
  8
0
 10
4220.6548216978781056
 20
182.6891494436511039
 30
0.0
 40
2.052114606609019
 50
270.2320434589656202
 51
286.1657576677492898
  0
ARC
  5
CE5A
  8
0
 10
4220.6631838506073109
 20
182.6329496572627136
 30
0.0
 40
1.874008021342112
 50
269.9958730688720152
 51
285.3016118516717938
  0
ARC
  5
CE5B
  8
0
 10
4221.1283737469102562
 20
180.8798982854430051
 30
0.0
 40
0.0619260986669225
 50
298.3028728217944945
 51
314.1776328570097121
  0
ARC
  5
CE5C
  8
0
 10
4219.6066117760647103
 20
181.8640956861437985
 30
0.0
 40
1.8726997261070779
 50
326.6833476301309247
 51
357.3114018645562169
  0
ARC
  5
CE5D
  8
0
 10
4221.4140896578874163
 20
181.7647068430757997
 30
0.0
 40
0.0642068837226739
 50
10.3585310175075502
 51
25.6463504221707588
  0
ARC
  5
CE5E
  8
0
 10
4220.0095385656786675
 20
180.6211404291506142
 30
0.0
 40
1.8737086092669919
 50
38.6934795751345888
 51
69.3049364185542061
  0
ARC
  5
CE5F
  8
0
 10
4220.6633347860761205
 20
182.3137033864140903
 30
0.0
 40
0.0608211478916427
 50
82.0980133995798838
 51
90.1904859793246487
  0
LINE
  5
CE60
  8
0
 10
4220.6631325800026389
 20
180.7589416366218984
 30
0.0
 11
4220.6631325800026389
 21
180.6370516662788077
 31
0.0
  0
LINE
  5
CE61
  8
0
 10
4220.6631325800026389
 20
180.3602723529928937
 30
0.0
 11
4220.6631325800026389
 21
180.2907106884827044
 31
0.0
  0
ARC
  5
CE62
  8
0
 10
4220.6729133341368652
 20
182.7705252817198982
 30
0.0
 40
0.1146982593547609
 50
94.8917684690124759
 51
105.7001821061773938
  0
ARC
  5
CE63
  8
0
 10
4221.5112603277757444
 20
180.353359450379287
 30
0.0
 40
2.6729225123593272
 50
108.9811003501656046
 51
143.0592357231556093
  0
ARC
  5
CE64
  8
0
 10
4219.4230843605628252
 20
181.9235842644696959
 30
0.0
 40
0.0602448139653886
 50
143.0999079035611032
 51
182.6221503987829919
  0
ARC
  5
CE65
  8
0
 10
4222.0354410763166015
 20
181.9665991988354961
 30
0.0
 40
2.6729303701391571
 50
180.9811771498154087
 51
215.0591593934584012
  0
ARC
  5
CE66
  8
0
 10
4219.8967710041833925
 20
180.4658431284669007
 30
0.0
 40
0.0602347534468451
 50
215.0981890932779095
 51
254.6265352079012132
  0
ARC
  5
CE67
  8
0
 10
4220.663133282758281
 20
182.9636169508945898
 30
0.0
 40
2.6729062624120021
 50
252.9809701237174977
 51
269.9999849359289783
  0
ARC
  5
CE68
  8
0
 10
4220.6631326738015559
 20
182.7877987176007935
 30
0.0
 40
0.0254145269309329
 50
90.0001884071142797
 51
109.1191530132052065
  0
ARC
  5
CE69
  8
0
 10
4221.5031976397367544
 20
180.3644560389693083
 30
0.0
 40
2.5902339913511181
 50
109.1191530132052065
 51
142.8807499866717023
  0
ARC
  5
CE6A
  8
0
 10
4219.4580627198538423
 20
181.9122598392565919
 30
0.0
 40
0.0254194864195398
 50
142.8807499866742035
 51
181.1180524767979989
  0
ARC
  5
CE6B
  8
0
 10
4222.0222155313349504
 20
181.9623022920584106
 30
0.0
 40
2.5900605700226871
 50
181.1180524767979989
 51
214.8819013842127958
  0
ARC
  5
CE6C
  8
0
 10
4219.9183584085076291
 20
180.4956190018428117
 30
0.0
 40
0.0254212840672655
 50
214.8819013842114884
 51
253.1165370636016121
  0
ARC
  5
CE6D
  8
0
 10
4220.6590598328821216
 20
182.9360866397755956
 30
0.0
 40
2.5758175065914131
 50
253.1165370636016121
 51
270.0905931098507153
  0
ARC
  5
CE6E
  8
0
 10
4220.6631185943770106
 20
182.5999053549844007
 30
0.0
 40
0.0599029241082987
 50
89.9803822384852339
 51
107.6784822890305975
  0
ARC
  5
CE6F
  8
0
 10
4221.2748992305459979
 20
180.6793259745464013
 30
0.0
 40
2.075566505636516
 50
107.6686907287461992
 51
144.3301099635042135
  0
ARC
  5
CE70
  8
0
 10
4219.6391849558604008
 20
181.8534029613373946
 30
0.0
 40
0.0621073033381147
 50
144.3301099635042135
 51
179.6699799764855925
  0
ARC
  5
CE71
  8
0
 10
4221.6525690693088109
 20
181.8418058694327044
 30
0.0
 40
2.0755248161333499
 50
179.6699799764855925
 51
216.3272726646441129
  0
ARC
  5
CE72
  8
0
 10
4220.0287261948578816
 20
180.6477842503203988
 30
0.0
 40
0.0599471550603085
 50
216.3272726646441129
 51
251.9514484060505026
  0
ARC
  5
CE73
  8
0
 10
4220.6613141459847611
 20
182.6215820462942077
 30
0.0
 40
2.132636810273199
 50
252.2218982073538882
 51
270.0488543603190124
  0
ARC
  5
CE74
  8
0
 10
4220.6626662121298068
 20
182.457748223327286
 30
0.0
 40
0.0460168378600337
 50
89.4193132435511018
 51
110.0514601136783028
  0
ARC
  5
CE75
  8
0
 10
4221.3167665564433264
 20
180.6210568348458025
 30
0.0
 40
1.995703256505664
 50
109.6126804178955041
 51
142.3885352466209042
  0
ARC
  5
CE76
  8
0
 10
4219.7740658898637776
 20
181.8095881222261028
 30
0.0
 40
0.0482608394513931
 50
142.3885352466209042
 51
181.6194519548211872
  0
ARC
  5
CE77
  8
0
 10
4221.721673558965449
 20
181.8646514665884979
 30
0.0
 40
1.996646736709129
 50
181.6194519548211872
 51
214.3795547501584053
  0
ARC
  5
CE78
  8
0
 10
4220.1134826904590227
 20
180.7643428991171106
 30
0.0
 40
0.0480685850309931
 50
214.379554750159798
 51
253.8342423322507102
  0
ARC
  5
CE79
  8
0
 10
4220.6714434621289911
 20
182.6891494436511039
 30
0.0
 40
2.052114606609019
 50
253.8342423322507102
 51
269.7679565410343798
  0
ARC
  5
CE7A
  8
0
 10
4220.6630813093988763
 20
182.6329496572627136
 30
0.0
 40
1.874008021342112
 50
254.6983881483282062
 51
270.0041269311279848
  0
ARC
  5
CE7B
  8
0
 10
4220.1978914130968406
 20
180.8798982854430051
 30
0.0
 40
0.0619260986669225
 50
225.8223671429902879
 51
241.6971271782053918
  0
ARC
  5
CE7C
  8
0
 10
4221.7196533839405674
 20
181.8640956861437985
 30
0.0
 40
1.8726997261070779
 50
182.6885981354438115
 51
213.3166523698691037
  0
ARC
  5
CE7D
  8
0
 10
4219.912175502118771
 20
181.7647068430757997
 30
0.0
 40
0.0642068837226739
 50
154.3536495778292021
 51
169.6414689824923983
  0
ARC
  5
CE7E
  8
0
 10
4221.3167265943284292
 20
180.6211404291506142
 30
0.0
 40
1.8737086092669919
 50
110.6950635814457939
 51
141.306520424865397
  0
ARC
  5
CE7F
  8
0
 10
4220.6629303739291572
 20
182.3137033864140903
 30
0.0
 40
0.0608211478916427
 50
89.8095140206753513
 51
97.9019866004201162
  0
LINE
  5
CE80
  8
0
 10
4221.1649827502169501
 20
180.8299520886617131
 30
0.0
 11
4221.2410875532568753
 21
180.7254917588118985
 31
0.0
  0
LINE
  5
CE81
  8
0
 10
4221.4228244086452833
 20
180.4750349014524033
 30
0.0
 11
4221.4648698570490524
 21
180.417090843539313
 31
0.0
  0
LINE
  5
CE82
  8
0
 10
4221.9607503096904111
 20
181.9413378302974138
 30
0.0
 11
4221.892616276310946
 21
181.9193390266260053
 31
0.0
  0
LINE
  5
CE83
  8
0
 10
4221.5981725224455658
 20
181.8242703801313951
 30
0.0
 11
4221.4751531877873276
 21
181.7845504625406932
 31
0.0
  0
LINE
  5
CE84
  8
0
 10
4219.8511119722197691
 20
181.7845504625406932
 30
0.0
 11
4219.7280926375624404
 21
181.8242703801313951
 31
0.0
  0
LINE
  5
CE85
  8
0
 10
4219.4336488836952412
 20
181.9193390266260053
 30
0.0
 11
4219.3655148503157761
 21
181.9413378302974138
 31
0.0
  0
LINE
  5
CE86
  8
0
 10
4220.1612824097892371
 20
180.8299520886617131
 30
0.0
 11
4220.0853205583716772
 21
180.7253880126044123
 31
0.0
  0
LINE
  5
CE87
  8
0
 10
4219.9034458148889826
 20
180.4750312327757911
 30
0.0
 11
4219.8613684658066632
 21
180.4171103284313915
 31
0.0
  0
LINE
  5
D02B
  8
0
 10
4232.4754551051437375
 20
182.8848057592634007
 30
0.0
 11
4232.4754551051437375
 21
182.8132132445315108
 31
0.0
  0
LINE
  5
D02C
  8
0
 10
4232.4754551051437375
 20
182.5037626978721903
 30
0.0
 11
4232.4754551051437375
 21
182.3745241981775962
 31
0.0
  0
ARC
  5
D02D
  8
0
 10
4232.4852358592779638
 20
182.7705252817198982
 30
0.0
 40
0.1146982593547609
 50
94.8917684690123338
 51
105.7001821061276985
  0
ARC
  5
D02E
  8
0
 10
4233.323582852916843
 20
180.353359450379287
 30
0.0
 40
2.6729225123593272
 50
108.9811003501663009
 51
143.0592357231273866
  0
ARC
  5
D02F
  8
0
 10
4231.2354068857039238
 20
181.9235842644696959
 30
0.0
 40
0.0602448139653886
 50
143.0999079035923103
 51
182.622150398781713
  0
ARC
  5
D030
  8
0
 10
4233.8477636014586096
 20
181.9665991988354961
 30
0.0
 40
2.6729303701391571
 50
180.9811771498156077
 51
215.0591593934292121
  0
ARC
  5
D031
  8
0
 10
4231.7090935293235816
 20
180.4658431284669007
 30
0.0
 40
0.0602347534468451
 50
215.0981890932561953
 51
254.6265352078997921
  0
ARC
  5
D032
  8
0
 10
4232.4754558078975606
 20
182.9636169508945898
 30
0.0
 40
2.6729062624120021
 50
252.9809701237167872
 51
269.9999849359811037
  0
ARC
  5
D033
  8
0
 10
4232.4754551989426545
 20
182.7877987176007935
 30
0.0
 40
0.0254145269309329
 50
90.0001884071664051
 51
109.1191530132530971
  0
ARC
  5
D034
  8
0
 10
4233.3155201648778529
 20
180.3644560389693083
 30
0.0
 40
2.5902339913511181
 50
109.1191530132530971
 51
142.8807499866767898
  0
ARC
  5
D035
  8
0
 10
4231.2703852449949409
 20
181.9122598392565919
 30
0.0
 40
0.0254194864195398
 50
142.8807499866784099
 51
181.1180524767987094
  0
ARC
  5
D036
  8
0
 10
4233.834538056476049
 20
181.9623022920584106
 30
0.0
 40
2.5900605700226871
 50
181.1180524767987094
 51
214.881901384212199
  0
ARC
  5
D037
  8
0
 10
4231.7306809336496372
 20
180.4956190018428117
 30
0.0
 40
0.0254212840672655
 50
214.881901384212199
 51
253.116537063651009
  0
ARC
  5
D038
  8
0
 10
4232.4713823580223107
 20
182.9360866397755956
 30
0.0
 40
2.5758175065914131
 50
253.116537063651009
 51
270.0905931098507153
  0
ARC
  5
D039
  8
0
 10
4232.4754411195171997
 20
182.5999053549844007
 30
0.0
 40
0.0599029241082987
 50
89.9803822384852339
 51
107.6784822889825932
  0
ARC
  5
D03A
  8
0
 10
4233.087221755686187
 20
180.6793259745464013
 30
0.0
 40
2.075566505636516
 50
107.6686907287949992
 51
144.3301099635274056
  0
ARC
  5
D03B
  8
0
 10
4231.4515074809996804
 20
181.8534029613373946
 30
0.0
 40
0.0621073033381147
 50
144.3301099635274056
 51
179.6699799764859051
  0
ARC
  5
D03C
  8
0
 10
4233.4648915944499095
 20
181.8418058694327044
 30
0.0
 40
2.0755248161333499
 50
179.6699799764859051
 51
216.3272726646713124
  0
ARC
  5
D03D
  8
0
 10
4231.8410487199980707
 20
180.6477842503203988
 30
0.0
 40
0.0599471550603085
 50
216.3272726646713124
 51
251.9514484060483994
  0
ARC
  5
D03E
  8
0
 10
4232.4736366711258597
 20
182.6215820462942077
 30
0.0
 40
2.132636810273199
 50
252.2218982073059976
 51
270.0488543603190124
  0
ARC
  5
D03F
  8
0
 10
4232.4749887372699959
 20
182.457748223327286
 30
0.0
 40
0.0460168378600337
 50
89.4193132435511018
 51
110.0514601137266055
  0
ARC
  5
D040
  8
0
 10
4233.1290890815816965
 20
180.6210568348458025
 30
0.0
 40
1.995703256505664
 50
109.612680417893003
 51
142.3885352465931078
  0
ARC
  5
D041
  8
0
 10
4231.5863884150048762
 20
181.8095881222261028
 30
0.0
 40
0.0482608394513931
 50
142.3885352465931078
 51
181.6194519548216988
  0
ARC
  5
D042
  8
0
 10
4233.5339960841047287
 20
181.8646514665884979
 30
0.0
 40
1.996646736709129
 50
181.6194519548216988
 51
214.3795547501329963
  0
ARC
  5
D043
  8
0
 10
4231.9258052156001213
 20
180.7643428991171106
 30
0.0
 40
0.0480685850309931
 50
214.3795547501339911
 51
253.8342423322006027
  0
ARC
  5
D044
  8
0
 10
4232.4837659872691802
 20
182.6891494436511039
 30
0.0
 40
2.052114606609019
 50
253.8342423322006027
 51
269.7679565410865052
  0
ARC
  5
D045
  8
0
 10
4232.4754038345399749
 20
182.6329496572627136
 30
0.0
 40
1.874008021342112
 50
254.6983881482794061
 51
270.0041269311799965
  0
ARC
  5
D046
  8
0
 10
4232.0102139382370297
 20
180.8798982854430051
 30
0.0
 40
0.0619260986669225
 50
225.8223671430253034
 51
241.697127178207694
  0
ARC
  5
D047
  8
0
 10
4233.5319759090825755
 20
181.8640956861437985
 30
0.0
 40
1.8726997261070779
 50
182.6885981354427884
 51
213.3166523698421884
  0
ARC
  5
D048
  8
0
 10
4231.7244980272598696
 20
181.7647068430757997
 30
0.0
 40
0.0642068837226739
 50
154.3536495778510016
 51
169.6414689824858897
  0
ARC
  5
D049
  8
0
 10
4233.1290491194677088
 20
180.6211404291506142
 30
0.0
 40
1.8737086092669919
 50
110.6950635814933008
 51
141.3065204248636064
  0
ARC
  5
D04A
  8
0
 10
4232.4752528990711653
 20
182.3137033864140903
 30
0.0
 40
0.0608211478916427
 50
89.8095140206753513
 51
97.9019866004200168
  0
LINE
  5
D04B
  8
0
 10
4232.4754551051437375
 20
180.7589416366218984
 30
0.0
 11
4232.4754551051437375
 21
180.6370516662788077
 31
0.0
  0
LINE
  5
D04C
  8
0
 10
4232.4754551051437375
 20
180.3602723529928937
 30
0.0
 11
4232.4754551051437375
 21
180.2907106884827044
 31
0.0
  0
ARC
  5
D04D
  8
0
 10
4232.4656743510104207
 20
182.7705252817198982
 30
0.0
 40
0.1146982593547609
 50
74.2998178938722731
 51
85.1082315309876662
  0
ARC
  5
D04E
  8
0
 10
4231.6273273573706319
 20
180.353359450379287
 30
0.0
 40
2.6729225123593272
 50
36.9407642768726134
 51
71.0188996498336422
  0
ARC
  5
D04F
  8
0
 10
4233.7155033245826417
 20
181.9235842644696959
 30
0.0
 40
0.0602448139653886
 50
357.3778496012183155
 51
36.9000920964076968
  0
ARC
  5
D050
  8
0
 10
4231.1031466088297748
 20
181.9665991988354961
 30
0.0
 40
2.6729303701391571
 50
324.9408406065708164
 51
359.0188228501843923
  0
ARC
  5
D051
  8
0
 10
4233.2418166809638933
 20
180.4658431284669007
 30
0.0
 40
0.0602347534468451
 50
285.3734647921000942
 51
324.9018109067437763
  0
ARC
  5
D052
  8
0
 10
4232.4754544023890048
 20
182.9636169508945898
 30
0.0
 40
2.6729062624120021
 50
270.000015064123204
 51
287.0190298762832981
  0
ARC
  5
D053
  8
0
 10
4232.4754550113448204
 20
182.7877987176007935
 30
0.0
 40
0.0254145269309329
 50
70.8808469867468887
 51
89.9998115929378031
  0
ARC
  5
D054
  8
0
 10
4231.635390045409622
 20
180.3644560389693083
 30
0.0
 40
2.5902339913511181
 50
37.1192500133232173
 51
70.8808469867468887
  0
ARC
  5
D055
  8
0
 10
4233.6805249652934435
 20
181.9122598392565919
 30
0.0
 40
0.0254194864195398
 50
358.8819475232014042
 51
37.1192500133215688
  0
ARC
  5
D056
  8
0
 10
4231.116372153811426
 20
181.9623022920584106
 30
0.0
 40
2.5900605700226871
 50
325.1180986157879147
 51
358.8819475232014042
  0
ARC
  5
D057
  8
0
 10
4233.2202292766378378
 20
180.4956190018428117
 30
0.0
 40
0.0254212840672655
 50
286.8834629363490194
 51
325.1180986157887105
  0
ARC
  5
D058
  8
0
 10
4232.4795278522660738
 20
182.9360866397755956
 30
0.0
 40
2.5758175065914131
 50
269.9094068901492847
 51
286.8834629363490194
  0
ARC
  5
D059
  8
0
 10
4232.4754690907693657
 20
182.5999053549844007
 30
0.0
 40
0.0599029241082987
 50
72.3215177110173926
 51
90.0196177615147661
  0
ARC
  5
D05A
  8
0
 10
4231.863688454601288
 20
180.6793259745464013
 30
0.0
 40
2.075566505636516
 50
35.6698900364725588
 51
72.3313092712049723
  0
ARC
  5
D05B
  8
0
 10
4233.499402729286885
 20
181.8534029613373946
 30
0.0
 40
0.0621073033381147
 50
0.330020023514152
 51
35.6698900364725588
  0
ARC
  5
D05C
  8
0
 10
4231.4860186158375654
 20
181.8418058694327044
 30
0.0
 40
2.0755248161333499
 50
323.672727335328716
 51
0.330020023514152
  0
ARC
  5
D05D
  8
0
 10
4233.1098614902894042
 20
180.6477842503203988
 30
0.0
 40
0.0599471550603085
 50
288.0485515939515722
 51
323.672727335328716
  0
ARC
  5
D05E
  8
0
 10
4232.4772735391616152
 20
182.6215820462942077
 30
0.0
 40
2.132636810273199
 50
269.9511456396809876
 51
287.7781017926939739
  0
ARC
  5
D05F
  8
0
 10
4232.4759214730165695
 20
182.457748223327286
 30
0.0
 40
0.0460168378600337
 50
69.9485398862733945
 51
90.5806867564489124
  0
ARC
  5
D060
  8
0
 10
4231.8218211287039594
 20
180.6210568348458025
 30
0.0
 40
1.995703256505664
 50
37.6114647534068496
 51
70.3873195821070112
  0
ARC
  5
D061
  8
0
 10
4233.3645217952825988
 20
181.8095881222261028
 30
0.0
 40
0.0482608394513931
 50
358.3805480451782728
 51
37.6114647534068496
  0
ARC
  5
D062
  8
0
 10
4231.4169141261818368
 20
181.8646514665884979
 30
0.0
 40
1.996646736709129
 50
325.6204452498669184
 51
358.3805480451782728
  0
ARC
  5
D063
  8
0
 10
4233.0251049946882631
 20
180.7643428991171106
 30
0.0
 40
0.0480685850309931
 50
286.165757667799312
 51
325.6204452498660089
  0
ARC
  5
D064
  8
0
 10
4232.4671442230182947
 20
182.6891494436511039
 30
0.0
 40
2.052114606609019
 50
270.2320434590176887
 51
286.165757667799312
  0
ARC
  5
D065
  8
0
 10
4232.4755063757484095
 20
182.6329496572627136
 30
0.0
 40
1.874008021342112
 50
269.9958730689241975
 51
285.3016118517206223
  0
ARC
  5
D066
  8
0
 10
4232.9406962720486263
 20
180.8798982854430051
 30
0.0
 40
0.0619260986669225
 50
298.3028728217922776
 51
314.1776328569746966
  0
ARC
  5
D067
  8
0
 10
4231.4189343012048994
 20
181.8640956861437985
 30
0.0
 40
1.8726997261070779
 50
326.6833476301578116
 51
357.3114018645571832
  0
ARC
  5
D068
  8
0
 10
4233.2264121830276054
 20
181.7647068430757997
 30
0.0
 40
0.0642068837226739
 50
10.3585310175140393
 51
25.6463504221489487
  0
ARC
  5
D069
  8
0
 10
4231.8218610908188566
 20
180.6211404291506142
 30
0.0
 40
1.8737086092669919
 50
38.6934795751363865
 51
69.3049364185067276
  0
ARC
  5
D06A
  8
0
 10
4232.4756573112172191
 20
182.3137033864140903
 30
0.0
 40
0.0608211478916427
 50
82.0980133995799974
 51
90.1904859793246487
  0
LINE
  5
D06B
  8
0
 10
4231.9736049349303357
 20
180.8299520886617131
 30
0.0
 11
4231.8975001318885916
 21
180.7254917588118985
 31
0.0
  0
LINE
  5
D06C
  8
0
 10
4231.7157632765020026
 20
180.4750349014524033
 30
0.0
 11
4231.6737178280982334
 21
180.417090843539313
 31
0.0
  0
LINE
  5
D06D
  8
0
 10
4231.1778373754568747
 20
181.9413378302974138
 30
0.0
 11
4231.2459714088363398
 21
181.9193390266260053
 31
0.0
  0
LINE
  5
D06E
  8
0
 10
4231.54041516270172
 20
181.8242703801313951
 30
0.0
 11
4231.6634344973599582
 21
181.7845504625406932
 31
0.0
  0
LINE
  5
D06F
  8
0
 10
4233.2874757129266072
 20
181.7845504625406932
 30
0.0
 11
4233.4104950475857549
 21
181.8242703801313951
 31
0.0
  0
LINE
  5
D070
  8
0
 10
4233.7049388014520446
 20
181.9193390266260053
 30
0.0
 11
4233.7730728348296907
 21
181.9413378302974138
 31
0.0
  0
LINE
  5
D071
  8
0
 10
4232.9773052753571392
 20
180.8299520886617131
 30
0.0
 11
4233.0532671267737896
 21
180.7253880126044123
 31
0.0
  0
LINE
  5
D072
  8
0
 10
4233.2351418702592127
 20
180.4750312327757911
 30
0.0
 11
4233.2772192193406227
 21
180.4171103284313915
 31
0.0
  0
ENDSEC
  0
EOF
