  0
SECTION
  2
HEADER
  9
$ACADVER
  1
AC1009
  9
$INSBASE
 10
4226.5698158229633918
 20
181.5978181024551077
 30
0.0
  9
$EXTMIN
 10
4219.1757256245273311
 20
181.5884930774624877
 30
-0.0000000349181948
  9
$EXTMAX
 10
4234.0347029738359197
 20
187.5109763117309001
 30
0.0000000814935746
  9
$LIMMIN
 10
0.0
 20
0.0
  9
$LIMMAX
 10
11.6929133858000007
 20
8.2677165353999982
  9
$ORTHOMODE
 70
     1
  9
$REGENMODE
 70
     1
  9
$FILLMODE
 70
     1
  9
$QTEXTMODE
 70
     0
  9
$MIRRTEXT
 70
     0
  9
$DRAGMODE
 70
     2
  9
$LTSCALE
 40
0.6431102362
  9
$OSMODE
 70
  4095
  9
$ATTMODE
 70
     1
  9
$TEXTSIZE
 40
0.2
  9
$TRACEWID
 40
0.05
  9
$TEXTSTYLE
  7
STANDARD
  9
$CLAYER
  8
0
  9
$CELTYPE
  6
BYLAYER
  9
$CECOLOR
 62
   256
  9
$DIMSCALE
 40
1.0
  9
$DIMASZ
 40
0.1875
  9
$DIMEXO
 40
0.0625
  9
$DIMDLI
 40
0.4443307087
  9
$DIMRND
 40
0.0
  9
$DIMDLE
 40
0.0
  9
$DIMEXE
 40
0.125
  9
$DIMTP
 40
0.01
  9
$DIMTM
 40
0.01
  9
$DIMTXT
 40
2.0
  9
$DIMCEN
 40
0.1052362205
  9
$DIMTSZ
 40
0.0
  9
$DIMTOL
 70
     1
  9
$DIMLIM
 70
     0
  9
$DIMTIH
 70
     1
  9
$DIMTOH
 70
     1
  9
$DIMSE1
 70
     0
  9
$DIMSE2
 70
     0
  9
$DIMTAD
 70
     0
  9
$DIMZIN
 70
     0
  9
$DIMBLK
  1

  9
$DIMASO
 70
     1
  9
$DIMSHO
 70
     1
  9
$DIMPOST
  1
\X
  9
$DIMAPOST
  1

  9
$DIMALT
 70
     1
  9
$DIMALTD
 70
     2
  9
$DIMALTF
 40
25.3999999999999986
  9
$DIMLFAC
 40
1.0
  9
$DIMTOFL
 70
     0
  9
$DIMTVP
 40
0.0
  9
$DIMTIX
 70
     0
  9
$DIMSOXD
 70
     0
  9
$DIMSAH
 70
     0
  9
$DIMBLK1
  1

  9
$DIMBLK2
  1

  9
$DIMSTYLE
  2
STANDARD
  9
$DIMCLRD
 70
     0
  9
$DIMCLRE
 70
     0
  9
$DIMCLRT
 70
     0
  9
$DIMTFAC
 40
1.0
  9
$DIMGAP
 40
0.09
  9
$LUNITS
 70
     2
  9
$LUPREC
 70
     4
  9
$SKETCHINC
 40
0.1
  9
$FILLETRAD
 40
0.0
  9
$AUNITS
 70
     0
  9
$AUPREC
 70
     0
  9
$MENU
  1
.
  9
$ELEVATION
 40
0.0
  9
$PELEVATION
 40
0.0
  9
$THICKNESS
 40
0.0
  9
$LIMCHECK
 70
     0
  9
$BLIPMODE
 70
     0
  9
$CHAMFERA
 40
0.0
  9
$CHAMFERB
 40
0.0
  9
$SKPOLY
 70
     0
  9
$TDCREATE
 40
2458060.468368056230247
  9
$TDUPDATE
 40
2459477.3749652779661119
  9
$TDINDWG
 40
0.4318704861
  9
$TDUSRTIMER
 40
0.4318704861
  9
$USRTIMER
 70
     1
  9
$ANGBASE
 50
0.0
  9
$ANGDIR
 70
     0
  9
$PDMODE
 70
     0
  9
$PDSIZE
 40
0.3125
  9
$PLINEWID
 40
0.0
  9
$COORDS
 70
     1
  9
$SPLFRAME
 70
     0
  9
$SPLINETYPE
 70
     6
  9
$SPLINESEGS
 70
     8
  9
$ATTDIA
 70
     1
  9
$ATTREQ
 70
     1
  9
$HANDLING
 70
     1
  9
$HANDSEED
  5
D64D
  9
$SURFTAB1
 70
     6
  9
$SURFTAB2
 70
     6
  9
$SURFTYPE
 70
     6
  9
$SURFU
 70
     6
  9
$SURFV
 70
     6
  9
$UCSNAME
  2

  9
$UCSORG
 10
0.0
 20
0.0
 30
0.0
  9
$UCSXDIR
 10
1.0
 20
0.0
 30
0.0
  9
$UCSYDIR
 10
0.0
 20
1.0
 30
0.0
  9
$PUCSNAME
  2

  9
$PUCSORG
 10
0.0
 20
0.0
 30
0.0
  9
$PUCSXDIR
 10
1.0
 20
0.0
 30
0.0
  9
$PUCSYDIR
 10
0.0
 20
1.0
 30
0.0
  9
$USERI1
 70
     0
  9
$USERI2
 70
     0
  9
$USERI3
 70
     0
  9
$USERI4
 70
     0
  9
$USERI5
 70
     0
  9
$USERR1
 40
0.0
  9
$USERR2
 40
0.0
  9
$USERR3
 40
0.0
  9
$USERR4
 40
0.0
  9
$USERR5
 40
0.0
  9
$WORLDVIEW
 70
     1
  9
$SHADEDGE
 70
     3
  9
$SHADEDIF
 70
    70
  9
$TILEMODE
 70
     1
  9
$MAXACTVP
 70
    64
  9
$PLIMCHECK
 70
     0
  9
$PEXTMIN
 10
1.0000000000000000E+20
 20
1.0000000000000000E+20
 30
1.0000000000000000E+20
  9
$PEXTMAX
 10
-1.0000000000000000E+20
 20
-1.0000000000000000E+20
 30
-1.0000000000000000E+20
  9
$PLIMMIN
 10
0.0
 20
0.0
  9
$PLIMMAX
 10
12.0
 20
9.0
  9
$UNITMODE
 70
     0
  9
$VISRETAIN
 70
     1
  9
$PLINEGEN
 70
     0
  9
$PSLTSCALE
 70
     1
  0
ENDSEC
  0
SECTION
  2
TABLES
  0
TABLE
  2
VPORT
 70
     1
  0
VPORT
  2
*ACTIVE
 70
     0
 10
0.0
 20
0.0
 11
1.0
 21
1.0
 12
423.0611469163695801
 22
58.5544724978468096
 13
0.0
 23
0.0
 14
1.0
 24
1.0
 15
0.0
 25
0.0
 16
0.0
 26
0.0
 36
17.1152628219792007
 17
3803.5440673828129547
 27
125.9952621967499056
 37
0.0
 40
5.9740578342765209
 41
2.7718023255813948
 42
50.0
 43
0.0
 44
0.0
 50
0.0
 51
0.0
 71
     0
 72
   100
 73
     1
 74
     1
 75
     0
 76
     0
 77
     0
 78
     0
  0
ENDTAB
  0
TABLE
  2
LTYPE
 70
     2
  0
LTYPE
  2
CONTINUOUS
 70
     0
  3
Solid line
 72
    65
 73
     0
 40
0.0
  0
LTYPE
  2
PHANTOM2
 70
     0
  3
___ _ _ ___ _ _ ___ _ _ ___ _ _
 72
    65
 73
     6
 40
1.25
 49
0.625
 49
-0.125
 49
0.125
 49
-0.125
 49
0.125
 49
-0.125
  0
ENDTAB
  0
TABLE
  2
LAYER
 70
     2
  0
LAYER
  2
0
 70
     0
 62
   255
  6
CONTINUOUS
  0
LAYER
  2
DEFPOINTS
 70
     0
 62
     7
  6
CONTINUOUS
  0
ENDTAB
  0
TABLE
  2
STYLE
 70
     1
  0
STYLE
  2
STANDARD
 70
     0
 40
0.0
 41
0.8
 50
0.0
 71
     0
 42
0.2
  3
txt
  4

  0
ENDTAB
  0
TABLE
  2
VIEW
 70
     0
  0
ENDTAB
  0
TABLE
  2
UCS
 70
     0
  0
ENDTAB
  0
TABLE
  2
APPID
 70
     9
  0
APPID
  2
ACAD
 70
     0
  0
APPID
  2
ACAD_MLEADERVER
 70
     0
  0
APPID
  2
ACAD_EXEMPT_FROM_CAD_STANDARDS
 70
     0
  0
APPID
  2
ACAD_NAV_VCDISPLAY
 70
     0
  0
APPID
  2
ACAECLAYERSTANDARD
 70
     0
  0
APPID
  2
ACCMTRANSPARENCY
 70
     0
  0
APPID
  2
ACAD_DSTYLE_DIMJAG
 70
     0
  0
APPID
  2
ACAD_DSTYLE_DIMTALN
 70
     0
  0
APPID
  2
ACDBATTR
 70
     0
  0
ENDTAB
  0
TABLE
  2
DIMSTYLE
 70
     1
  0
DIMSTYLE
  2
STANDARD
 70
     0
  3

  4

  5

  6

  7

 40
1.0
 41
0.1875
 42
0.0625
 43
0.38
 44
0.125
 45
0.0
 46
0.0
 47
0.01
 48
0.01
140
0.15625
141
0.09
142
0.0
143
25.3999999999999986
144
1.0
145
0.0
146
1.0
147
0.09
 71
     1
 72
     0
 73
     1
 74
     1
 75
     0
 76
     0
 77
     0
 78
     4
170
     0
171
     2
172
     0
173
     0
174
     0
175
     0
176
     0
177
     0
178
     0
  0
ENDTAB
  0
ENDSEC
  0
SECTION
  2
BLOCKS
  0
BLOCK
  8
0
  2
$MODEL_SPACE
 70
     0
 10
0.0
 20
0.0
 30
0.0
  3
$MODEL_SPACE
  1

  0
ENDBLK
  5
21
  8
0
  0
BLOCK
 67
     1
  8
0
  2
$PAPER_SPACE
 70
     0
 10
0.0
 20
0.0
 30
0.0
  3
$PAPER_SPACE
  1

  0
ENDBLK
  5
1D
 67
     1
  8
0
  0
ENDSEC
  0
SECTION
  2
ENTITIES
  0
ATTDEF
  5
C4C4
  8
DEFPOINTS
 10
4226.5706493974666955
 20
181.6020278650331079
 30
0.0
 40
0.001
  1
K-EX27105T-9
  3

  2
MODELNUMBER
 70
     0
1001
ACDBATTR
1070
     0
1070
     1
  0
ATTDEF
  5
C4C5
  8
DEFPOINTS
 10
4226.5706493974666955
 20
181.6003611983664996
 30
0.0
 40
0.001
  1

  3

  2
TRADENAME
 70
     0
1001
ACDBATTR
1070
     0
1070
     1
  0
ATTDEF
  5
C4C6
  8
DEFPOINTS
 10
4226.5706493974666955
 20
181.598694531699806
 30
0.0
 40
0.001
  1
DECK MOUNT BATH FAUCET TRIM
  3

  2
PRODUCT
 70
     0
1001
ACDBATTR
1070
     0
1070
     1
  0
LINE
  5
D0E1
  8
0
 10
4226.5698158229633918
 20
187.4995312007590087
 30
0.0
 11
4226.56981582525259
 21
185.8973783606550967
 31
0.0
  0
LINE
  5
D0E2
  8
0
 10
4225.2871845059216867
 20
181.5978181024551077
 30
0.0
 11
4227.8524471394603097
 21
181.5978181024551077
 31
0.0
  0
LINE
  5
D0E3
  8
0
 10
4225.1995314871437586
 20
181.807880640455096
 30
0.0
 11
4227.9401007893702626
 21
181.807880640455096
 31
0.0
  0
ARC
  5
D0E4
  8
0
 10
4225.287319044969081
 20
181.6255667747134908
 30
0.0
 40
0.0277489917836417
 50
203.2581521284307939
 51
269.7250415435735249
  0
LINE
  5
D0E5
  8
0
 10
4225.261825074000626
 20
181.6146094032552014
 30
0.0
 11
4225.1927863692926621
 21
181.7764494407311133
 31
0.0
  0
ARC
  5
D0E6
  8
0
 10
4225.2190758251472289
 20
181.786807384126007
 30
0.0
 40
0.0287413166000812
 50
132.7099669241243873
 51
179.9999848709117032
  0
ARC
  5
D0E7
  8
0
 10
4223.938580868813915
 20
183.280424599009109
 30
0.0
 40
1.938652142766103
 50
310.5756861770983051
 51
334.6776737129425214
  0
ARC
  5
D0E8
  8
0
 10
4223.3870872880916068
 20
183.5413773854710087
 30
0.0
 40
2.54876813693377
 50
334.6776737129425214
 51
356.6135324205425263
  0
ARC
  5
D0E9
  8
0
 10
4173.0401489264477277
 20
185.4744735940024896
 30
0.0
 40
52.9322827591946918
 50
357.7439967089837864
 51
358.3256108483915909
  0
LINE
  5
D0EA
  8
0
 10
4225.9498307063076936
 20
187.0396710466590093
 30
0.0
 11
4225.9498307063076936
 21
183.9278217090358964
 31
0.0
  0
ARC
  5
D0EB
  8
0
 10
4226.5703362322874455
 20
187.4569500506736119
 30
0.0
 40
0.0425843300940644
 50
90.7002106190293347
 51
105.8362417195039029
  0
ARC
  5
D0EC
  8
0
 10
4226.8763463086243064
 20
186.4281137025222108
 30
0.0
 40
1.1159618502197859
 50
106.5364462757628985
 51
145.463497128949399
  0
ARC
  5
D0ED
  8
0
 10
4225.9936466183098673
 20
187.0364732094517137
 30
0.0
 40
0.0439324516445007
 50
146.3965524863212124
 51
175.8257563069225
  0
LINE
  5
D0EE
  8
0
 10
4226.1800084010246792
 20
183.7346094532387042
 30
0.0
 11
4226.1800084010246792
 21
185.5211007980661009
 31
0.0
  0
ARC
  5
D0EF
  8
0
 10
4225.7778502670453236
 20
181.6224388900741928
 30
0.0
 40
0.0256748992536332
 50
197.7551771166438073
 51
253.5250637670795868
  0
LINE
  5
D0F0
  8
0
 10
4225.7533983082012128
 20
181.614609320455088
 30
0.0
 11
4225.7106339370002388
 21
181.7766049320551076
 31
0.0
  0
ARC
  5
D0F1
  8
0
 10
4225.7536508654238787
 20
181.7862709235303953
 30
0.0
 40
0.0440895398272428
 50
150.6388843058865064
 51
192.6641331005164091
  0
ARC
  5
D0F2
  8
0
 10
4223.8970979557916507
 20
183.0577948938600912
 30
0.0
 40
2.2063206763922238
 50
325.4926724190933101
 51
341.1663936019891139
  0
ARC
  5
D0F3
  8
0
 10
4222.8342166245711269
 20
183.4215493888634114
 30
0.0
 40
3.329723171987883
 50
341.1464535343218927
 51
355.385028951404081
  0
ARC
  5
D0F4
  8
0
 10
4217.15153087708768
 20
183.8609813963265935
 30
0.0
 40
9.0293618970698812
 50
355.5069768985878227
 51
359.1980811633900998
  0
ARC
  5
D0F5
  8
0
 10
4227.8523131586480304
 20
181.6255667747134908
 30
0.0
 40
0.0277489917836417
 50
270.2749584564264751
 51
336.7418478715691776
  0
LINE
  5
D0F6
  8
0
 10
4227.8778071296155758
 20
181.6146094032552014
 30
0.0
 11
4227.9468799701107855
 21
181.7764494407311133
 31
0.0
  0
ARC
  5
D0F7
  8
0
 10
4227.9205549883463391
 20
181.7868063937478098
 30
0.0
 40
0.0287429872340735
 50
0.001989331164234
 51
47.2893359918937932
  0
ARC
  5
D0F8
  8
0
 10
4229.2010513348031964
 20
183.280424599009109
 30
0.0
 40
1.938652142766103
 50
205.322326287057507
 51
229.4243138229016949
  0
ARC
  5
D0F9
  8
0
 10
4229.7525449155236856
 20
183.5413773854710087
 30
0.0
 40
2.54876813693377
 50
183.3864675794575021
 51
205.322326287057507
  0
ARC
  5
D0FA
  8
0
 10
4280.0996500129076594
 20
185.4744797388123061
 30
0.0
 40
52.9324496075853119
 50
181.6743905264411865
 51
182.2560028326890915
  0
LINE
  5
D0FB
  8
0
 10
4227.1898014930102363
 20
187.0396710466590093
 30
0.0
 11
4227.1898014930102363
 21
183.9278217090358964
 31
0.0
  0
ARC
  5
D0FC
  8
0
 10
4226.2632869040253354
 20
186.4281146861031004
 30
0.0
 40
1.115960461393078
 50
34.5364906419311808
 51
73.4636164626775638
  0
ARC
  5
D0FD
  8
0
 10
4227.1459856444344041
 20
187.0364732386051116
 30
0.0
 40
0.0439323862634437
 50
4.174211793874651
 51
33.6034585235312022
  0
LINE
  5
D0FE
  8
0
 10
4226.9596238025924322
 20
183.7346094532387042
 30
0.0
 11
4226.9596238025924322
 21
185.5211010215718943
 31
0.0
  0
ARC
  5
D0FF
  8
0
 10
4227.3617819365736068
 20
181.6224388900741928
 30
0.0
 40
0.0256748992536332
 50
286.4749362329204132
 51
342.2448228833562212
  0
LINE
  5
D100
  8
0
 10
4227.3862338954158986
 20
181.614609320455088
 30
0.0
 11
4227.4289982666159631
 21
181.7766049320551076
 31
0.0
  0
ARC
  5
D101
  8
0
 10
4227.3859813381932327
 20
181.7862709235303953
 30
0.0
 40
0.0440895398272428
 50
347.3358668994836194
 51
29.3611156941134688
  0
ARC
  5
D102
  8
0
 10
4229.2425342478245511
 20
183.0577948938600912
 30
0.0
 40
2.2063206763922238
 50
198.8336063980108861
 51
214.507327580905411
  0
ARC
  5
D103
  8
0
 10
4230.305415579046894
 20
183.4215493888634114
 30
0.0
 40
3.329723171987883
 50
184.6149710485958906
 51
198.8535464656764873
  0
ARC
  5
D104
  8
0
 10
4235.9881013265303409
 20
183.8609813963265935
 30
0.0
 40
9.0293618970698812
 50
180.8019188366099002
 51
184.4930231014122057
  0
ARC
  5
D105
  8
0
 10
4226.5698158249506378
 20
185.7741172486549885
 30
0.0
 40
0.1232611120001477
 50
84.8155215665575071
 51
95.184478386769257
  0
ARC
  5
D106
  8
0
 10
4226.6993713526444481
 20
183.8635686944529084
 30
0.0
 40
2.0381672054212219
 50
93.9582491430942071
 51
111.3495030806561061
  0
ARC
  5
D107
  8
0
 10
4225.9650897708797856
 20
185.7485053325787874
 30
0.0
 40
0.0154376329859999
 50
120.0288940004266038
 51
171.2769349599518875
  0
ARC
  5
D108
  8
0
 10
4226.1008188803571102
 20
185.7514328108474047
 30
0.0
 40
0.1512910435270494
 50
183.6260288370833109
 51
205.0594175863012936
  0
ARC
  5
D109
  8
0
 10
4226.2111934261965871
 20
185.8235021358952963
 30
0.0
 40
0.2824103780838556
 50
208.8225998774470895
 51
230.3876613022212894
  0
ARC
  5
D10A
  8
0
 10
4226.4191887199676785
 20
186.1138631083242956
 30
0.0
 40
0.6391982332826901
 50
232.6198858813762058
 51
249.1542619613387046
  0
ARC
  5
D10B
  8
0
 10
4226.2125199245729164
 20
185.5753097426326974
 30
0.0
 40
0.0623717276241238
 50
250.5275104295861013
 51
262.4808135143994718
  0
ARC
  5
D10C
  8
0
 10
4226.6003125343177089
 20
189.5382179438755088
 30
0.0
 40
4.0441737084706171
 50
264.3813190714006964
 51
269.5679341352782217
  0
ARC
  5
D10D
  8
0
 10
4226.5821171911311467
 20
184.2911103320574
 30
0.0
 40
1.5327823002638621
 50
90.4598331077717859
 51
100.6679767994417034
  0
ARC
  5
D10E
  8
0
 10
4226.3967409740926087
 20
185.242994304078394
 30
0.0
 40
0.5630654992773046
 50
100.0612939947396995
 51
117.5001493399434054
  0
ARC
  5
D10F
  8
0
 10
4226.5694445354483832
 20
187.0824650768896049
 30
0.0
 40
1.563992475706266
 50
266.0460854810041269
 51
270.0136019298346923
  0
ARC
  5
D110
  8
0
 10
4226.551658910738297
 20
186.8251446211473024
 30
0.0
 40
1.306058093760299
 50
257.9553334183307243
 51
266.0460854810041269
  0
ARC
  5
D111
  8
0
 10
4226.4074852829417068
 20
186.1494516183007022
 30
0.0
 40
0.6151550115212518
 50
246.6142038439641055
 51
257.9553334183307243
  0
ARC
  5
D112
  8
0
 10
4226.2554501367831108
 20
185.7978800293132906
 30
0.0
 40
0.2321181100994516
 50
227.2389919616730083
 51
246.6142038439641055
  0
ARC
  5
D113
  8
0
 10
4226.1406730405387862
 20
185.673762714555096
 30
0.0
 40
0.0630651904414504
 50
182.9219448277978017
 51
227.2389919616718998
  0
ARC
  5
D114
  8
0
 10
4226.1279798852192471
 20
185.6702840561432879
 30
0.0
 40
0.0502907372139686
 50
154.5015220050009077
 51
179.6993519477105963
  0
ARC
  5
D115
  8
0
 10
4226.1648915171954286
 20
185.6506360681221111
 30
0.0
 40
0.0920837305374435
 50
127.5724367193757018
 51
153.3539446462563092
  0
ARC
  5
D116
  8
0
 10
4226.2694373375516079
 20
185.5147453711346941
 30
0.0
 40
0.263536668924801
 50
120.2322487511468978
 51
127.5724367193757018
  0
ARC
  5
D117
  8
0
 10
4226.5683579376900525
 20
184.8176080591395021
 30
0.0
 40
0.9571955611570547
 50
89.9127338058681431
 51
100.1522263912731034
  0
ARC
  5
D118
  8
0
 10
4226.4769651769402117
 20
185.3279890305381059
 30
0.0
 40
0.4386964071718979
 50
100.1522263912731034
 51
115.1060287881645934
  0
ARC
  5
D119
  8
0
 10
4226.3343828986908193
 20
185.6322862457543863
 30
0.0
 40
0.1026510214590273
 50
115.1060287881645934
 51
138.5302087400283142
  0
ARC
  5
D11A
  8
0
 10
4226.2894998909250717
 20
185.6719532092429006
 30
0.0
 40
0.0427515024411398
 50
138.5302087400283142
 51
173.2954592265571137
  0
ARC
  5
D11B
  8
0
 10
4226.2788155010557603
 20
185.6750706008608063
 30
0.0
 40
0.0318299557911389
 50
176.6250584763558891
 51
198.5439956476110126
  0
ARC
  5
D11C
  8
0
 10
4226.4536003182538479
 20
185.7327344544962102
 30
0.0
 40
0.2158808407566413
 50
198.3005218101201876
 51
220.4190690472663903
  0
ARC
  5
D11D
  8
0
 10
4226.3852591309951094
 20
185.6699512431763139
 30
0.0
 40
0.1231935728640562
 50
218.7967796040639996
 51
250.1167984933950095
  0
ARC
  5
D11E
  8
0
 10
4226.5032757277349447
 20
185.9641632340679109
 30
0.0
 40
0.4401403169964714
 50
248.6952922087872082
 51
261.6588532483273752
  0
ARC
  5
D11F
  8
0
 10
4226.5942961292139444
 20
186.555529928349813
 30
0.0
 40
1.038464270302109
 50
261.4232664942775273
 51
266.5837639750686776
  0
ARC
  5
D120
  8
0
 10
4226.5775767541936148
 20
184.736834179391991
 30
0.0
 40
0.9559556457486406
 50
90.465161101652896
 51
98.7038628636812945
  0
ARC
  5
D121
  8
0
 10
4226.5069289192906581
 20
185.2326228474304912
 30
0.0
 40
0.4552152899759863
 50
99.3573956975319561
 51
111.0784314036702938
  0
ARC
  5
D122
  8
0
 10
4226.3907971592261674
 20
185.5339229961143985
 30
0.0
 40
0.1323091653936671
 50
111.0784314036702938
 51
135.054192703068793
  0
ARC
  5
D123
  8
0
 10
4226.3184276996917106
 20
185.6061556849518013
 30
0.0
 40
0.0300599599698661
 50
135.054192703068793
 51
175.4601499348777907
  0
ARC
  5
D124
  8
0
 10
4226.3232606206820492
 20
185.605771943446797
 30
0.0
 40
0.0349080918610866
 50
175.460149934876199
 51
210.2122475032304862
  0
ARC
  5
D125
  8
0
 10
4226.1541592887297156
 20
185.6750607993128881
 30
0.0
 40
0.0670268337171198
 50
137.9370864790143969
 51
172.4577675344721115
  0
ARC
  5
D126
  8
0
 10
4226.139345608748954
 20
185.6803916742927925
 30
0.0
 40
0.0517495217405532
 50
176.1586992802565135
 51
211.9539908715617003
  0
ARC
  5
D127
  8
0
 10
4226.5188644096124335
 20
186.603109062525391
 30
0.0
 40
1.0693053349858781
 50
256.5959289070819977
 51
262.1427348311441961
  0
ARC
  5
D128
  8
0
 10
4226.4120805758748247
 20
186.1550186768799051
 30
0.0
 40
0.6086668858139869
 50
246.5732527482317948
 51
256.5959289070819977
  0
ARC
  5
D129
  8
0
 10
4226.2624392813713712
 20
185.8096604687954141
 30
0.0
 40
0.2322830273500084
 50
231.7476480581302951
 51
246.5732527482317948
  0
ARC
  5
D12A
  8
0
 10
4226.1819969039552234
 20
185.7076284144552858
 30
0.0
 40
0.10235413834803
 50
212.2545703581837984
 51
231.7476480581302951
  0
ARC
  5
D12B
  8
0
 10
4226.2582382803302607
 20
185.6382668250388122
 30
0.0
 40
0.1474698421685441
 50
123.2908439914528032
 51
132.115859298801297
  0
ARC
  5
D12C
  8
0
 10
4226.2088729216911815
 20
185.6908678474555074
 30
0.0
 40
0.0753568944012364
 50
131.0948293556228066
 51
155.4249998244845017
  0
ARC
  5
D12D
  8
0
 10
4226.3585300884960816
 20
185.9375531399614943
 30
0.0
 40
0.3411681343602227
 50
237.6634808169825988
 51
256.5179644722467174
  0
ARC
  5
D12E
  8
0
 10
4226.2336174962938458
 20
185.7402395133680102
 30
0.0
 40
0.1076390720789576
 50
213.5573630989019875
 51
237.6634808169825988
  0
ARC
  5
D12F
  8
0
 10
4226.1801143769062037
 20
185.7047494872213065
 30
0.0
 40
0.0434352891665388
 50
156.3009061645620079
 51
213.5573630989019875
  0
LINE
  5
D130
  8
0
 10
4226.1367449588524323
 20
185.7424388240551139
 30
0.0
 11
4226.1367449588524323
 21
185.7071407050252105
 31
0.0
  0
ARC
  5
D131
  8
0
 10
4226.5996047660437398
 20
184.2842712582352931
 30
0.0
 40
1.53519348875918
 50
91.1118389015360464
 51
95.6332125878254686
  0
ARC
  5
D132
  8
0
 10
4226.5313833498048552
 20
185.0284519366491907
 30
0.0
 40
0.7879269813714679
 50
96.008192988883593
 51
107.5502272921367961
  0
ARC
  5
D133
  8
0
 10
4226.3590893706814313
 20
185.5732329209162117
 30
0.0
 40
0.2165501039414734
 50
107.5502272921367961
 51
129.9949761570067039
  0
ARC
  5
D134
  8
0
 10
4226.251234997262145
 20
185.701791648747502
 30
0.0
 40
0.0487409493423899
 50
129.9949761570067039
 51
164.2971125450966099
  0
ARC
  5
D135
  8
0
 10
4226.239821006774946
 20
185.7050005974508053
 30
0.0
 40
0.0368844519418537
 50
164.2971125450966099
 51
196.5786106353249068
  0
ARC
  5
D136
  8
0
 10
4226.6505191365613427
 20
185.8606325222611133
 30
0.0
 40
0.4759914122567707
 50
200.4306822787970077
 51
204.7882511305678861
  0
ARC
  5
D137
  8
0
 10
4226.2960802561474338
 20
185.703497919715204
 30
0.0
 40
0.0885281156374307
 50
208.6403227740287889
 51
238.5550264779701024
  0
ARC
  5
D138
  8
0
 10
4226.4040258211052787
 20
185.8800294058669067
 30
0.0
 40
0.2954474491883392
 50
238.5550264779701024
 51
243.5152799193143949
  0
ARC
  5
D139
  8
0
 10
4226.566976689360672
 20
184.7376802269772895
 30
0.0
 40
1.046858951725862
 50
89.8446106992362843
 51
99.2108063525213737
  0
ARC
  5
D13A
  8
0
 10
4226.4910224763507358
 20
185.2060759327283961
 30
0.0
 40
0.5723449059486942
 50
99.2108063525213737
 51
111.4691893563550025
  0
ARC
  5
D13B
  8
0
 10
4226.3406655341623264
 20
185.5883820271440925
 30
0.0
 40
0.1615345362011096
 50
111.4691893563550025
 51
133.265808244229504
  0
ARC
  5
D13C
  8
0
 10
4226.2626987683888728
 20
185.6712173332747113
 30
0.0
 40
0.0477781978858429
 50
133.265808244229504
 51
162.3490804610744078
  0
ARC
  5
D13D
  8
0
 10
4226.2507754617863611
 20
185.6750112949115987
 30
0.0
 40
0.0352658285960827
 50
162.3490804610744078
 51
189.9107396852542138
  0
ARC
  5
D13E
  8
0
 10
4226.2583605688087118
 20
185.6763365731360125
 30
0.0
 40
0.0429658422922803
 50
189.9107396852542138
 51
198.3157546424577902
  0
ARC
  5
D13F
  8
0
 10
4226.5696354625033564
 20
184.8657631028310107
 30
0.0
 40
0.8196949249848398
 50
90.2625863311323826
 51
94.1223844069644997
  0
ARC
  5
D140
  8
0
 10
4226.557637036144115
 20
185.0078228147700941
 30
0.0
 40
0.6771122082957448
 50
95.2654356766769155
 51
99.6354014540612667
  0
ARC
  5
D141
  8
0
 10
4226.528436861526643
 20
185.184253253898703
 30
0.0
 40
0.4982841868240625
 50
100.5172480306662948
 51
105.7569562437920041
  0
ARC
  5
D142
  8
0
 10
4226.4523727106370643
 20
185.4405496913302045
 30
0.0
 40
0.2308154262384159
 50
107.7543563201460017
 51
116.7494824733127956
  0
ARC
  5
D143
  8
0
 10
4226.3928706887772933
 20
185.5556354603725993
 30
0.0
 40
0.101203180087873
 50
118.5211347626974003
 51
133.7536249957121015
  0
ARC
  5
D144
  8
0
 10
4226.342376862013225
 20
185.604691992914411
 30
0.0
 40
0.0304915539905256
 50
140.6241682430205913
 51
175.6818243409115041
  0
ARC
  5
D145
  8
0
 10
4226.3922174041854305
 20
185.6050789542385928
 30
0.0
 40
0.0232289464101794
 50
141.7260506392603077
 51
175.2862476648082009
  0
ARC
  5
D146
  8
0
 10
4226.4263699426010135
 20
185.5743664895693996
 30
0.0
 40
0.0693852737098829
 50
117.8147665279421972
 51
134.1306181972938987
  0
ARC
  5
D147
  8
0
 10
4226.4731807814068816
 20
185.4895202783939965
 30
0.0
 40
0.1663188923931135
 50
107.7850725966762013
 51
116.9006076854285965
  0
ARC
  5
D148
  8
0
 10
4226.5315902894590181
 20
185.30296172350441
 30
0.0
 40
0.3619122324649907
 50
100.4364312382008961
 51
105.7233535220160974
  0
ARC
  5
D149
  8
0
 10
4226.5572608311258591
 20
185.1632359367685012
 30
0.0
 40
0.503986270190795
 50
95.3485075264692057
 51
99.6415910450646578
  0
ARC
  5
D14A
  8
0
 10
4226.5694057174932823
 20
185.0362676686299892
 30
0.0
 40
0.631548223943792
 50
90.3199717025672868
 51
93.9870158752431166
  0
ARC
  5
D14B
  8
0
 10
4226.5691434016644052
 20
185.0789021690409015
 30
0.0
 40
0.5870876870780064
 50
90.3186029758032163
 51
99.1480809078512948
  0
ARC
  5
D14C
  8
0
 10
4226.510770483275337
 20
185.4052060916635014
 30
0.0
 40
0.2555393074217889
 50
99.411150538036992
 51
114.9329251108355976
  0
ARC
  5
D14D
  8
0
 10
4226.4206421541921372
 20
185.5917698593023033
 30
0.0
 40
0.048137246490557
 50
116.5722720016394049
 51
161.5704925613786997
  0
ARC
  5
D14E
  8
0
 10
4226.4568394433281355
 20
185.6021690436811866
 30
0.0
 40
0.0252271533768075
 50
109.1548994143169011
 51
168.9878651084092951
  0
ARC
  5
D14F
  8
0
 10
4226.5194333398867457
 20
185.4913337535687958
 30
0.0
 40
0.1522730101233669
 50
98.2676878558957441
 51
116.0763880414916969
  0
ARC
  5
D150
  8
0
 10
4226.5674517223678777
 20
185.2552800395212103
 30
0.0
 40
0.3930580597038642
 50
90.229281844028975
 51
99.237402018759866
  0
ARC
  5
D151
  8
0
 10
4226.569656409500567
 20
185.2448240870702989
 30
0.0
 40
0.401703376716723
 50
89.9772622455658109
 51
98.928708548769535
  0
ARC
  5
D152
  8
0
 10
4226.5368214318241371
 20
185.4423830809365938
 30
0.0
 40
0.2013645724877212
 50
100.3943559603712004
 51
110.964561264608605
  0
ARC
  5
D153
  8
0
 10
4226.4889889480537022
 20
185.5672217001192053
 30
0.0
 40
0.0676760264457006
 50
110.964561264608605
 51
133.440562305114014
  0
ARC
  5
D154
  8
0
 10
4226.4523885892003818
 20
185.6058706495252864
 30
0.0
 40
0.0144470159483019
 50
133.4405623051129055
 51
175.5648144560985884
  0
ARC
  5
D155
  8
0
 10
4226.5154429641452225
 20
185.6021629291410875
 30
0.0
 40
0.0151984013477483
 50
110.5544038433918956
 51
161.4904451056133041
  0
ARC
  5
D156
  8
0
 10
4226.5469548598239271
 20
185.540944544848486
 30
0.0
 40
0.0839664439779386
 50
100.2498799889199006
 51
116.0300200986322068
  0
ARC
  5
D157
  8
0
 10
4226.5687177118579712
 20
185.4298354354262131
 30
0.0
 40
0.1972294163316739
 50
89.6809929677921502
 51
98.7152190441678954
  0
ARC
  5
D158
  8
0
 10
4226.5697392457923343
 20
185.5292731406806013
 30
0.0
 40
0.0850143639649635
 50
89.9483891543235075
 51
96.8583940953136846
  0
ARC
  5
D159
  8
0
 10
4226.5689000004904301
 20
185.4436438304794024
 30
0.0
 40
0.1815953701396675
 50
89.7110438825271359
 51
98.5853815169050733
  0
ARC
  5
D15A
  8
0
 10
4226.5516839666661326
 20
185.5367450099915061
 30
0.0
 40
0.0868655194956938
 50
101.0923757039115003
 51
113.4234841090501931
  0
ARC
  5
D15B
  8
0
 10
4226.5273493215081544
 20
185.5929158797530079
 30
0.0
 40
0.0256499858073208
 50
113.4234841090501931
 51
135.8183048019866987
  0
ARC
  5
D15C
  8
0
 10
4226.5144323208605783
 20
185.6054690872707056
 30
0.0
 40
0.0076379918953665
 50
135.8183048019843966
 51
168.530632373456001
  0
ARC
  5
D15D
  8
0
 10
4226.5595100146638288
 20
185.5826013231310014
 30
0.0
 40
0.0306128655582223
 50
102.7226623347641947
 51
115.0565817610620059
  0
ARC
  5
D15E
  8
0
 10
4226.5508682517483976
 20
185.6010859629859908
 30
0.0
 40
0.0102079157452014
 50
115.0565817610612953
 51
144.6781873706327985
  0
LINE
  5
D15F
  8
0
 10
4226.5107099545512028
 20
185.6833372918551106
 30
0.0
 11
4226.525493911650301
 21
185.6662874401247052
 31
0.0
  0
LINE
  5
D160
  8
0
 10
4226.5658788170512707
 20
185.6854494194550966
 30
0.0
 11
4226.5658788170512707
 21
185.6678060444552045
 31
0.0
  0
LINE
  5
D161
  8
0
 10
4226.5658788170512707
 20
185.6659807794551114
 30
0.0
 11
4226.5658788170512707
 21
185.6483349520551087
 31
0.0
  0
LINE
  5
D162
  8
0
 10
4226.475804314850393
 20
185.6585225337551037
 30
0.0
 11
4226.5043558632505665
 21
185.6432407989551052
 31
0.0
  0
LINE
  5
D163
  8
0
 10
4226.4954985242511611
 20
185.6820777724551021
 30
0.0
 11
4226.5102824813511688
 21
185.665027920755108
 31
0.0
  0
LINE
  5
D164
  8
0
 10
4226.4443033935513085
 20
185.6753828705550973
 30
0.0
 11
4226.472850973950699
 21
185.6601032596551022
 31
0.0
  0
LINE
  5
D165
  8
0
 10
4226.4374842958523004
 20
185.6741662682551066
 30
0.0
 11
4226.4660318762516908
 21
185.6588866572550955
 31
0.0
  0
LINE
  5
D166
  8
0
 10
4226.4689852171513849
 20
185.6573059313550971
 30
0.0
 11
4226.497536765517907
 21
185.6420241966729066
 31
0.0
  0
LINE
  5
D167
  8
0
 10
4226.3931241536511152
 20
185.6638130540551117
 30
0.0
 11
4226.4335146756511676
 21
185.6513316963551006
 31
0.0
  0
LINE
  5
D168
  8
0
 10
4226.4223791357480877
 20
185.6478906252559966
 30
0.0
 11
4226.3819886137507638
 21
185.6603719829550982
 31
0.0
  0
LINE
  5
D169
  8
0
 10
4226.3484849088517876
 20
185.6466639451550975
 30
0.0
 11
4226.3979307685513049
 21
185.6378422576551088
 31
0.0
  0
LINE
  5
D16A
  8
0
 10
4226.3939937606510284
 20
185.6357350405550903
 30
0.0
 11
4226.344547901050646
 21
185.6445567280551927
 31
0.0
  0
LINE
  5
D16B
  8
0
 10
4226.3228827433513288
 20
185.6287365626550923
 30
0.0
 11
4226.378057222451389
 21
185.6241680686551092
 31
0.0
  0
LINE
  5
D16C
  8
0
 10
4226.3739813320225949
 20
185.6194674782574054
 30
0.0
 11
4226.3188068528506847
 21
185.6240359721550988
 31
0.0
  0
LINE
  5
D16D
  8
0
 10
4226.3119718644511522
 20
185.6069878561550865
 30
0.0
 11
4226.3690670252517521
 21
185.6069878561550865
 31
0.0
  0
LINE
  5
D16E
  8
0
 10
4226.3749737069729235
 20
185.6069878561550865
 30
0.0
 11
4226.4320768038523966
 21
185.6069878561550865
 31
0.0
  0
LINE
  5
D16F
  8
0
 10
4226.3991090971512676
 20
185.6348224080551006
 30
0.0
 11
4226.4485618296512257
 21
185.6259994943551135
 31
0.0
  0
LINE
  5
D170
  8
0
 10
4226.4030461050506347
 20
185.6369296251552043
 30
0.0
 11
4226.4524988375505927
 21
185.6281067114551036
 31
0.0
  0
LINE
  5
D171
  8
0
 10
4226.4379848355511058
 20
185.6069878561550865
 30
0.0
 11
4226.5010307650509276
 21
185.6069878561669952
 31
0.0
  0
LINE
  5
D172
  8
0
 10
4226.5069468508499995
 20
185.6069878561550865
 30
0.0
 11
4226.5425394342510117
 21
185.6069878561550865
 31
0.0
  0
LINE
  5
D173
  8
0
 10
4226.5349717890512693
 20
185.6219877316551106
 30
0.0
 11
4226.5527680807508659
 21
185.6124625666550969
 31
0.0
  0
LINE
  5
D174
  8
0
 10
4226.5417908867511869
 20
185.6232043339551012
 30
0.0
 11
4226.559587178451693
 21
185.6136791689552012
 31
0.0
  0
LINE
  5
D175
  8
0
 10
4226.5388328438511962
 20
185.6247875765552067
 30
0.0
 11
4226.5073098791517623
 21
185.6416597117550964
 31
0.0
  0
LINE
  5
D176
  8
0
 10
4226.5004907814500257
 20
185.6404431094551057
 30
0.0
 11
4226.5320137461512786
 21
185.6235709742551023
 31
0.0
  0
ARC
  5
D177
  8
0
 10
4226.5696354625033564
 20
186.3457794047793072
 30
0.0
 40
0.8196949249848398
 50
265.8776155930355003
 51
269.737413668867589
  0
ARC
  5
D178
  8
0
 10
4226.557637036144115
 20
186.2037196928401954
 30
0.0
 40
0.6771122082957448
 50
260.3645985459388044
 51
264.7345643233231272
  0
ARC
  5
D179
  8
0
 10
4226.528436861526643
 20
186.0272892537115865
 30
0.0
 40
0.4982841868240625
 50
254.2430437562080101
 51
259.4827519693337194
  0
ARC
  5
D17A
  8
0
 10
4226.4523727106370643
 20
185.7709928162801134
 30
0.0
 40
0.2308154262384159
 50
243.2505175266871049
 51
252.245643679853913
  0
ARC
  5
D17B
  8
0
 10
4226.3928706887772933
 20
185.6559070472376902
 30
0.0
 40
0.101203180087873
 50
226.2463750042878985
 51
241.4788652373025002
  0
ARC
  5
D17C
  8
0
 10
4226.342376862013225
 20
185.6068505146959069
 30
0.0
 40
0.0304915539905256
 50
184.3181756590884959
 51
219.3758317569794087
  0
ARC
  5
D17D
  8
0
 10
4226.3922174041854305
 20
185.6064635533716114
 30
0.0
 40
0.0232289464101794
 50
184.7137523351917991
 51
218.2739493607384134
  0
ARC
  5
D17E
  8
0
 10
4226.4263699426010135
 20
185.6371760180408046
 30
0.0
 40
0.0693852737098829
 50
225.8693818027061013
 51
242.1852334720576891
  0
ARC
  5
D17F
  8
0
 10
4226.4731807814068816
 20
185.722022229216293
 30
0.0
 40
0.1663188923931135
 50
243.0993923145713893
 51
252.2149274033237987
  0
ARC
  5
D180
  8
0
 10
4226.5315902894590181
 20
185.9085807841059079
 30
0.0
 40
0.3619122324649907
 50
254.2766464779838884
 51
259.5635687617991039
  0
ARC
  5
D181
  8
0
 10
4226.5572608311258591
 20
186.0483065708417882
 30
0.0
 40
0.503986270190795
 50
260.358408954935328
 51
264.6514924735308227
  0
ARC
  5
D182
  8
0
 10
4226.5694057174932823
 20
186.1752748389801866
 30
0.0
 40
0.631548223943792
 50
266.0129841247568834
 51
269.6800282974327274
  0
ARC
  5
D183
  8
0
 10
4226.5691434016644052
 20
186.1326403385693879
 30
0.0
 40
0.5870876870780064
 50
260.8519190921487052
 51
269.6813970241968264
  0
ARC
  5
D184
  8
0
 10
4226.510770483275337
 20
185.8063364159467881
 30
0.0
 40
0.2555393074217889
 50
245.0670748891643029
 51
260.5888494619629796
  0
ARC
  5
D185
  8
0
 10
4226.4206421541921372
 20
185.6197726483079009
 30
0.0
 40
0.048137246490557
 50
198.4295074386211866
 51
243.4277279983606093
  0
ARC
  5
D186
  8
0
 10
4226.4568394433281355
 20
185.6093734639289892
 30
0.0
 40
0.0252271533768075
 50
191.0121348915905912
 51
250.8451005856830989
  0
ARC
  5
D187
  8
0
 10
4226.5194333398867457
 20
185.7202087540414936
 30
0.0
 40
0.1522730101233669
 50
243.9236119585081894
 51
261.7323121441041849
  0
ARC
  5
D188
  8
0
 10
4226.5674517223678777
 20
185.956262468088994
 30
0.0
 40
0.3930580597038642
 50
260.7625979812401056
 51
269.7707181559711103
  0
ARC
  5
D189
  8
0
 10
4226.569656409500567
 20
185.9667184205399906
 30
0.0
 40
0.401703376716723
 50
261.0712914512304792
 51
270.0227377544342175
  0
ARC
  5
D18A
  8
0
 10
4226.5368214318241371
 20
185.7691594266736104
 30
0.0
 40
0.2013645724877212
 50
249.0354387353912955
 51
259.6056440396288281
  0
ARC
  5
D18B
  8
0
 10
4226.4889889480537022
 20
185.6443208074911126
 30
0.0
 40
0.0676760264457006
 50
226.559437694885986
 51
249.0354387353912955
  0
ARC
  5
D18C
  8
0
 10
4226.4523885892003818
 20
185.6056718580850031
 30
0.0
 40
0.0144470159483019
 50
184.4351855439014116
 51
226.5594376948870945
  0
ARC
  5
D18D
  8
0
 10
4226.5154429641452225
 20
185.609379578469202
 30
0.0
 40
0.0151984013477483
 50
198.5095548943866959
 51
249.4455961566081044
  0
ARC
  5
D18E
  8
0
 10
4226.5469548598239271
 20
185.6705979627616898
 30
0.0
 40
0.0839664439779386
 50
243.969979901367708
 51
259.7501200110801278
  0
ARC
  5
D18F
  8
0
 10
4226.5687177118579712
 20
185.7817070721841048
 30
0.0
 40
0.1972294163316739
 50
261.2847809558321046
 51
270.3190070322078213
  0
ARC
  5
D190
  8
0
 10
4226.5697392457923343
 20
185.6822693669296029
 30
0.0
 40
0.0850143639649635
 50
263.141605904686287
 51
270.051610845676521
  0
ARC
  5
D191
  8
0
 10
4226.5689000004904301
 20
185.7678986771308871
 30
0.0
 40
0.1815953701396675
 50
261.4146184830948982
 51
270.2889561174728783
  0
ARC
  5
D192
  8
0
 10
4226.5516839666661326
 20
185.6747974976188118
 30
0.0
 40
0.0868655194956938
 50
246.5765158909497927
 51
258.9076242960884997
  0
ARC
  5
D193
  8
0
 10
4226.5273493215081544
 20
185.61862662785731
 30
0.0
 40
0.0256499858073208
 50
224.1816951980133013
 51
246.5765158909497927
  0
ARC
  5
D194
  8
0
 10
4226.5144323208605783
 20
185.6060734203396123
 30
0.0
 40
0.0076379918953665
 50
191.469367626543999
 51
224.1816951980156034
  0
ARC
  5
D195
  8
0
 10
4226.5595100146638288
 20
185.6289411844792028
 30
0.0
 40
0.0306128655582223
 50
244.9434182389379941
 51
257.2773376652357911
  0
ARC
  5
D196
  8
0
 10
4226.5508682517483976
 20
185.6104565446242987
 30
0.0
 40
0.0102079157452014
 50
215.3218126293670878
 51
244.9434182389387047
  0
LINE
  5
D197
  8
0
 10
4226.5107099545512028
 20
185.5282052157550936
 30
0.0
 11
4226.525493911650301
 21
185.545255067485499
 31
0.0
  0
LINE
  5
D198
  8
0
 10
4226.5658788170512707
 20
185.5260930881551076
 30
0.0
 11
4226.5658788170512707
 21
185.5437364631551986
 31
0.0
  0
LINE
  5
D199
  8
0
 10
4226.5658788170512707
 20
185.5455617281550929
 30
0.0
 11
4226.5658788170512707
 21
185.5632075555550955
 31
0.0
  0
LINE
  5
D19A
  8
0
 10
4226.475804314850393
 20
185.5530199738551005
 30
0.0
 11
4226.5043558632505665
 21
185.568301708655099
 31
0.0
  0
LINE
  5
D19B
  8
0
 10
4226.4954985242511611
 20
185.5294647351551021
 30
0.0
 11
4226.5102824813511688
 21
185.5465145868550962
 31
0.0
  0
LINE
  5
D19C
  8
0
 10
4226.4443033935513085
 20
185.5361596370551069
 30
0.0
 11
4226.472850973950699
 21
185.551439247955102
 31
0.0
  0
LINE
  5
D19D
  8
0
 10
4226.4374842958523004
 20
185.5373762393550976
 30
0.0
 11
4226.4660318762516908
 21
185.5526558503551087
 31
0.0
  0
LINE
  5
D19E
  8
0
 10
4226.4689852171513849
 20
185.5542365762551071
 30
0.0
 11
4226.497536765517907
 21
185.5695183109374113
 31
0.0
  0
LINE
  5
D19F
  8
0
 10
4226.3931241536511152
 20
185.5477294535550925
 30
0.0
 11
4226.4335146756511676
 21
185.5602108112551036
 31
0.0
  0
LINE
  5
D1A0
  8
0
 10
4226.4223791357480877
 20
185.5636518823542929
 30
0.0
 11
4226.3819886137507638
 21
185.551170524655106
 31
0.0
  0
LINE
  5
D1A1
  8
0
 10
4226.3484849088517876
 20
185.5648785624551067
 30
0.0
 11
4226.3979307685513049
 21
185.5737002499550954
 31
0.0
  0
LINE
  5
D1A2
  8
0
 10
4226.3939937606510284
 20
185.5758074670551991
 30
0.0
 11
4226.344547901050646
 21
185.5669857795550968
 31
0.0
  0
LINE
  5
D1A3
  8
0
 10
4226.3228827433513288
 20
185.582805944955112
 30
0.0
 11
4226.378057222451389
 21
185.587374438955095
 31
0.0
  0
LINE
  5
D1A4
  8
0
 10
4226.3739813320225949
 20
185.5920750293529125
 30
0.0
 11
4226.3188068528506847
 21
185.5875065354551054
 31
0.0
  0
LINE
  5
D1A5
  8
0
 10
4226.3119718644511522
 20
185.6045546514550892
 30
0.0
 11
4226.3690670252517521
 21
185.6045546514550892
 31
0.0
  0
LINE
  5
D1A6
  8
0
 10
4226.3749737069729235
 20
185.6045546514550892
 30
0.0
 11
4226.4320768038523966
 21
185.6045546514550892
 31
0.0
  0
LINE
  5
D1A7
  8
0
 10
4226.3991090971512676
 20
185.5767200995551036
 30
0.0
 11
4226.4485618296512257
 21
185.5855430132552044
 31
0.0
  0
LINE
  5
D1A8
  8
0
 10
4226.4030461050506347
 20
185.5746128824551135
 30
0.0
 11
4226.4524988375505927
 21
185.5834357961551007
 31
0.0
  0
LINE
  5
D1A9
  8
0
 10
4226.4379848355511058
 20
185.6045546514550892
 30
0.0
 11
4226.5010307650509276
 21
185.6045546514432942
 31
0.0
  0
LINE
  5
D1AA
  8
0
 10
4226.5069468508499995
 20
185.6045546514550892
 30
0.0
 11
4226.5425394342510117
 21
185.6045546514550892
 31
0.0
  0
LINE
  5
D1AB
  8
0
 10
4226.5349717890512693
 20
185.5895547759550936
 30
0.0
 11
4226.5527680807508659
 21
185.5990799409551073
 31
0.0
  0
LINE
  5
D1AC
  8
0
 10
4226.5417908867511869
 20
185.588338173655103
 30
0.0
 11
4226.559587178451693
 21
185.5978633386552019
 31
0.0
  0
LINE
  5
D1AD
  8
0
 10
4226.5388328438511962
 20
185.5867549310551112
 30
0.0
 11
4226.5073098791517623
 21
185.5698827958551078
 31
0.0
  0
LINE
  5
D1AE
  8
0
 10
4226.5004907814500257
 20
185.5710993981550985
 30
0.0
 11
4226.5320137461512786
 21
185.5879715333551019
 31
0.0
  0
ARC
  5
D1AF
  8
0
 10
4226.5699961871978303
 20
184.8657631028310107
 30
0.0
 40
0.8196949249848398
 50
85.8776155930355145
 51
89.7374136688676032
  0
ARC
  5
D1B0
  8
0
 10
4226.5819946135579812
 20
185.0078228147700941
 30
0.0
 40
0.6771122082957448
 50
80.3645985459387333
 51
84.7345643233230845
  0
ARC
  5
D1B1
  8
0
 10
4226.6111947881754531
 20
185.184253253898703
 30
0.0
 40
0.4982841868240625
 50
74.2430437562079533
 51
79.4827519693337194
  0
ARC
  5
D1B2
  8
0
 10
4226.6872589390650319
 20
185.4405496913302045
 30
0.0
 40
0.2308154262384159
 50
63.2505175266871333
 51
72.2456436798539414
  0
ARC
  5
D1B3
  8
0
 10
4226.7467609609238934
 20
185.5556354603725993
 30
0.0
 40
0.101203180087873
 50
46.2463750042878772
 51
61.4788652373025712
  0
ARC
  5
D1B4
  8
0
 10
4226.7972547876888711
 20
185.604691992914411
 30
0.0
 40
0.0304915539905256
 50
4.318175659088463
 51
39.3758317569794585
  0
ARC
  5
D1B5
  8
0
 10
4226.7474142455157562
 20
185.6050789542385928
 30
0.0
 40
0.0232289464101794
 50
4.7137523351917938
 51
38.2739493607396781
  0
ARC
  5
D1B6
  8
0
 10
4226.7132617071001732
 20
185.5743664895693996
 30
0.0
 40
0.0693852737098829
 50
45.8693818027061013
 51
62.1852334720577389
  0
ARC
  5
D1B7
  8
0
 10
4226.6664508682943051
 20
185.4895202783939965
 30
0.0
 40
0.1663188923931135
 50
63.0993923145713893
 51
72.2149274033237702
  0
ARC
  5
D1B8
  8
0
 10
4226.6080413602430781
 20
185.30296172350441
 30
0.0
 40
0.3619122324649907
 50
74.276646477983931
 51
79.5635687617990328
  0
ARC
  5
D1B9
  8
0
 10
4226.5823708185762371
 20
185.1632359367685012
 30
0.0
 40
0.503986270190795
 50
80.358408954935328
 51
84.6514924735307943
  0
ARC
  5
D1BA
  8
0
 10
4226.5702259322088139
 20
185.0362676686299892
 30
0.0
 40
0.631548223943792
 50
86.0129841247568976
 51
89.6800282974327274
  0
ARC
  5
D1BB
  8
0
 10
4226.5704882480376909
 20
185.0789021690409015
 30
0.0
 40
0.5870876870780064
 50
80.8519190921487194
 51
89.6813970241968264
  0
ARC
  5
D1BC
  8
0
 10
4226.6288611664267592
 20
185.4052060916635014
 30
0.0
 40
0.2555393074217889
 50
65.0670748891644024
 51
80.5888494619630364
  0
ARC
  5
D1BD
  8
0
 10
4226.71898949550814
 20
185.5917698593023033
 30
0.0
 40
0.048137246490557
 50
18.4295074386212789
 51
63.4277279983606093
  0
ARC
  5
D1BE
  8
0
 10
4226.6827922063739607
 20
185.6021690436811866
 30
0.0
 40
0.0252271533768075
 50
11.0121348915906605
 51
70.8451005856831131
  0
ARC
  5
D1BF
  8
0
 10
4226.620198309814441
 20
185.4913337535687958
 30
0.0
 40
0.1522730101233669
 50
63.9236119585082534
 51
81.7323121441042559
  0
ARC
  5
D1C0
  8
0
 10
4226.572179927335128
 20
185.2552800395212103
 30
0.0
 40
0.3930580597038642
 50
80.762597981240134
 51
89.7707181559710392
  0
ARC
  5
D1C1
  8
0
 10
4226.5699752402006197
 20
185.2448240870702989
 30
0.0
 40
0.401703376716723
 50
81.071291451230465
 51
90.0227377544341749
  0
ARC
  5
D1C2
  8
0
 10
4226.6028102178797781
 20
185.4423830809365938
 30
0.0
 40
0.2013645724877212
 50
69.0354387353913239
 51
79.6056440396288139
  0
ARC
  5
D1C3
  8
0
 10
4226.650642701646575
 20
185.5672217001192053
 30
0.0
 40
0.0676760264457006
 50
46.5594376948859576
 51
69.0354387353913239
  0
ARC
  5
D1C4
  8
0
 10
4226.6872430605026238
 20
185.6058706495252864
 30
0.0
 40
0.0144470159483019
 50
4.4351855439014054
 51
46.5594376948870732
  0
ARC
  5
D1C5
  8
0
 10
4226.6241886855577832
 20
185.6021629291410875
 30
0.0
 40
0.0151984013477483
 50
18.5095548943867314
 51
69.4455961566080759
  0
ARC
  5
D1C6
  8
0
 10
4226.5926767898772596
 20
185.540944544848486
 30
0.0
 40
0.0839664439779386
 50
63.9699799013677932
 51
79.7501200110800852
  0
ARC
  5
D1C7
  8
0
 10
4226.5709139378450345
 20
185.4298354354262131
 30
0.0
 40
0.1972294163316739
 50
81.2847809558321046
 51
90.3190070322078356
  0
ARC
  5
D1C8
  8
0
 10
4226.5698924039106714
 20
185.5292731406806013
 30
0.0
 40
0.0850143639649635
 50
83.1416059046863296
 51
90.0516108456764925
  0
ARC
  5
D1C9
  8
0
 10
4226.5707316492116661
 20
185.4436438304794024
 30
0.0
 40
0.1815953701396675
 50
81.4146184830949267
 51
90.2889561174728641
  0
ARC
  5
D1CA
  8
0
 10
4226.5879476830359636
 20
185.5367450099915061
 30
0.0
 40
0.0868655194956938
 50
66.5765158909498354
 51
78.9076242960884855
  0
ARC
  5
D1CB
  8
0
 10
4226.6122823281939418
 20
185.5929158797530079
 30
0.0
 40
0.0256499858073208
 50
44.1816951980132799
 51
66.5765158909498354
  0
ARC
  5
D1CC
  8
0
 10
4226.6251993288406084
 20
185.6054690872707056
 30
0.0
 40
0.0076379918953665
 50
11.4693676265439706
 51
44.1816951980156105
  0
ARC
  5
D1CD
  8
0
 10
4226.5801216350391769
 20
185.5826013231310014
 30
0.0
 40
0.0306128655582223
 50
64.9434182389379941
 51
77.2773376652357484
  0
ARC
  5
D1CE
  8
0
 10
4226.5887633979546081
 20
185.6010859629859908
 30
0.0
 40
0.0102079157452014
 50
35.3218126293671517
 51
64.9434182389386905
  0
LINE
  5
D1CF
  8
0
 10
4226.6289216951508934
 20
185.6833372918551106
 30
0.0
 11
4226.6141377380499762
 21
185.6662874401247052
 31
0.0
  0
LINE
  5
D1D0
  8
0
 10
4226.5737528326517349
 20
185.6854494194550966
 30
0.0
 11
4226.5737528326517349
 21
185.6678060444552045
 31
0.0
  0
LINE
  5
D1D1
  8
0
 10
4226.5737528326517349
 20
185.6659807794551114
 30
0.0
 11
4226.5737528326517349
 21
185.6483349520551087
 31
0.0
  0
LINE
  5
D1D2
  8
0
 10
4226.6638273348517032
 20
185.6585225337551037
 30
0.0
 11
4226.6352757864524392
 21
185.6432407989551052
 31
0.0
  0
LINE
  5
D1D3
  8
0
 10
4226.644133125450935
 20
185.6820777724551021
 30
0.0
 11
4226.6293491683509274
 21
185.665027920755108
 31
0.0
  0
LINE
  5
D1D4
  8
0
 10
4226.6953282561507876
 20
185.6753828705550973
 30
0.0
 11
4226.6667806757523067
 21
185.6601032596551022
 31
0.0
  0
LINE
  5
D1D5
  8
0
 10
4226.7021473538516148
 20
185.6741662682551066
 30
0.0
 11
4226.6735997734513148
 21
185.6588866572550955
 31
0.0
  0
LINE
  5
D1D6
  8
0
 10
4226.6706464325507113
 20
185.6573059313550971
 30
0.0
 11
4226.6420948841841891
 21
185.6420241966729066
 31
0.0
  0
LINE
  5
D1D7
  8
0
 10
4226.746507496050981
 20
185.6638130540551117
 30
0.0
 11
4226.7061169740500191
 21
185.6513316963551006
 31
0.0
  0
LINE
  5
D1D8
  8
0
 10
4226.7172525139540085
 20
185.6478906252559966
 30
0.0
 11
4226.7576430359513324
 21
185.6603719829550982
 31
0.0
  0
LINE
  5
D1D9
  8
0
 10
4226.7911467408503086
 20
185.6466639451550975
 30
0.0
 11
4226.7417008811507912
 21
185.6378422576551088
 31
0.0
  0
LINE
  5
D1DA
  8
0
 10
4226.7456378890510678
 20
185.6357350405550903
 30
0.0
 11
4226.7950837486514502
 21
185.6445567280551927
 31
0.0
  0
LINE
  5
D1DB
  8
0
 10
4226.8167489063507674
 20
185.6287365626550923
 30
0.0
 11
4226.7615744272516167
 21
185.6241680686551092
 31
0.0
  0
LINE
  5
D1DC
  8
0
 10
4226.7656503176785918
 20
185.6194674782574054
 30
0.0
 11
4226.820824796852321
 21
185.6240359721550988
 31
0.0
  0
LINE
  5
D1DD
  8
0
 10
4226.827659785250944
 20
185.6069878561550865
 30
0.0
 11
4226.7705646244512536
 21
185.6069878561550865
 31
0.0
  0
LINE
  5
D1DE
  8
0
 10
4226.7646579427291726
 20
185.6069878561550865
 30
0.0
 11
4226.7075548458506091
 21
185.6069878561550865
 31
0.0
  0
LINE
  5
D1DF
  8
0
 10
4226.7405225525508286
 20
185.6348224080551006
 30
0.0
 11
4226.6910698200508705
 21
185.6259994943551135
 31
0.0
  0
LINE
  5
D1E0
  8
0
 10
4226.736585544650552
 20
185.6369296251552043
 30
0.0
 11
4226.687132812150594
 21
185.6281067114551036
 31
0.0
  0
LINE
  5
D1E1
  8
0
 10
4226.7016468141509904
 20
185.6069878561550865
 30
0.0
 11
4226.6386008846502591
 21
185.6069878561669952
 31
0.0
  0
LINE
  5
D1E2
  8
0
 10
4226.6326847988511872
 20
185.6069878561550865
 30
0.0
 11
4226.5970922154510845
 21
185.6069878561550865
 31
0.0
  0
LINE
  5
D1E3
  8
0
 10
4226.6046598606508269
 20
185.6219877316551106
 30
0.0
 11
4226.5868635689512303
 21
185.6124625666550969
 31
0.0
  0
LINE
  5
D1E4
  8
0
 10
4226.5978407629509093
 20
185.6232043339551012
 30
0.0
 11
4226.5800444712504031
 21
185.6136791689552012
 31
0.0
  0
LINE
  5
D1E5
  8
0
 10
4226.6007988058509
 20
185.6247875765552067
 30
0.0
 11
4226.6323217705512434
 21
185.6416597117550964
 31
0.0
  0
LINE
  5
D1E6
  8
0
 10
4226.639140868251161
 20
185.6404431094551057
 30
0.0
 11
4226.6076179035508176
 21
185.6235709742551023
 31
0.0
  0
ARC
  5
D1E7
  8
0
 10
4226.5699961871978303
 20
186.3457794047793072
 30
0.0
 40
0.8196949249848398
 50
270.262586331132411
 51
274.1223844069644997
  0
ARC
  5
D1E8
  8
0
 10
4226.5819946135579812
 20
186.2037196928401954
 30
0.0
 40
0.6771122082957448
 50
275.2654356766768728
 51
279.6354014540613093
  0
ARC
  5
D1E9
  8
0
 10
4226.6111947881754531
 20
186.0272892537115865
 30
0.0
 40
0.4982841868240625
 50
280.5172480306662806
 51
285.7569562437919899
  0
ARC
  5
D1EA
  8
0
 10
4226.6872589390650319
 20
185.7709928162801134
 30
0.0
 40
0.2308154262384159
 50
287.754356320146087
 51
296.7494824733129235
  0
ARC
  5
D1EB
  8
0
 10
4226.7467609609238934
 20
185.6559070472376902
 30
0.0
 40
0.101203180087873
 50
298.5211347626973861
 51
313.7536249957120731
  0
ARC
  5
D1EC
  8
0
 10
4226.7972547876888711
 20
185.6068505146959069
 30
0.0
 40
0.0304915539905256
 50
320.624168243020506
 51
355.6818243409114757
  0
ARC
  5
D1ED
  8
0
 10
4226.7474142455157562
 20
185.6064635533716114
 30
0.0
 40
0.0232289464101794
 50
321.7260506392602792
 51
355.2862476648081724
  0
ARC
  5
D1EE
  8
0
 10
4226.7132617071001732
 20
185.6371760180408046
 30
0.0
 40
0.0693852737098829
 50
297.8147665279421972
 51
314.1306181972939271
  0
ARC
  5
D1EF
  8
0
 10
4226.6664508682943051
 20
185.722022229216293
 30
0.0
 40
0.1663188923931135
 50
287.7850725966761729
 51
296.9006076854286107
  0
ARC
  5
D1F0
  8
0
 10
4226.6080413602430781
 20
185.9085807841059079
 30
0.0
 40
0.3619122324649907
 50
280.4364312382010098
 51
285.7233535220161116
  0
ARC
  5
D1F1
  8
0
 10
4226.5823708185762371
 20
186.0483065708417882
 30
0.0
 40
0.503986270190795
 50
275.3485075264691773
 51
279.641591045064672
  0
ARC
  5
D1F2
  8
0
 10
4226.5702259322088139
 20
186.1752748389801866
 30
0.0
 40
0.631548223943792
 50
270.3199717025672726
 51
273.9870158752431166
  0
ARC
  5
D1F3
  8
0
 10
4226.5704882480376909
 20
186.1326403385693879
 30
0.0
 40
0.5870876870780064
 50
270.3186029758031736
 51
279.1480809078512948
  0
ARC
  5
D1F4
  8
0
 10
4226.6288611664267592
 20
185.8063364159467881
 30
0.0
 40
0.2555393074217889
 50
279.4111505380370204
 51
294.9329251108355834
  0
ARC
  5
D1F5
  8
0
 10
4226.71898949550814
 20
185.6197726483079009
 30
0.0
 40
0.048137246490557
 50
296.5722720016394192
 51
341.5704925613787282
  0
ARC
  5
D1F6
  8
0
 10
4226.6827922063739607
 20
185.6093734639289892
 30
0.0
 40
0.0252271533768075
 50
289.1548994143169011
 51
348.9878651084093235
  0
ARC
  5
D1F7
  8
0
 10
4226.620198309814441
 20
185.7202087540414936
 30
0.0
 40
0.1522730101233669
 50
278.2676878558957014
 51
296.0763880414917821
  0
ARC
  5
D1F8
  8
0
 10
4226.572179927335128
 20
185.956262468088994
 30
0.0
 40
0.3930580597038642
 50
270.2292818440290034
 51
279.2374020187598944
  0
ARC
  5
D1F9
  8
0
 10
4226.5699752402006197
 20
185.9667184205399906
 30
0.0
 40
0.401703376716723
 50
269.9772622455657825
 51
278.9287085487695208
  0
ARC
  5
D1FA
  8
0
 10
4226.6028102178797781
 20
185.7691594266736104
 30
0.0
 40
0.2013645724877212
 50
280.3943559603711719
 51
290.9645612646086761
  0
ARC
  5
D1FB
  8
0
 10
4226.650642701646575
 20
185.6443208074911126
 30
0.0
 40
0.0676760264457006
 50
290.9645612646086761
 51
313.4405623051140992
  0
ARC
  5
D1FC
  8
0
 10
4226.6872430605026238
 20
185.6056718580850031
 30
0.0
 40
0.0144470159483019
 50
313.4405623051129055
 51
355.5648144560985884
  0
ARC
  5
D1FD
  8
0
 10
4226.6241886855577832
 20
185.609379578469202
 30
0.0
 40
0.0151984013477483
 50
290.5544038433919241
 51
341.4904451056132757
  0
ARC
  5
D1FE
  8
0
 10
4226.5926767898772596
 20
185.6705979627616898
 30
0.0
 40
0.0839664439779386
 50
280.2498799889198722
 51
296.0300200986321784
  0
ARC
  5
D1FF
  8
0
 10
4226.5709139378450345
 20
185.7817070721841048
 30
0.0
 40
0.1972294163316739
 50
269.6809929677921787
 51
278.7152190441678954
  0
ARC
  5
D200
  8
0
 10
4226.5698924039106714
 20
185.6822693669296029
 30
0.0
 40
0.0850143639649635
 50
269.948389154323479
 51
276.858394095313713
  0
ARC
  5
D201
  8
0
 10
4226.5707316492116661
 20
185.7678986771308871
 30
0.0
 40
0.1815953701396675
 50
269.7110438825271217
 51
278.5853815169051018
  0
ARC
  5
D202
  8
0
 10
4226.5879476830359636
 20
185.6747974976188118
 30
0.0
 40
0.0868655194956938
 50
281.092375703911614
 51
293.4234841090502073
  0
ARC
  5
D203
  8
0
 10
4226.6122823281939418
 20
185.61862662785731
 30
0.0
 40
0.0256499858073208
 50
293.4234841090502073
 51
315.8183048019866987
  0
ARC
  5
D204
  8
0
 10
4226.6251993288406084
 20
185.6060734203396123
 30
0.0
 40
0.0076379918953665
 50
315.8183048019831745
 51
348.530632373456001
  0
ARC
  5
D205
  8
0
 10
4226.5801216350391769
 20
185.6289411844792028
 30
0.0
 40
0.0306128655582223
 50
282.7226623347642089
 51
295.0565817610619774
  0
ARC
  5
D206
  8
0
 10
4226.5887633979546081
 20
185.6104565446242987
 30
0.0
 40
0.0102079157452014
 50
295.0565817610612953
 51
324.6781873706328838
  0
LINE
  5
D207
  8
0
 10
4226.6289216951508934
 20
185.5282052157550936
 30
0.0
 11
4226.6141377380499762
 21
185.545255067485499
 31
0.0
  0
LINE
  5
D208
  8
0
 10
4226.5737528326517349
 20
185.5260930881551076
 30
0.0
 11
4226.5737528326517349
 21
185.5437364631551986
 31
0.0
  0
LINE
  5
D209
  8
0
 10
4226.5737528326517349
 20
185.5455617281550929
 30
0.0
 11
4226.5737528326517349
 21
185.5632075555550955
 31
0.0
  0
LINE
  5
D20A
  8
0
 10
4226.6638273348517032
 20
185.5530199738551005
 30
0.0
 11
4226.6352757864524392
 21
185.568301708655099
 31
0.0
  0
LINE
  5
D20B
  8
0
 10
4226.644133125450935
 20
185.5294647351551021
 30
0.0
 11
4226.6293491683509274
 21
185.5465145868550962
 31
0.0
  0
LINE
  5
D20C
  8
0
 10
4226.6953282561507876
 20
185.5361596370551069
 30
0.0
 11
4226.6667806757523067
 21
185.551439247955102
 31
0.0
  0
LINE
  5
D20D
  8
0
 10
4226.7021473538516148
 20
185.5373762393550976
 30
0.0
 11
4226.6735997734513148
 21
185.5526558503551087
 31
0.0
  0
LINE
  5
D20E
  8
0
 10
4226.6706464325507113
 20
185.5542365762551071
 30
0.0
 11
4226.6420948841841891
 21
185.5695183109374113
 31
0.0
  0
LINE
  5
D20F
  8
0
 10
4226.746507496050981
 20
185.5477294535550925
 30
0.0
 11
4226.7061169740500191
 21
185.5602108112551036
 31
0.0
  0
LINE
  5
D210
  8
0
 10
4226.7172525139540085
 20
185.5636518823542929
 30
0.0
 11
4226.7576430359513324
 21
185.551170524655106
 31
0.0
  0
LINE
  5
D211
  8
0
 10
4226.7911467408503086
 20
185.5648785624551067
 30
0.0
 11
4226.7417008811507912
 21
185.5737002499550954
 31
0.0
  0
LINE
  5
D212
  8
0
 10
4226.7456378890510678
 20
185.5758074670551991
 30
0.0
 11
4226.7950837486514502
 21
185.5669857795550968
 31
0.0
  0
LINE
  5
D213
  8
0
 10
4226.8167489063507674
 20
185.582805944955112
 30
0.0
 11
4226.7615744272516167
 21
185.587374438955095
 31
0.0
  0
LINE
  5
D214
  8
0
 10
4226.7656503176785918
 20
185.5920750293529125
 30
0.0
 11
4226.820824796852321
 21
185.5875065354551054
 31
0.0
  0
LINE
  5
D215
  8
0
 10
4226.827659785250944
 20
185.6045546514550892
 30
0.0
 11
4226.7705646244512536
 21
185.6045546514550892
 31
0.0
  0
LINE
  5
D216
  8
0
 10
4226.7646579427291726
 20
185.6045546514550892
 30
0.0
 11
4226.7075548458506091
 21
185.6045546514550892
 31
0.0
  0
LINE
  5
D217
  8
0
 10
4226.7405225525508286
 20
185.5767200995551036
 30
0.0
 11
4226.6910698200508705
 21
185.5855430132552044
 31
0.0
  0
LINE
  5
D218
  8
0
 10
4226.736585544650552
 20
185.5746128824551135
 30
0.0
 11
4226.687132812150594
 21
185.5834357961551007
 31
0.0
  0
LINE
  5
D219
  8
0
 10
4226.7016468141509904
 20
185.6045546514550892
 30
0.0
 11
4226.6386008846502591
 21
185.6045546514432942
 31
0.0
  0
LINE
  5
D21A
  8
0
 10
4226.6326847988511872
 20
185.6045546514550892
 30
0.0
 11
4226.5970922154510845
 21
185.6045546514550892
 31
0.0
  0
LINE
  5
D21B
  8
0
 10
4226.6046598606508269
 20
185.5895547759550936
 30
0.0
 11
4226.5868635689512303
 21
185.5990799409551073
 31
0.0
  0
LINE
  5
D21C
  8
0
 10
4226.5978407629509093
 20
185.588338173655103
 30
0.0
 11
4226.5800444712504031
 21
185.5978633386552019
 31
0.0
  0
LINE
  5
D21D
  8
0
 10
4226.6007988058509
 20
185.5867549310551112
 30
0.0
 11
4226.6323217705512434
 21
185.5698827958551078
 31
0.0
  0
LINE
  5
D21E
  8
0
 10
4226.639140868251161
 20
185.5710993981550985
 30
0.0
 11
4226.6076179035508176
 21
185.5879715333551019
 31
0.0
  0
ARC
  5
D21F
  8
0
 10
4226.4402602970567386
 20
183.8635686944529084
 30
0.0
 40
2.0381672054212219
 50
68.6504969193439081
 51
86.0417508569058356
  0
ARC
  5
D220
  8
0
 10
4227.17528063753889
 20
185.7490078430062965
 30
0.0
 40
0.0146380173872919
 50
7.2540381091140249
 51
61.4904651515152381
  0
ARC
  5
D221
  8
0
 10
4227.038797898762823
 20
185.7514381356002957
 30
0.0
 40
0.1513067696758858
 50
334.9411409654243243
 51
356.3723281541267056
  0
ARC
  5
D222
  8
0
 10
4226.9284382235045996
 20
185.8235021358952963
 30
0.0
 40
0.2824103780838556
 50
309.6123386977786822
 51
331.1774001225529105
  0
ARC
  5
D223
  8
0
 10
4226.7204429297344177
 20
186.1138631083242956
 30
0.0
 40
0.6391982332826901
 50
290.8457380386611817
 51
307.3801141186239079
  0
ARC
  5
D224
  8
0
 10
4226.9271117251291798
 20
185.5753097426326974
 30
0.0
 40
0.0623717276241238
 50
277.5191864856005282
 51
289.4724895704139271
  0
ARC
  5
D225
  8
0
 10
4226.5393191164321252
 20
189.5382179300096084
 30
0.0
 40
4.0441736945686424
 50
270.4320657978624922
 51
275.6186809331019276
  0
ARC
  5
D226
  8
0
 10
4226.5575144591621211
 20
184.2911103361898029
 30
0.0
 40
1.5327822960938009
 50
79.3320231936119455
 51
89.5401670670636065
  0
ARC
  5
D227
  8
0
 10
4226.742890675608578
 20
185.242994304078394
 30
0.0
 40
0.5630654992773046
 50
62.4998506600565307
 51
79.938706005260272
  0
ARC
  5
D228
  8
0
 10
4226.5701871142528034
 20
187.0824650768896049
 30
0.0
 40
1.563992475706266
 50
269.986398070165194
 51
273.9539145189958731
  0
ARC
  5
D229
  8
0
 10
4226.5879727389656182
 20
186.8251446211473024
 30
0.0
 40
1.306058093760299
 50
273.9539145189958731
 51
282.0446665816692757
  0
ARC
  5
D22A
  8
0
 10
4226.7321463667603894
 20
186.1494516183007022
 30
0.0
 40
0.6151550115212518
 50
282.0446665816692757
 51
293.3857961560358945
  0
ARC
  5
D22B
  8
0
 10
4226.8841815129198949
 20
185.7978800293132906
 30
0.0
 40
0.2321181100994516
 50
293.3857961560358945
 51
312.7610080383270201
  0
ARC
  5
D22C
  8
0
 10
4226.99895860916331
 20
185.673762714555096
 30
0.0
 40
0.0630651904414504
 50
312.7610080383281002
 51
357.0780551722021983
  0
ARC
  5
D22D
  8
0
 10
4227.0116517644837586
 20
185.6702840561432879
 30
0.0
 40
0.0502907372139686
 50
0.3006480522893379
 51
25.4984779949991314
  0
ARC
  5
D22E
  8
0
 10
4226.9747401325066676
 20
185.6506360681221111
 30
0.0
 40
0.0920837305374435
 50
26.6460553537436908
 51
52.4275632806242697
  0
ARC
  5
D22F
  8
0
 10
4226.8701943121513978
 20
185.5147453711346941
 30
0.0
 40
0.263536668924801
 50
52.4275632806242697
 51
59.7677512488530169
  0
ARC
  5
D230
  8
0
 10
4226.5712737120129532
 20
184.8176080591395021
 30
0.0
 40
0.9571955611570547
 50
79.8477736087268681
 51
90.0872661941318569
  0
ARC
  5
D231
  8
0
 10
4226.662666472762794
 20
185.3279890305381059
 30
0.0
 40
0.4386964071718979
 50
64.8939712118353924
 51
79.8477736087268681
  0
ARC
  5
D232
  8
0
 10
4226.8052487510112769
 20
185.6322862457543863
 30
0.0
 40
0.1026510214590273
 50
41.4697912599717
 51
64.8939712118353924
  0
ARC
  5
D233
  8
0
 10
4226.8501317587770245
 20
185.6719532092429006
 30
0.0
 40
0.0427515024411398
 50
6.7045407734429174
 51
41.4697912599717
  0
ARC
  5
D234
  8
0
 10
4226.8608161486454264
 20
185.6750706008608063
 30
0.0
 40
0.0318299557911389
 50
341.4560043523874242
 51
3.3749415236440701
  0
ARC
  5
D235
  8
0
 10
4226.6860313314491577
 20
185.7327344544962102
 30
0.0
 40
0.2158808407566413
 50
319.5809309527335813
 51
341.6994781898798124
  0
ARC
  5
D236
  8
0
 10
4226.7543725187078962
 20
185.6699512431763139
 30
0.0
 40
0.1231935728640562
 50
289.8832015066050189
 51
321.2032203959360004
  0
ARC
  5
D237
  8
0
 10
4226.636355921968061
 20
185.9641632340679109
 30
0.0
 40
0.4401403169964714
 50
278.3411467516726248
 51
291.3047077912128202
  0
ARC
  5
D238
  8
0
 10
4226.5453355204881518
 20
186.555529928349813
 30
0.0
 40
1.038464270302109
 50
273.4162360249313224
 51
278.5767335057224727
  0
ARC
  5
D239
  8
0
 10
4226.5510696336950787
 20
184.5998369744391141
 30
0.0
 40
1.0930821055949651
 50
81.8136380757131434
 51
89.0173379589418801
  0
ARC
  5
D23A
  8
0
 10
4226.6327027304123476
 20
185.2326228474304912
 30
0.0
 40
0.4552152899759863
 50
68.921568596329692
 51
80.6426043024680723
  0
ARC
  5
D23B
  8
0
 10
4226.7488344904768383
 20
185.5339229961143985
 30
0.0
 40
0.1323091653936671
 50
44.9458072969311502
 51
68.921568596329692
  0
ARC
  5
D23C
  8
0
 10
4226.8212039500103856
 20
185.6061556849518013
 30
0.0
 40
0.0300599599698661
 50
4.5398500651222014
 51
44.9458072969311502
  0
ARC
  5
D23D
  8
0
 10
4226.816371029020047
 20
185.605771943446797
 30
0.0
 40
0.0349080918610866
 50
329.787752496769599
 51
4.5398500651238241
  0
ARC
  5
D23E
  8
0
 10
4226.9854723609723806
 20
185.6750607993128881
 30
0.0
 40
0.0670268337171198
 50
7.5422324655278343
 51
42.0629135209855605
  0
ARC
  5
D23F
  8
0
 10
4227.0002860409531422
 20
185.6803916742927925
 30
0.0
 40
0.0517495217405532
 50
328.0460091284382997
 51
3.8413007197434612
  0
ARC
  5
D240
  8
0
 10
4226.6207672400887532
 20
186.603109062525391
 30
0.0
 40
1.0693053349858781
 50
277.8572651688559176
 51
283.4040710929178886
  0
ARC
  5
D241
  8
0
 10
4226.7275510738272715
 20
186.1550186768799051
 30
0.0
 40
0.6086668858139869
 50
283.4040710929178886
 51
293.4267472517681767
  0
ARC
  5
D242
  8
0
 10
4226.877192368330725
 20
185.8096604687954141
 30
0.0
 40
0.2322830273500084
 50
293.4267472517681767
 51
308.2523519418696765
  0
ARC
  5
D243
  8
0
 10
4226.9576347457477823
 20
185.7076284144552858
 30
0.0
 40
0.10235413834803
 50
308.2523519418696765
 51
327.7454296418162016
  0
ARC
  5
D244
  8
0
 10
4226.8813933693718354
 20
185.6382668250388122
 30
0.0
 40
0.1474698421685441
 50
47.8841407011986391
 51
56.7091560085471471
  0
ARC
  5
D245
  8
0
 10
4226.9307587280127336
 20
185.6908678474555074
 30
0.0
 40
0.0753568944012364
 50
24.5750001755154592
 51
48.9051706443772005
  0
ARC
  5
D246
  8
0
 10
4226.7811015612060146
 20
185.9375531399614943
 30
0.0
 40
0.3411681343602227
 50
283.4820355277532826
 51
302.3365191830174012
  0
ARC
  5
D247
  8
0
 10
4226.9060141534073409
 20
185.7402395133680102
 30
0.0
 40
0.1076390720789576
 50
302.3365191830174012
 51
326.4426369010980125
  0
ARC
  5
D248
  8
0
 10
4226.9595172727958925
 20
185.7047494872213065
 30
0.0
 40
0.0434352891665388
 50
326.4426369010980125
 51
23.6990938354379708
  0
LINE
  5
D249
  8
0
 10
4227.0028866908523923
 20
185.7424388240551139
 30
0.0
 11
4227.0028866908523923
 21
185.7071407050252105
 31
0.0
  0
ARC
  5
D24A
  8
0
 10
4226.5400268876910559
 20
184.2842713094530893
 30
0.0
 40
1.5351934373928
 50
84.3667873743681866
 51
88.8881613656833167
  0
ARC
  5
D24B
  8
0
 10
4226.608248299895422
 20
185.0284519366491907
 30
0.0
 40
0.7879269813714679
 50
72.4497727078632039
 51
83.991807011116407
  0
ARC
  5
D24C
  8
0
 10
4226.7805422790215744
 20
185.5732329209162117
 30
0.0
 40
0.2165501039414734
 50
50.0050238429933387
 51
72.4497727078632039
  0
ARC
  5
D24D
  8
0
 10
4226.8883966524399511
 20
185.701791648747502
 30
0.0
 40
0.0487409493423899
 50
15.7028874549034292
 51
50.0050238429933387
  0
ARC
  5
D24E
  8
0
 10
4226.8998106429271502
 20
185.7050005974508053
 30
0.0
 40
0.0368844519418537
 50
343.4213893646734732
 51
15.7028874549034292
  0
ARC
  5
D24F
  8
0
 10
4226.4891125131398439
 20
185.8606325222611133
 30
0.0
 40
0.4759914122567707
 50
335.2117488694321992
 51
339.5693177212029923
  0
ARC
  5
D250
  8
0
 10
4226.8435513935555718
 20
185.703497919715204
 30
0.0
 40
0.0885281156374307
 50
301.4449735220300113
 51
331.3596772259712111
  0
ARC
  5
D251
  8
0
 10
4226.735605828595908
 20
185.8800294058669067
 30
0.0
 40
0.2954474491883392
 50
296.4847200806855767
 51
301.4449735220300113
  0
ARC
  5
D252
  8
0
 10
4226.5726549603414242
 20
184.7376802269772895
 30
0.0
 40
1.046858951725862
 50
80.7891936474786405
 51
90.1553893007637157
  0
ARC
  5
D253
  8
0
 10
4226.6486091733504509
 20
185.2060759327283961
 30
0.0
 40
0.5723449059486942
 50
68.5308106436449691
 51
80.7891936474786405
  0
ARC
  5
D254
  8
0
 10
4226.7989661155397698
 20
185.5883820271440925
 30
0.0
 40
0.1615345362011096
 50
46.7341917557705102
 51
68.5308106436449691
  0
ARC
  5
D255
  8
0
 10
4226.8769328813141328
 20
185.6712173332747113
 30
0.0
 40
0.0477781978858429
 50
17.6509195389255602
 51
46.7341917557705102
  0
ARC
  5
D256
  8
0
 10
4226.8888561879157351
 20
185.6750112949115987
 30
0.0
 40
0.0352658285960827
 50
350.0892603147456725
 51
17.6509195389255602
  0
ARC
  5
D257
  8
0
 10
4226.8812710808942938
 20
185.6763365731360125
 30
0.0
 40
0.0429658422922803
 50
341.6842453575421814
 51
350.0892603147456725
  0
ARC
  5
D258
  8
0
 10
4225.2230739361939413
 20
181.7890880679526902
 30
0.0
 40
0.0328187691246438
 50
183.9848700182836012
 51
202.6501740779283125
  0
ARC
  5
D259
  8
0
 10
4227.919593743446967
 20
181.7882804673971862
 30
0.0
 40
0.0297407356583107
 50
336.5589420808266254
 51
357.1609455642288822
  0
LINE
  5
D25C
  8
0
 10
4221.8694318093930633
 20
181.5978181460033056
 30
0.0
 11
4219.4578922346436229
 21
181.597818058906995
 31
0.0
  0
LINE
  5
D25D
  8
0
 10
4221.5528303955798037
 20
181.9614671339550966
 30
0.0
 11
4219.7757163816895627
 21
181.9614671339550966
 31
0.0
  0
LINE
  5
D25E
  8
0
 10
4221.8943626229338406
 20
181.9221186698825079
 30
0.0
 11
4219.4317884845431763
 21
181.9221186698825079
 31
0.0
  0
ARC
  5
D25F
  8
0
 10
4221.88956063896876
 20
181.8743690134292876
 30
0.0
 40
0.047990506784121
 50
36.1136649938988725
 51
84.2573098235076259
  0
LINE
  5
D260
  8
0
 10
4221.9283297381080047
 20
181.902654092415105
 30
0.0
 11
4221.9585212149886502
 21
181.8511375885815085
 31
0.0
  0
ARC
  5
D261
  8
0
 10
4221.9242352222372574
 20
181.8310986004354106
 30
0.0
 40
0.0397125968040792
 50
0.1928684479269717
 51
30.3048227895768001
  0
LINE
  5
D262
  8
0
 10
4221.9639475940457487
 20
181.831232280307006
 30
0.0
 11
4221.9639475940457487
 21
181.7368405109291132
 31
0.0
  0
ARC
  5
D263
  8
0
 10
4221.9238964271962686
 20
181.7370642470575035
 30
0.0
 40
0.0400517917682317
 50
329.9716687951736844
 51
359.6799343552265213
  0
ARC
  5
D264
  8
0
 10
4203.5825450771244505
 20
192.3840881295433007
 30
0.0
 40
21.2476986195096416
 50
329.5455036630650056
 51
329.865340786436775
  0
ARC
  5
D265
  8
0
 10
4221.8693895576598152
 20
181.6318667604377026
 30
0.0
 40
0.0340486406499854
 50
269.9289003442664807
 51
329.5455036630622772
  0
LINE
  5
D266
  8
0
 10
4221.9585203559618094
 20
181.8511390553487956
 30
0.0
 11
4219.3691799864191125
 21
181.8511389834987995
 31
0.0
  0
LINE
  5
D267
  8
0
 10
4221.9585725144706885
 20
181.7170214171160012
 30
0.0
 11
4219.3687366087133341
 21
181.7170213453458132
 31
0.0
  0
LINE
  5
D268
  8
0
 10
4221.7114571966503718
 20
183.0237127810680136
 30
0.0
 11
4219.6158518740303407
 21
183.0237127810680136
 31
0.0
  0
LINE
  5
D269
  8
0
 10
4221.4538947142373218
 20
183.1163555715679934
 30
0.0
 11
4219.8737156532906738
 21
183.1163555715679934
 31
0.0
  0
ARC
  5
D26A
  8
0
 10
4221.4498585608707799
 20
183.0663594784766985
 30
0.0
 40
0.0501587465791797
 50
56.1565308305489808
 51
85.3845567795671201
  0
LINE
  5
D26B
  8
0
 10
4221.4777932662909734
 20
183.1080194363680107
 30
0.0
 11
4221.576030491192796
 21
183.0325379745407872
 31
0.0
  0
ARC
  5
D26C
  8
0
 10
4221.6011906604353499
 20
183.0639684060977004
 30
0.0
 40
0.0402604786877613
 50
231.3226069240400022
 51
269.110313269691801
  0
ARC
  5
D26D
  8
0
 10
4221.7102046345416966
 20
182.9841943216204072
 30
0.0
 40
0.0395383048315047
 50
0.0928404231758631
 51
88.1845824619421563
  0
ARC
  5
D26E
  8
0
 10
4211.6951137817095514
 20
183.3997856827074884
 30
0.0
 40
10.0632116834906107
 50
352.2862686915765948
 51
357.6334860441760952
  0
ARC
  5
D26F
  8
0
 10
4221.6279564591513918
 20
182.0543887194837964
 30
0.0
 40
0.0396665699364531
 50
304.9161703441558871
 51
352.2860934070960752
  0
LINE
  5
D270
  8
0
 10
4221.6506607040910239
 20
182.0218625141679922
 30
0.0
 11
4221.5741178336420489
 21
181.9684333464500128
 31
0.0
  0
ARC
  5
D271
  8
0
 10
4221.5519335896642588
 20
182.0002159186755932
 30
0.0
 40
0.0387591612159695
 50
271.3258228091858086
 51
304.9150512107789268
  0
ARC
  5
D272
  8
0
 10
4221.1484658723629764
 20
183.0819951644203059
 30
0.0
 40
0.0352049558591903
 50
47.7337784681533108
 51
77.4246485237065372
  0
LINE
  5
D273
  8
0
 10
4221.1721438930908334
 20
183.1080478082679974
 30
0.0
 11
4221.2329464028343864
 21
183.0319489990909005
 31
0.0
  0
ARC
  5
D274
  8
0
 10
4221.2554891811341804
 20
183.0562362869457047
 30
0.0
 40
0.033136825509302
 50
227.1333909248072018
 51
258.9592710066680183
  0
ARC
  5
D275
  8
0
 10
4221.3130092182427688
 20
182.9937678123768023
 30
0.0
 40
0.0302474843140345
 50
40.9069458502230674
 51
81.8898379783629053
  0
ARC
  5
D276
  8
0
 10
4221.3032775112751551
 20
182.9853358781628003
 30
0.0
 40
0.0431239603492934
 50
356.9181411857056787
 51
40.9069458502230674
  0
ARC
  5
D277
  8
0
 10
4203.8725347161343961
 20
183.459097074627806
 30
0.0
 40
17.4802886588972903
 50
355.3730388988018944
 51
358.4393433774662867
  0
ARC
  5
D278
  8
0
 10
4221.2578083820908432
 20
182.0510622546825061
 30
0.0
 40
0.0381032161702672
 50
309.8511262075076047
 51
356.8942410905415272
  0
LINE
  5
D279
  8
0
 10
4221.2822247324893397
 20
182.021809957068001
 30
0.0
 11
4221.2344013582578555
 21
181.9682984779408059
 31
0.0
  0
ARC
  5
D27A
  8
0
 10
4221.2148212116799186
 20
181.9923380591903879
 30
0.0
 40
0.0310045739643673
 50
275.3218581259257007
 51
309.1626835978814256
  0
ARC
  5
D27B
  8
0
 10
4221.4236036546926698
 20
181.8868739980759131
 30
0.0
 40
0.0370971681873538
 50
25.1763713544076992
 51
71.816814566005533
  0
LINE
  5
D27C
  8
0
 10
4221.4571766870903957
 20
181.9026553599680085
 30
0.0
 11
4221.4759555026312228
 21
181.8511390419583904
 31
0.0
  0
ARC
  5
D27D
  8
0
 10
4221.4456717364037104
 20
181.835923518484293
 30
0.0
 40
0.0338912769235184
 50
351.8535821014634735
 51
26.6764026260333686
  0
LINE
  5
D27E
  8
0
 10
4221.4792210226332827
 20
181.831121014448911
 30
0.0
 11
4221.4803700938909969
 21
181.7368404516680016
 31
0.0
  0
ARC
  5
D27F
  8
0
 10
4221.4331856606549991
 20
181.7368817190709933
 30
0.0
 40
0.0471844512818333
 50
335.1080703074920848
 51
359.9498892482059773
  0
LINE
  5
D280
  8
0
 10
4221.4759868325763819
 20
181.7170214037425069
 30
0.0
 11
4221.4398520403901784
 21
181.6173699193680022
 31
0.0
  0
ARC
  5
D281
  8
0
 10
4221.403788385486223
 20
181.6347304312477888
 30
0.0
 40
0.0400246746129551
 50
292.7444182656205953
 51
334.294521949171326
  0
ARC
  5
D282
  8
0
 10
4221.1265398027071569
 20
181.9615578193921976
 30
0.0
 40
0.0396569911393719
 50
180.1310209671950986
 51
263.9917610994859274
  0
ARC
  5
D283
  8
0
 10
4219.4329981540340668
 20
181.882696116479309
 30
0.0
 40
0.0394411082134329
 50
91.7575527224305461
 51
149.6009373073077029
  0
LINE
  5
D284
  8
0
 10
4219.3989793325717983
 20
181.902654092415105
 30
0.0
 11
4219.3687878556920623
 21
181.8511375885815085
 31
0.0
  0
ARC
  5
D285
  8
0
 10
4219.4030762063421207
 20
181.8310980586057894
 30
0.0
 40
0.0397149059167277
 50
149.6962188316726952
 51
179.8063610763605027
  0
LINE
  5
D286
  8
0
 10
4219.3633615272347015
 20
181.831232280307006
 30
0.0
 11
4219.3633615272347015
 21
181.7368405109291132
 31
0.0
  0
ARC
  5
D287
  8
0
 10
4219.403412356617082
 20
181.7370640670035016
 30
0.0
 40
0.0400514533004086
 50
180.3198107685988134
 51
210.0283135658893059
  0
ARC
  5
D288
  8
0
 10
4237.744763993556262
 20
192.3840881295433007
 30
0.0
 40
21.2476986195096416
 50
210.1346592135631965
 51
210.4544963369349091
  0
ARC
  5
D289
  8
0
 10
4219.4579197114553608
 20
181.6318669613731913
 30
0.0
 40
0.0340489135528013
 50
210.4546185633797108
 51
269.9537634146980736
  0
ARC
  5
D28A
  8
0
 10
4219.875326567216689
 20
183.0723848605306898
 30
0.0
 40
0.0440002099177231
 50
92.0981536524341067
 51
125.9164886655727997
  0
LINE
  5
D28B
  8
0
 10
4219.8495158043897391
 20
183.1080194363680107
 30
0.0
 11
4219.7512785794870069
 21
183.0325379745407872
 31
0.0
  0
ARC
  5
D28C
  8
0
 10
4219.7261184102462721
 20
183.0639684060977004
 30
0.0
 40
0.0402604786877613
 50
270.889686730308199
 51
308.6773930759600262
  0
ARC
  5
D28D
  8
0
 10
4219.6171043969343373
 20
182.9841944103714866
 30
0.0
 40
0.0395382148829832
 50
91.8153648281297166
 51
179.9072879771179032
  0
ARC
  5
D28E
  8
0
 10
4229.6321722040156601
 20
183.3997831027263032
 30
0.0
 40
10.0631884611347893
 50
182.366504718103613
 51
187.7137343938535139
  0
ARC
  5
D28F
  8
0
 10
4219.6993526115302302
 20
182.0543887194837964
 30
0.0
 40
0.0396665699364531
 50
187.7139065929038964
 51
235.0838296558441129
  0
LINE
  5
D290
  8
0
 10
4219.6766483665896885
 20
182.0218625141679922
 30
0.0
 11
4219.7531912370386635
 21
181.9684333464500128
 31
0.0
  0
ARC
  5
D291
  8
0
 10
4219.7797935908447471
 20
182.0145511958180862
 30
0.0
 40
0.0532404100130943
 50
240.0221804072145915
 51
265.6079260262723096
  0
ARC
  5
D292
  8
0
 10
4220.1788431983177361
 20
183.0819951644203059
 30
0.0
 40
0.0352049558591903
 50
102.575351476293406
 51
132.2662215318466963
  0
LINE
  5
D293
  8
0
 10
4220.155165177589879
 20
183.1080478082679974
 30
0.0
 11
4220.0943626678463261
 21
183.0319489990909005
 31
0.0
  0
ARC
  5
D294
  8
0
 10
4220.0718198895456226
 20
183.0562362869457047
 30
0.0
 40
0.033136825509302
 50
281.0407289933319817
 51
312.8666090751927982
  0
ARC
  5
D295
  8
0
 10
4220.0142998524388531
 20
182.9937678123768023
 30
0.0
 40
0.0302474843140345
 50
98.1101620216370947
 51
139.09305414977689
  0
ARC
  5
D296
  8
0
 10
4220.0240315594055573
 20
182.9853358781628003
 30
0.0
 40
0.0431239603492934
 50
139.09305414977689
 51
183.0818588142942929
  0
ARC
  5
D297
  8
0
 10
4237.4547743545472258
 20
183.459097074627806
 30
0.0
 40
17.4802886588972903
 50
181.5606566225335996
 51
184.6269611011979919
  0
ARC
  5
D298
  8
0
 10
4220.0695006885880503
 20
182.0510622546825061
 30
0.0
 40
0.0381032161702672
 50
183.1057589094585012
 51
230.1488737924923953
  0
LINE
  5
D299
  8
0
 10
4220.0450843381913728
 20
182.021809957068001
 30
0.0
 11
4220.0929077124219475
 21
181.9682984779408059
 31
0.0
  0
ARC
  5
D29A
  8
0
 10
4220.1124878590007938
 20
181.9923380591903879
 30
0.0
 40
0.0310045739643672
 50
230.8373164021186881
 51
264.6781418740741856
  0
ARC
  5
D29B
  8
0
 10
4219.9037054159880427
 20
181.8868739980759131
 30
0.0
 40
0.0370971681873538
 50
108.1831854339444021
 51
154.8236286455922937
  0
LINE
  5
D29C
  8
0
 10
4219.8701323835903167
 20
181.9026553599680085
 30
0.0
 11
4219.8513535680485802
 21
181.8511390419583904
 31
0.0
  0
ARC
  5
D29D
  8
0
 10
4219.8816373342770021
 20
181.835923518484293
 30
0.0
 40
0.0338912769235184
 50
153.3235973739666065
 51
188.1464178985364981
  0
LINE
  5
D29E
  8
0
 10
4219.8480880480474298
 20
181.831121014448911
 30
0.0
 11
4219.8469389767897155
 21
181.7368404516680016
 31
0.0
  0
ARC
  5
D29F
  8
0
 10
4219.8941234100266229
 20
181.7368817190709933
 30
0.0
 40
0.0471844512818333
 50
180.0501107517939943
 51
204.8919296925078868
  0
LINE
  5
D2A0
  8
0
 10
4219.8513222381052401
 20
181.7170214037425069
 30
0.0
 11
4219.8874570302896245
 21
181.6173699193680022
 31
0.0
  0
ARC
  5
D2A1
  8
0
 10
4219.9235206851963085
 20
181.6347304312477888
 30
0.0
 40
0.0400246746129551
 50
205.7054780508287024
 51
247.255581734379291
  0
ARC
  5
D2A2
  8
0
 10
4220.2007692679735555
 20
181.9615578193921976
 30
0.0
 40
0.0396569911393714
 50
276.0082389005140726
 51
359.868979032804873
  0
LINE
  5
D2A3
  8
0
 10
4221.6671873615596269
 20
182.048525864655403
 30
0.0
 11
4219.6601217091219951
 21
182.048525864655403
 31
0.0
  0
ARC
  5
D2A4
  8
0
 10
4226.5692954136384287
 20
187.4569500506736119
 30
0.0
 40
0.0425843300940644
 50
74.1637582804960402
 51
89.2997893809706511
  0
LINE
  5
D331
  8
0
 10
4231.2702004671209579
 20
181.5978181460033056
 30
0.0
 11
4233.6817400418685793
 21
181.597818058906995
 31
0.0
  0
LINE
  5
D332
  8
0
 10
4231.586801880933308
 20
181.9614671339550966
 30
0.0
 11
4233.3639158948226395
 21
181.9614671339550966
 31
0.0
  0
LINE
  5
D333
  8
0
 10
4231.2452696535792711
 20
181.9221186698825079
 30
0.0
 11
4233.7078437919708449
 21
181.9221186698825079
 31
0.0
  0
ARC
  5
D334
  8
0
 10
4231.2500716375452612
 20
181.8743690134292876
 30
0.0
 40
0.047990506784121
 50
95.7426901764923031
 51
143.886335006126501
  0
LINE
  5
D335
  8
0
 10
4231.211302538405107
 20
181.902654092415105
 30
0.0
 11
4231.1811110615235521
 21
181.8511375885815085
 31
0.0
  0
ARC
  5
D336
  8
0
 10
4231.2153970542767638
 20
181.8310986004354106
 30
0.0
 40
0.0397125968040792
 50
149.69517721042169
 51
179.8071315520730877
  0
LINE
  5
D337
  8
0
 10
4231.1756846824682725
 20
181.831232280307006
 30
0.0
 11
4231.1756846824682725
 21
181.7368405109291132
 31
0.0
  0
ARC
  5
D338
  8
0
 10
4231.2157358493177526
 20
181.7370642470575035
 30
0.0
 40
0.0400517917682317
 50
180.3200656447735071
 51
210.0283312048082962
  0
ARC
  5
D339
  8
0
 10
4249.5570871993895707
 20
192.3840881295433007
 30
0.0
 40
21.2476986195096416
 50
210.1346592135639924
 51
210.4544963369112907
  0
ARC
  5
D33A
  8
0
 10
4231.2702427188532965
 20
181.6318667604377026
 30
0.0
 40
0.0340486406499854
 50
210.4544963369133939
 51
270.0710996557335193
  0
LINE
  5
D33B
  8
0
 10
4231.1811119205513023
 20
181.8511390553487956
 30
0.0
 11
4233.7704522900939992
 21
181.8511389834987995
 31
0.0
  0
LINE
  5
D33C
  8
0
 10
4231.1810597620433327
 20
181.7170214171160012
 30
0.0
 11
4233.7708956677997776
 21
181.7170213453458132
 31
0.0
  0
LINE
  5
D33D
  8
0
 10
4231.4281750798627399
 20
183.0237127810680136
 30
0.0
 11
4233.523780402482771
 21
183.0237127810680136
 31
0.0
  0
LINE
  5
D33E
  8
0
 10
4231.68573756227579
 20
183.1163555715679934
 30
0.0
 11
4233.2659166232233474
 21
183.1163555715679934
 31
0.0
  0
ARC
  5
D33F
  8
0
 10
4231.6897737156423318
 20
183.0663594784766985
 30
0.0
 40
0.0501587465791797
 50
94.6154432204846216
 51
123.8434691694876051
  0
LINE
  5
D340
  8
0
 10
4231.6618390102221383
 20
183.1080194363680107
 30
0.0
 11
4231.5636017853212252
 21
183.0325379745407872
 31
0.0
  0
ARC
  5
D341
  8
0
 10
4231.5384416160786714
 20
183.0639684060977004
 30
0.0
 40
0.0402604786877613
 50
270.889686730308199
 51
308.6773930759633799
  0
ARC
  5
D342
  8
0
 10
4231.4294276419723246
 20
182.9841943216204072
 30
0.0
 40
0.0395383048315047
 50
91.8154175380578579
 51
179.9071595768241139
  0
ARC
  5
D343
  8
0
 10
4241.4445184948035603
 20
183.3997856827074884
 30
0.0
 40
10.0632116834906107
 50
182.366513955825809
 51
187.7137313084249115
  0
ARC
  5
D344
  8
0
 10
4231.5116758173626295
 20
182.0543887194837964
 30
0.0
 40
0.0396665699364531
 50
187.7139065928996899
 51
235.0838296558032141
  0
LINE
  5
D345
  8
0
 10
4231.4889715724229973
 20
182.0218625141679922
 30
0.0
 11
4231.5655144428719723
 21
181.9684333464500128
 31
0.0
  0
ARC
  5
D346
  8
0
 10
4231.5876986868497625
 20
182.0002159186755932
 30
0.0
 40
0.0387591612159695
 50
235.0849487892569982
 51
268.6741771908663168
  0
ARC
  5
D347
  8
0
 10
4231.9911664041510448
 20
183.0819951644203059
 30
0.0
 40
0.0352049558591903
 50
102.5753514762430001
 51
132.2662215318082133
  0
LINE
  5
D348
  8
0
 10
4231.9674883834231878
 20
183.1080478082679974
 30
0.0
 11
4231.9066858736787253
 21
183.0319489990909005
 31
0.0
  0
ARC
  5
D349
  8
0
 10
4231.8841430953789313
 20
183.0562362869457047
 30
0.0
 40
0.033136825509302
 50
281.0407289933312995
 51
312.8666090751872844
  0
ARC
  5
D34A
  8
0
 10
4231.8266230582712524
 20
182.9937678123768023
 30
0.0
 40
0.0302474843140345
 50
98.1101620216883532
 51
139.0930541497714898
  0
ARC
  5
D34B
  8
0
 10
4231.8363547652379566
 20
182.9853358781628003
 30
0.0
 40
0.0431239603492934
 50
139.0930541497714898
 51
183.0818588142940939
  0
ARC
  5
D34C
  8
0
 10
4249.2670975603787156
 20
183.459097074627806
 30
0.0
 40
17.4802886588972903
 50
181.5606566225334007
 51
184.6269611011998109
  0
ARC
  5
D34D
  8
0
 10
4231.8818238944222685
 20
182.0510622546825061
 30
0.0
 40
0.0381032161702672
 50
183.1057589094602065
 51
230.1488737924842098
  0
LINE
  5
D34E
  8
0
 10
4231.8574075440237721
 20
182.021809957068001
 30
0.0
 11
4231.9052309182552563
 21
181.9682984779408059
 31
0.0
  0
ARC
  5
D34F
  8
0
 10
4231.9248110648341026
 20
181.9923380591903879
 30
0.0
 40
0.0310045739643673
 50
230.8373164020798924
 51
264.6781418741259131
  0
ARC
  5
D350
  8
0
 10
4231.7160286218204419
 20
181.8868739980759131
 30
0.0
 40
0.0370971681873538
 50
108.1831854339470027
 51
154.8236286455993138
  0
LINE
  5
D351
  8
0
 10
4231.6824555894236255
 20
181.9026553599680085
 30
0.0
 11
4231.6636767738827984
 21
181.8511390419583904
 31
0.0
  0
ARC
  5
D352
  8
0
 10
4231.6939605401094013
 20
181.835923518484293
 30
0.0
 40
0.0338912769235184
 50
153.3235973739666917
 51
188.1464178985332012
  0
LINE
  5
D353
  8
0
 10
4231.660411253879829
 20
181.831121014448911
 30
0.0
 11
4231.6592621826230243
 21
181.7368404516680016
 31
0.0
  0
ARC
  5
D354
  8
0
 10
4231.7064466158581126
 20
181.7368817190709933
 30
0.0
 40
0.0471844512818333
 50
180.0501107517939943
 51
204.891929692505613
  0
LINE
  5
D355
  8
0
 10
4231.6636454439367299
 20
181.7170214037425069
 30
0.0
 11
4231.6997802361229333
 21
181.6173699193680022
 31
0.0
  0
ARC
  5
D356
  8
0
 10
4231.7358438910287077
 20
181.6347304312477888
 30
0.0
 40
0.0400246746129551
 50
205.705478050812502
 51
247.2555817343767046
  0
ARC
  5
D357
  8
0
 10
4232.0130924738059548
 20
181.9615578193921976
 30
0.0
 40
0.0396569911393719
 50
276.0082389004625156
 51
359.8689790328048161
  0
ARC
  5
D358
  8
0
 10
4233.7066341224790449
 20
181.882696116479309
 30
0.0
 40
0.0394411082134329
 50
30.3990626926720111
 51
88.2424472776215083
  0
LINE
  5
D359
  8
0
 10
4233.7406529439422229
 20
181.902654092415105
 30
0.0
 11
4233.7708444208228684
 21
181.8511375885815085
 31
0.0
  0
ARC
  5
D35A
  8
0
 10
4233.7365560701719005
 20
181.8310980586057894
 30
0.0
 40
0.0397149059167277
 50
0.1936389236393467
 51
30.3037811683440594
  0
LINE
  5
D35B
  8
0
 10
4233.7762707492784102
 20
181.831232280307006
 30
0.0
 11
4233.7762707492784102
 21
181.7368405109291132
 31
0.0
  0
ARC
  5
D35C
  8
0
 10
4233.7362199198960298
 20
181.7370640670035016
 30
0.0
 40
0.0400514533004086
 50
329.9716864340936127
 51
359.6801892314013003
  0
ARC
  5
D35D
  8
0
 10
4215.3948682829577592
 20
192.3840881295433007
 30
0.0
 40
21.2476986195096416
 50
329.5455036630887093
 51
329.8653407864360929
  0
ARC
  5
D35E
  8
0
 10
4233.6817125650586604
 20
181.6318669613731913
 30
0.0
 40
0.0340489135528013
 50
270.0462365853019264
 51
329.5453814366171059
  0
ARC
  5
D35F
  8
0
 10
4233.2643057092973322
 20
183.0723848605306898
 30
0.0
 40
0.0440002099177231
 50
54.0835113344647667
 51
87.9018463475659217
  0
LINE
  5
D360
  8
0
 10
4233.2901164721233727
 20
183.1080194363680107
 30
0.0
 11
4233.3883536970261048
 21
183.0325379745407872
 31
0.0
  0
ARC
  5
D361
  8
0
 10
4233.4135138662677491
 20
183.0639684060977004
 30
0.0
 40
0.0402604786877613
 50
231.3226069240365916
 51
269.110313269691801
  0
ARC
  5
D362
  8
0
 10
4233.5225278795787744
 20
182.9841944103714866
 30
0.0
 40
0.0395382148829832
 50
0.0927120228820421
 51
88.184635171922352
  0
ARC
  5
D363
  8
0
 10
4223.5074600724974516
 20
183.3997831027263032
 30
0.0
 40
10.0631884611347893
 50
352.2862656061403186
 51
357.6334952818946249
  0
ARC
  5
D364
  8
0
 10
4233.440279664983791
 20
182.0543887194837964
 30
0.0
 40
0.0396665699364531
 50
304.9161703441968143
 51
352.2860934071002816
  0
LINE
  5
D365
  8
0
 10
4233.4629839099234232
 20
182.0218625141679922
 30
0.0
 11
4233.3864410394744482
 21
181.9684333464500128
 31
0.0
  0
ARC
  5
D366
  8
0
 10
4233.3598386856683646
 20
182.0145511958180862
 30
0.0
 40
0.0532404100130943
 50
274.3920739736756786
 51
299.9778195927839874
  0
ARC
  5
D367
  8
0
 10
4232.9607890781953756
 20
183.0819951644203059
 30
0.0
 40
0.0352049558591903
 50
47.7337784681917583
 51
77.4246485237570283
  0
LINE
  5
D368
  8
0
 10
4232.9844670989232327
 20
183.1080478082679974
 30
0.0
 11
4233.0452696086676951
 21
183.0319489990909005
 31
0.0
  0
ARC
  5
D369
  8
0
 10
4233.0678123869683986
 20
183.0562362869457047
 30
0.0
 40
0.033136825509302
 50
227.1333909248126872
 51
258.9592710066685868
  0
ARC
  5
D36A
  8
0
 10
4233.1253324240760776
 20
182.9937678123768023
 30
0.0
 40
0.0302474843140345
 50
40.906945850228503
 51
81.8898379783116468
  0
ARC
  5
D36B
  8
0
 10
4233.1156007171075544
 20
182.9853358781628003
 30
0.0
 40
0.0431239603492934
 50
356.9181411857059061
 51
40.906945850228503
  0
ARC
  5
D36C
  8
0
 10
4215.6848579219658859
 20
183.459097074627806
 30
0.0
 40
17.4802886588972903
 50
355.3730388988001891
 51
358.4393433774666846
  0
ARC
  5
D36D
  8
0
 10
4233.0701315879250615
 20
182.0510622546825061
 30
0.0
 40
0.0381032161702672
 50
309.8511262075156765
 51
356.8942410905398219
  0
LINE
  5
D36E
  8
0
 10
4233.0945479383235579
 20
182.021809957068001
 30
0.0
 11
4233.0467245640929832
 21
181.9682984779408059
 31
0.0
  0
ARC
  5
D36F
  8
0
 10
4233.0271444175123179
 20
181.9923380591903879
 30
0.0
 40
0.0310045739643672
 50
275.3218581258740869
 51
309.1626835979201928
  0
ARC
  5
D370
  8
0
 10
4233.2359268605250691
 20
181.8868739980759131
 30
0.0
 40
0.0370971681873538
 50
25.1763713544006897
 51
71.8168145660578148
  0
LINE
  5
D371
  8
0
 10
4233.269499892922795
 20
181.9026553599680085
 30
0.0
 11
4233.288278708465441
 21
181.8511390419583904
 31
0.0
  0
ARC
  5
D372
  8
0
 10
4233.2579949422370191
 20
181.835923518484293
 30
0.0
 40
0.0338912769235184
 50
351.8535821014667135
 51
26.6764026260333011
  0
LINE
  5
D373
  8
0
 10
4233.2915442284665914
 20
181.831121014448911
 30
0.0
 11
4233.2926932997233962
 21
181.7368404516680016
 31
0.0
  0
ARC
  5
D374
  8
0
 10
4233.2455088664873983
 20
181.7368817190709933
 30
0.0
 40
0.0471844512818333
 50
335.1080703074944154
 51
359.9498892482059773
  0
LINE
  5
D375
  8
0
 10
4233.2883100384087811
 20
181.7170214037425069
 30
0.0
 11
4233.2521752462225777
 21
181.6173699193680022
 31
0.0
  0
ARC
  5
D376
  8
0
 10
4233.2161115913177127
 20
181.6347304312477888
 30
0.0
 40
0.0400246746129551
 50
292.7444182656233238
 51
334.2945219491875264
  0
ARC
  5
D377
  8
0
 10
4232.9388630085395562
 20
181.9615578193921976
 30
0.0
 40
0.0396569911393714
 50
180.1310209671952123
 51
263.9917610995374844
  0
LINE
  5
D378
  8
0
 10
4231.4724449149543943
 20
182.048525864655403
 30
0.0
 11
4233.4795105673911166
 21
182.048525864655403
 31
0.0
  0
ENDSEC
  0
EOF
