  0
SECTION
  2
HEADER
  9
$ACADVER
  1
AC1009
  9
$INSBASE
 10
4264.4825420936203955
 20
181.5968722803534945
 30
0.0
  9
$EXTMIN
 10
4255.1891239048927673
 20
181.5947153723788858
 30
-0.0015258207003583
  9
$EXTMAX
 10
4266.2511920885008294
 20
187.5108904683262097
 30
0.0000000349246037
  9
$LIMMIN
 10
0.0
 20
0.0
  9
$LIMMAX
 10
11.6929133858000007
 20
8.2677165353999982
  9
$ORTHOMODE
 70
     1
  9
$REGENMODE
 70
     1
  9
$FILLMODE
 70
     1
  9
$QTEXTMODE
 70
     0
  9
$MIRRTEXT
 70
     0
  9
$DRAGMODE
 70
     2
  9
$LTSCALE
 40
0.6431102362
  9
$OSMODE
 70
  4095
  9
$ATTMODE
 70
     1
  9
$TEXTSIZE
 40
0.2
  9
$TRACEWID
 40
0.05
  9
$TEXTSTYLE
  7
STANDARD
  9
$CLAYER
  8
0
  9
$CELTYPE
  6
BYLAYER
  9
$CECOLOR
 62
   256
  9
$DIMSCALE
 40
1.0
  9
$DIMASZ
 40
0.1875
  9
$DIMEXO
 40
0.0625
  9
$DIMDLI
 40
0.4443307087
  9
$DIMRND
 40
0.0
  9
$DIMDLE
 40
0.0
  9
$DIMEXE
 40
0.125
  9
$DIMTP
 40
0.01
  9
$DIMTM
 40
0.01
  9
$DIMTXT
 40
2.0
  9
$DIMCEN
 40
0.1052362205
  9
$DIMTSZ
 40
0.0
  9
$DIMTOL
 70
     1
  9
$DIMLIM
 70
     0
  9
$DIMTIH
 70
     1
  9
$DIMTOH
 70
     1
  9
$DIMSE1
 70
     0
  9
$DIMSE2
 70
     0
  9
$DIMTAD
 70
     0
  9
$DIMZIN
 70
     0
  9
$DIMBLK
  1

  9
$DIMASO
 70
     1
  9
$DIMSHO
 70
     1
  9
$DIMPOST
  1
\X
  9
$DIMAPOST
  1

  9
$DIMALT
 70
     1
  9
$DIMALTD
 70
     2
  9
$DIMALTF
 40
25.3999999999999986
  9
$DIMLFAC
 40
1.0
  9
$DIMTOFL
 70
     0
  9
$DIMTVP
 40
0.0
  9
$DIMTIX
 70
     0
  9
$DIMSOXD
 70
     0
  9
$DIMSAH
 70
     0
  9
$DIMBLK1
  1

  9
$DIMBLK2
  1

  9
$DIMSTYLE
  2
STANDARD
  9
$DIMCLRD
 70
     0
  9
$DIMCLRE
 70
     0
  9
$DIMCLRT
 70
     0
  9
$DIMTFAC
 40
1.0
  9
$DIMGAP
 40
0.09
  9
$LUNITS
 70
     2
  9
$LUPREC
 70
     4
  9
$SKETCHINC
 40
0.1
  9
$FILLETRAD
 40
0.0
  9
$AUNITS
 70
     0
  9
$AUPREC
 70
     0
  9
$MENU
  1
.
  9
$ELEVATION
 40
0.0
  9
$PELEVATION
 40
0.0
  9
$THICKNESS
 40
0.0
  9
$LIMCHECK
 70
     0
  9
$BLIPMODE
 70
     0
  9
$CHAMFERA
 40
0.0
  9
$CHAMFERB
 40
0.0
  9
$SKPOLY
 70
     0
  9
$TDCREATE
 40
2458060.468368056230247
  9
$TDUPDATE
 40
2459455.4171759258024395
  9
$TDINDWG
 40
0.4229237269
  9
$TDUSRTIMER
 40
0.4229237269
  9
$USRTIMER
 70
     1
  9
$ANGBASE
 50
0.0
  9
$ANGDIR
 70
     0
  9
$PDMODE
 70
     0
  9
$PDSIZE
 40
0.3125
  9
$PLINEWID
 40
0.0
  9
$COORDS
 70
     1
  9
$SPLFRAME
 70
     0
  9
$SPLINETYPE
 70
     6
  9
$SPLINESEGS
 70
     8
  9
$ATTDIA
 70
     1
  9
$ATTREQ
 70
     1
  9
$HANDLING
 70
     1
  9
$HANDSEED
  5
BAF4
  9
$SURFTAB1
 70
     6
  9
$SURFTAB2
 70
     6
  9
$SURFTYPE
 70
     6
  9
$SURFU
 70
     6
  9
$SURFV
 70
     6
  9
$UCSNAME
  2

  9
$UCSORG
 10
0.0
 20
0.0
 30
0.0
  9
$UCSXDIR
 10
1.0
 20
0.0
 30
0.0
  9
$UCSYDIR
 10
0.0
 20
1.0
 30
0.0
  9
$PUCSNAME
  2

  9
$PUCSORG
 10
0.0
 20
0.0
 30
0.0
  9
$PUCSXDIR
 10
1.0
 20
0.0
 30
0.0
  9
$PUCSYDIR
 10
0.0
 20
1.0
 30
0.0
  9
$USERI1
 70
     0
  9
$USERI2
 70
     0
  9
$USERI3
 70
     0
  9
$USERI4
 70
     0
  9
$USERI5
 70
     0
  9
$USERR1
 40
0.0
  9
$USERR2
 40
0.0
  9
$USERR3
 40
0.0
  9
$USERR4
 40
0.0
  9
$USERR5
 40
0.0
  9
$WORLDVIEW
 70
     1
  9
$SHADEDGE
 70
     3
  9
$SHADEDIF
 70
    70
  9
$TILEMODE
 70
     1
  9
$MAXACTVP
 70
    64
  9
$PLIMCHECK
 70
     0
  9
$PEXTMIN
 10
1.0000000000000000E+20
 20
1.0000000000000000E+20
 30
1.0000000000000000E+20
  9
$PEXTMAX
 10
-1.0000000000000000E+20
 20
-1.0000000000000000E+20
 30
-1.0000000000000000E+20
  9
$PLIMMIN
 10
0.0
 20
0.0
  9
$PLIMMAX
 10
12.0
 20
9.0
  9
$UNITMODE
 70
     0
  9
$VISRETAIN
 70
     1
  9
$PLINEGEN
 70
     0
  9
$PSLTSCALE
 70
     1
  0
ENDSEC
  0
SECTION
  2
TABLES
  0
TABLE
  2
VPORT
 70
     1
  0
VPORT
  2
*ACTIVE
 70
     0
 10
0.0
 20
0.0
 11
1.0
 21
1.0
 12
457.157311195520208
 22
58.059883719544672
 13
0.0
 23
0.0
 14
1.0
 24
1.0
 15
0.0
 25
0.0
 16
0.0
 26
0.0
 36
17.1152628219792007
 17
3803.5440673828129547
 27
125.9952621967499056
 37
0.0
 40
6.4601511979044952
 41
2.7718023255813948
 42
50.0
 43
0.0
 44
0.0
 50
0.0
 51
0.0
 71
     0
 72
   100
 73
     1
 74
     1
 75
     0
 76
     0
 77
     0
 78
     0
  0
ENDTAB
  0
TABLE
  2
LTYPE
 70
     2
  0
LTYPE
  2
CONTINUOUS
 70
     0
  3
Solid line
 72
    65
 73
     0
 40
0.0
  0
LTYPE
  2
PHANTOM2
 70
     0
  3
___ _ _ ___ _ _ ___ _ _ ___ _ _
 72
    65
 73
     6
 40
1.25
 49
0.625
 49
-0.125
 49
0.125
 49
-0.125
 49
0.125
 49
-0.125
  0
ENDTAB
  0
TABLE
  2
LAYER
 70
     2
  0
LAYER
  2
0
 70
     0
 62
   255
  6
CONTINUOUS
  0
LAYER
  2
DEFPOINTS
 70
     0
 62
     7
  6
CONTINUOUS
  0
ENDTAB
  0
TABLE
  2
STYLE
 70
     1
  0
STYLE
  2
STANDARD
 70
     0
 40
0.0
 41
0.8
 50
0.0
 71
     0
 42
0.2
  3
txt
  4

  0
ENDTAB
  0
TABLE
  2
VIEW
 70
     0
  0
ENDTAB
  0
TABLE
  2
UCS
 70
     0
  0
ENDTAB
  0
TABLE
  2
APPID
 70
     9
  0
APPID
  2
ACAD
 70
     0
  0
APPID
  2
ACAD_MLEADERVER
 70
     0
  0
APPID
  2
ACAD_EXEMPT_FROM_CAD_STANDARDS
 70
     0
  0
APPID
  2
ACAD_NAV_VCDISPLAY
 70
     0
  0
APPID
  2
ACAECLAYERSTANDARD
 70
     0
  0
APPID
  2
ACCMTRANSPARENCY
 70
     0
  0
APPID
  2
ACAD_DSTYLE_DIMJAG
 70
     0
  0
APPID
  2
ACAD_DSTYLE_DIMTALN
 70
     0
  0
APPID
  2
ACDBATTR
 70
     0
  0
ENDTAB
  0
TABLE
  2
DIMSTYLE
 70
     1
  0
DIMSTYLE
  2
STANDARD
 70
     0
  3

  4

  5

  6

  7

 40
1.0
 41
0.1875
 42
0.0625
 43
0.38
 44
0.125
 45
0.0
 46
0.0
 47
0.01
 48
0.01
140
0.15625
141
0.09
142
0.0
143
25.3999999999999986
144
1.0
145
0.0
146
1.0
147
0.09
 71
     1
 72
     0
 73
     1
 74
     1
 75
     0
 76
     0
 77
     0
 78
     4
170
     0
171
     2
172
     0
173
     0
174
     0
175
     0
176
     0
177
     0
178
     0
  0
ENDTAB
  0
ENDSEC
  0
SECTION
  2
BLOCKS
  0
BLOCK
  8
0
  2
$MODEL_SPACE
 70
     0
 10
0.0
 20
0.0
 30
0.0
  3
$MODEL_SPACE
  1

  0
ENDBLK
  5
21
  8
0
  0
BLOCK
 67
     1
  8
0
  2
$PAPER_SPACE
 70
     0
 10
0.0
 20
0.0
 30
0.0
  3
$PAPER_SPACE
  1

  0
ENDBLK
  5
1D
 67
     1
  8
0
  0
BLOCK
  8
0
  2
_FILLED
 70
     0
 10
0.0
 20
0.0
 30
0.0
  3
_FILLED
  1

  0
SOLID
  5
AD90
  8
0
  6
BYBLOCK
 62
     0
 10
0.0
 20
0.0
 30
0.0
 11
-1.0
 21
0.1666666667
 31
0.0
 12
-1.0
 22
-0.1666666667
 32
0.0
 13
-1.0
 23
-0.1666666667
 33
0.0
  0
ENDBLK
  5
AD91
  8
0
  6
BYBLOCK
 62
     0
  0
ENDSEC
  0
SECTION
  2
ENTITIES
  0
ATTDEF
  5
3930
  8
DEFPOINTS
 10
4264.4835979927847802
 20
181.6020278650331079
 30
0.0
 40
0.001
  1
K-EX27105T-3
  3

  2
MODELNUMBER
 70
     0
1001
ACDBATTR
1070
     0
1070
     1
  0
ATTDEF
  5
3931
  8
DEFPOINTS
 10
4264.4835979927847802
 20
181.6003611983664996
 30
0.0
 40
0.001
  1

  3

  2
TRADENAME
 70
     0
1001
ACDBATTR
1070
     0
1070
     1
  0
ATTDEF
  5
3932
  8
DEFPOINTS
 10
4264.4835979927847802
 20
181.598694531699806
 30
0.0
 40
0.001
  1
BATH SPOUT
  3

  2
PRODUCT
 70
     0
1001
ACDBATTR
1070
     0
1070
     1
  0
LINE
  5
B968
  8
0
 10
4264.0731605078253779
 20
184.2663973197535086
 30
0.0
 11
4264.7531238392521118
 21
184.2663973197535086
 31
0.0
  0
LINE
  5
B969
  8
0
 10
4264.0732300016361478
 20
184.2467122803535062
 30
0.0
 11
4264.7528638954154303
 21
184.2467122803535062
 31
0.0
  0
LINE
  5
B96A
  8
0
 10
4263.2041093955149336
 20
181.5968722803534945
 30
0.0
 11
4265.7609747917249479
 21
181.5968722803534945
 31
0.0
  0
LINE
  5
B96B
  8
0
 10
4263.1171745170177019
 20
181.8069348183535112
 30
0.0
 11
4265.8518803028619004
 21
181.8069348183535112
 31
0.0
  0
LINE
  5
B96C
  8
0
 10
4266.1240000234001855
 20
185.0449054300534897
 30
0.0
 11
4262.7020938736513926
 21
185.0449054300534897
 31
0.0
  0
LINE
  5
B96D
  8
0
 10
4263.4747262419778053
 20
184.8431643197534981
 30
0.0
 11
4262.7358177960950343
 21
184.8431643197534981
 31
0.0
  0
ARC
  5
B96E
  8
0
 10
4262.7885128736888873
 20
185.0889892406370905
 30
0.0
 40
0.0393700791641478
 50
90.0028231099094995
 51
133.9999993063337911
  0
LINE
  5
B96F
  8
0
 10
4262.7611641189951115
 20
185.1173097058535006
 30
0.0
 11
4262.7140911811929982
 21
185.0718518991741064
 31
0.0
  0
ARC
  5
B970
  8
0
 10
4262.7414397569345965
 20
185.043531562274211
 30
0.0
 40
0.0393698625507069
 50
133.9999416886865902
 51
177.9966742119956109
  0
LINE
  5
B971
  8
0
 10
4262.7020939572621501
 20
185.044907834529198
 30
0.0
 11
4262.6964477173960404
 21
184.8825343985535028
 31
0.0
  0
ARC
  5
B972
  8
0
 10
4262.7358177960950343
 20
184.8825343985535028
 30
0.0
 40
0.0393700787000011
 50
180.0000000000015916
 51
270.0
  0
ARC
  5
B973
  8
0
 10
4264.0731624476084107
 20
184.2860823590924042
 30
0.0
 40
0.0196850394344795
 50
180.8472017438747059
 51
269.9943540217569762
  0
ARC
  5
B974
  8
0
 10
4263.4824369443776959
 20
184.2773469854849111
 30
0.0
 40
0.5711050475813751
 50
0.8472015457001488
 51
34.128255501187482
  0
ARC
  5
B975
  8
0
 10
4263.4995527734918142
 20
184.2705632575656978
 30
0.0
 40
0.5609493038473287
 50
35.6828495455864996
 51
68.5426797922422821
  0
ARC
  5
B976
  8
0
 10
4263.3981669881732159
 20
183.9458259787863881
 30
0.0
 40
0.9005983663724919
 50
70.0972738366328372
 51
85.1234392522078167
  0
LINE
  5
B977
  8
0
 10
4264.1106097470092209
 20
185.0756131477974122
 30
0.0
 11
4264.1516772053300883
 21
185.1156192944050076
 31
0.0
  0
LINE
  5
B978
  8
0
 10
4264.0893093509776008
 20
184.7488725571027999
 30
0.0
 11
4264.0970538151141227
 21
185.0446217124923862
 31
0.0
  0
ARC
  5
B979
  8
0
 10
4264.1419454151746322
 20
185.0434461845817964
 30
0.0
 40
0.0449069885641677
 50
134.2499999382299052
 51
178.5000000098754924
  0
ARC
  5
B97A
  8
0
 10
4264.1830128734964092
 20
185.0834523311893065
 30
0.0
 40
0.0449069885641677
 50
89.9999999999478888
 51
134.2499999382299052
  0
ARC
  5
B97B
  8
0
 10
4264.0317471126272721
 20
184.7445240712077066
 30
0.0
 40
0.0577262558413616
 50
317.6947050614388104
 51
4.320150746386064
  0
ARC
  5
B97C
  8
0
 10
4264.0448951616090199
 20
184.7311032695594122
 30
0.0
 40
0.0389839326867493
 50
234.2484713553160134
 51
319.2761970199301231
  0
ARC
  5
B97D
  8
0
 10
4263.6944056275542607
 20
184.2551709976756911
 30
0.0
 40
0.5520806200288694
 50
53.5874567237902397
 51
64.4339781453852254
  0
ARC
  5
B97E
  8
0
 10
4263.5271344196044083
 20
183.8483856077988889
 30
0.0
 40
0.9915297011216422
 50
65.8588277354191121
 51
84.5598718111160963
  0
ARC
  5
B97F
  8
0
 10
4263.3908997679000095
 20
181.8591893220670102
 30
0.0
 40
2.9851519955562331
 50
85.5765294152230922
 51
88.3909982563254886
  0
ARC
  5
B980
  8
0
 10
4264.0732339259930086
 20
184.2270272408476046
 30
0.0
 40
0.0196850398970672
 50
90.011422334459553
 51
179.999999400724505
  0
LINE
  5
B981
  8
0
 10
4264.0535488860959958
 20
184.2270272411242047
 30
0.0
 11
4264.0535488860959958
 21
183.4465993627223952
 31
0.0
  0
ARC
  5
B982
  8
0
 10
4250.9920156753923948
 20
183.4912593819985034
 30
0.0
 40
13.0616095612918404
 50
359.3527489677935023
 51
359.804094924801916
  0
ARC
  5
B983
  8
0
 10
4259.834804180584797
 20
183.3913611431381128
 30
0.0
 40
4.2182567917988818
 50
358.1827628313195078
 51
359.3527489677935023
  0
ARC
  5
B984
  8
0
 10
4261.7964529405362555
 20
183.306309896007491
 30
0.0
 40
2.2550127979234489
 50
350.0782086612549051
 51
358.7621234128412198
  0
ARC
  5
B985
  8
0
 10
4263.2213955285060365
 20
181.7813818866297879
 30
0.0
 40
0.0294093126749099
 50
119.6721645643290941
 51
204.7822074699618895
  0
LINE
  5
B986
  8
0
 10
4263.1946945873523873
 20
181.7690543802534933
 30
0.0
 11
4263.260369402230026
 21
181.6151503465534915
 31
0.0
  0
ARC
  5
B987
  8
0
 10
4263.2880940860613919
 20
181.6270380008074881
 30
0.0
 40
0.0301657822247856
 50
203.2084488129196984
 51
269.8840497175248743
  0
LINE
  5
B988
  8
0
 10
4264.1138343476241062
 20
184.2467122803535062
 30
0.0
 11
4264.1138343476241062
 21
184.2663973197535086
 31
0.0
  0
LINE
  5
B989
  8
0
 10
4264.4130469485253343
 20
184.8431643198535141
 30
0.0
 11
4264.1303158564251135
 21
184.8431643198535141
 31
0.0
  0
ARC
  5
B98A
  8
0
 10
4264.1303158564251135
 20
184.8825343985535028
 30
0.0
 40
0.0393700787000029
 50
196.2609910555378008
 51
270.0
  0
ARC
  5
B98B
  8
0
 10
4262.2871532551325799
 20
183.3831250750600077
 30
0.0
 40
1.824881819327661
 50
300.2629130574717919
 51
313.0628302095706772
  0
ARC
  5
B98C
  8
0
 10
4262.340134739444693
 20
183.326434154167913
 30
0.0
 40
1.7472873724163041
 50
313.0628302095706772
 51
327.1599693996578821
  0
ARC
  5
B98D
  8
0
 10
4262.6033126692182122
 20
183.1565671945826068
 30
0.0
 40
1.4340503907580791
 50
327.1599693996578821
 51
338.8382522630874973
  0
ARC
  5
B98E
  8
0
 10
4262.5850120131162839
 20
183.1636514987233966
 30
0.0
 40
1.453674390832959
 50
338.8382522630874973
 51
350.2616079566818144
  0
LINE
  5
B98F
  8
0
 10
4264.5241385829258434
 20
184.2467122803535062
 30
0.0
 11
4264.5241385829258434
 21
183.2271325499532963
 31
0.0
  0
ARC
  5
B990
  8
0
 10
4268.0533176745757373
 20
183.2271325499532963
 30
0.0
 40
3.5291790916503518
 50
180.0
 51
186.8605095996622083
  0
ARC
  5
B991
  8
0
 10
4268.2247227317748184
 20
183.2477549821404068
 30
0.0
 40
3.7018202754471439
 50
186.8605095996622083
 51
198.8975424346832028
  0
ARC
  5
B992
  8
0
 10
4265.9013501125018593
 20
182.4523980724393937
 30
0.0
 40
1.2460814982573369
 50
198.8975424346832028
 51
211.194801186290988
  0
ARC
  5
B993
  8
0
 10
4264.7950686011690777
 20
181.7825473638702078
 30
0.0
 40
0.0471929328238444
 50
343.4522821887182999
 51
31.1948011862910199
  0
LINE
  5
B994
  8
0
 10
4264.8403069379255612
 20
181.7691061661535059
 30
0.0
 11
4264.8189428191235493
 21
181.6151503465534915
 31
0.0
  0
ARC
  5
B995
  8
0
 10
4264.7912198323683697
 20
181.6217115167744112
 30
0.0
 40
0.0284888214811895
 50
299.3204979171079003
 51
346.6848631073817728
  0
LINE
  5
B996
  8
0
 10
4263.8185854826251671
 20
183.8074327821061047
 30
0.0
 11
4263.8185854826251671
 21
184.7319549046397924
 31
0.0
  0
LINE
  5
B997
  8
0
 10
4263.8185854826251671
 20
185.128359319753514
 30
0.0
 11
4263.8185854826251671
 21
185.8108722803534931
 31
0.0
  0
ARC
  5
B998
  8
0
 10
4263.2049775334016886
 20
181.6245094933206872
 30
0.0
 40
0.0276508445437599
 50
203.0956323358780082
 51
268.2008212306905079
  0
LINE
  5
B999
  8
0
 10
4263.1795428652658302
 20
181.6136629795570059
 30
0.0
 11
4263.1106195117254174
 21
181.7760331003534873
 31
0.0
  0
ARC
  5
B99A
  8
0
 10
4263.136117831343654
 20
181.7867703814117988
 30
0.0
 40
0.0276668334802083
 50
133.2115451510161961
 51
202.8336938529569125
  0
ARC
  5
B99B
  8
0
 10
4261.7526089755856447
 20
183.259462889198403
 30
0.0
 40
1.9929568267921109
 50
313.2115451510161961
 51
325.8011593682930993
  0
ARC
  5
B99C
  8
0
 10
4261.624219852553324
 20
183.3467122493696877
 30
0.0
 40
2.1481863915130508
 50
325.8011593682930993
 51
338.4848762142420924
  0
ARC
  5
B99D
  8
0
 10
4261.3297608817247237
 20
183.462792517593499
 30
0.0
 40
2.4646997627502638
 50
338.4848762142420924
 51
350.6846422596998991
  0
ARC
  5
B99E
  8
0
 10
4260.0843143296642666
 20
183.667085012576706
 30
0.0
 40
3.7267903052815128
 50
350.6846422596998991
 51
357.9068664709649852
  0
ARC
  5
B99F
  8
0
 10
3984.2607964040398656
 20
193.7479745888805098
 30
0.0
 40
279.7344666034542229
 50
357.9068664709649852
 51
357.9635293554155737
  0
LINE
  5
B9A0
  8
0
 10
4263.8823585442296462
 20
184.6805923582107027
 30
0.0
 11
4263.8823585442296462
 21
183.9487719040646994
 31
0.0
  0
ARC
  5
B9A1
  8
0
 10
4252.8623492624437858
 20
183.9487719040646994
 30
0.0
 40
11.0200092817871695
 50
359.2588041362557192
 51
0.0
  0
ARC
  5
B9A2
  8
0
 10
4256.0763846234676748
 20
183.9071918325159061
 30
0.0
 40
7.8057049707009041
 50
354.5450757020958008
 51
359.2588041362557192
  0
ARC
  5
B9A3
  8
0
 10
4261.5514123301763902
 20
183.3843535435576086
 30
0.0
 40
2.3057696742066618
 50
339.8879415965042767
 51
354.5450757020958008
  0
ARC
  5
B9A4
  8
0
 10
4261.6073314693603606
 20
183.3205083962646995
 30
0.0
 40
2.2316783517193368
 50
327.1108079581617858
 51
340.9335360839186251
  0
ARC
  5
B9A5
  8
0
 10
4261.8051133157214281
 20
183.1904590035319131
 30
0.0
 40
1.994978431951228
 50
318.1327859634208153
 51
327.1626951777323029
  0
LINE
  5
B9A6
  8
0
 10
4264.6238175182043051
 20
185.8108722803534931
 30
0.0
 11
4264.6238175211647103
 21
185.128359319753514
 31
0.0
  0
LINE
  5
B9A7
  8
0
 10
4263.8823584714691606
 20
185.8108722803534931
 30
0.0
 11
4263.8823585155250839
 21
185.128359319753514
 31
0.0
  0
LINE
  5
B9A8
  8
0
 10
4265.3513676550728633
 20
184.8431643197534981
 30
0.0
 11
4266.0902761009538153
 21
184.8431643197534981
 31
0.0
  0
ARC
  5
B9A9
  8
0
 10
4266.0375777571971412
 20
185.0889923766737866
 30
0.0
 40
0.0393700924160857
 50
45.9934111045545677
 51
90.7247143107181842
  0
LINE
  5
B9AA
  8
0
 10
4266.0649297780537381
 20
185.1173097058535006
 30
0.0
 11
4266.1120027158567609
 21
185.0718518991741064
 31
0.0
  0
ARC
  5
B9AB
  8
0
 10
4266.0846541401142531
 20
185.043531562274211
 30
0.0
 40
0.0393698625507069
 50
2.0033257880044331
 51
46.0000583113133175
  0
LINE
  5
B9AC
  8
0
 10
4266.123999939789428
 20
185.044907834529198
 30
0.0
 11
4266.1296461796537187
 21
184.8825343985535028
 31
0.0
  0
ARC
  5
B9AD
  8
0
 10
4266.0902761009538153
 20
184.8825343985535028
 30
0.0
 40
0.0393700787000011
 50
270.0
 51
359.9999999999984084
  0
ARC
  5
B9AE
  8
0
 10
4264.7528286599708736
 20
184.2861847059633931
 30
0.0
 40
0.0197895877629568
 50
270.854649143352276
 51
358.8609100411098893
  0
ARC
  5
B9AF
  8
0
 10
4265.3436569526720632
 20
184.2773469854849111
 30
0.0
 40
0.5711050475813751
 50
145.8717444988124896
 51
179.1527984542998126
  0
ARC
  5
B9B0
  8
0
 10
4265.3265411235588545
 20
184.2705632575656978
 30
0.0
 40
0.5609493038473287
 50
111.4573202077577037
 51
144.3171504544147865
  0
ARC
  5
B9B1
  8
0
 10
4265.4279269088783622
 20
183.9458259787863881
 30
0.0
 40
0.9005983663724919
 50
94.8765607477921833
 51
109.9027261633665944
  0
LINE
  5
B9B2
  8
0
 10
4264.7154841500414477
 20
185.0756131477974122
 30
0.0
 11
4264.6744166917205803
 21
185.1156192944050076
 31
0.0
  0
LINE
  5
B9B3
  8
0
 10
4264.7367845460721583
 20
184.7488725571027999
 30
0.0
 11
4264.7290400819356364
 21
185.0446217124923862
 31
0.0
  0
ARC
  5
B9B4
  8
0
 10
4264.6841484818751269
 20
185.0434461845817964
 30
0.0
 40
0.0449069885641677
 50
1.499999990124502
 51
45.750000061771253
  0
ARC
  5
B9B5
  8
0
 10
4264.6430810235551689
 20
185.0834523311893065
 30
0.0
 40
0.0449069885641677
 50
45.750000061771253
 51
90.0000000000521254
  0
ARC
  5
B9B6
  8
0
 10
4264.7943467844215775
 20
184.7445240712077066
 30
0.0
 40
0.0577262558413616
 50
175.6798492536138951
 51
222.3052949385611896
  0
ARC
  5
B9B7
  8
0
 10
4264.7811987354407393
 20
184.7311032695594122
 30
0.0
 40
0.0389839326867493
 50
220.7238029800699053
 51
305.751528644684015
  0
ARC
  5
B9B8
  8
0
 10
4265.1316882694964079
 20
184.2551709976756911
 30
0.0
 40
0.5520806200288694
 50
115.5660218546154994
 51
126.4125432762098029
  0
ARC
  5
B9B9
  8
0
 10
4265.2989594774462603
 20
183.8483856077988889
 30
0.0
 40
0.9915297011216422
 50
95.4401281888839037
 51
114.1411722645809022
  0
ARC
  5
B9BA
  8
0
 10
4265.4351941291506591
 20
181.8591893220670102
 30
0.0
 40
2.9851519955562331
 50
91.6090017436745114
 51
94.4234705847769078
  0
ARC
  5
B9BB
  8
0
 10
4264.7528599710567505
 20
184.2270272408476046
 30
0.0
 40
0.0196850398970672
 50
0.0000005992755331
 51
89.988577665540447
  0
LINE
  5
B9BC
  8
0
 10
4264.7725450109546728
 20
184.2270272411242047
 30
0.0
 11
4264.7725450109546728
 21
183.4465993627223952
 31
0.0
  0
ARC
  5
B9BD
  8
0
 10
4277.8340782216573643
 20
183.4912593819985034
 30
0.0
 40
13.0616095612918404
 50
180.1959050751981124
 51
180.6472510322064124
  0
ARC
  5
B9BE
  8
0
 10
4268.9912897164658716
 20
183.3913611431381128
 30
0.0
 40
4.2182567917988818
 50
180.6472510322064124
 51
181.8172371686804922
  0
ARC
  5
B9BF
  8
0
 10
4267.0296409565144131
 20
183.306309896007491
 30
0.0
 40
2.2550127979234489
 50
181.2378765871588087
 51
189.9217913387450096
  0
ARC
  5
B9C0
  8
0
 10
4265.737256641438762
 20
181.7813818866297879
 30
0.0
 40
0.0294093126749099
 50
335.2177925300380821
 51
60.3278354356708491
  0
LINE
  5
B9C1
  8
0
 10
4265.7639575825933207
 20
181.7690543802534933
 30
0.0
 11
4265.6982827677147725
 21
181.6151503465534915
 31
0.0
  0
ARC
  5
B9C2
  8
0
 10
4265.6705580838843161
 20
181.6270380008074881
 30
0.0
 40
0.0301657822247856
 50
270.1159502824751257
 51
336.7915511870803016
  0
LINE
  5
B9C3
  8
0
 10
4264.7122595494247435
 20
184.2467122803535062
 30
0.0
 11
4264.7122595494247435
 21
184.2663973197535086
 31
0.0
  0
LINE
  5
B9C4
  8
0
 10
4264.4130469485253343
 20
184.8431643198535141
 30
0.0
 11
4264.6957780406246457
 21
184.8431643198535141
 31
0.0
  0
ARC
  5
B9C5
  8
0
 10
4264.6957780406246457
 20
184.8825343985535028
 30
0.0
 40
0.0393700787000029
 50
270.0
 51
343.7390089444622276
  0
ARC
  5
B9C6
  8
0
 10
4266.9371339455174166
 20
183.9635927664926953
 30
0.0
 40
2.460925399645165
 50
228.5817062053853874
 51
241.2064185715586007
  0
ARC
  5
B9C7
  8
0
 10
4266.4664106857862862
 20
183.4307090668743001
 30
0.0
 40
1.749908437842558
 50
214.9594158834264874
 51
228.5969442762699089
  0
ARC
  5
B9C8
  8
0
 10
4266.1866807786709614
 20
183.2427459170764052
 30
0.0
 40
1.412965143620188
 50
203.3803530460010052
 51
215.2123439039411039
  0
ARC
  5
B9C9
  8
0
 10
4266.8958623218913999
 20
183.5065065045853032
 30
0.0
 40
2.1689417743297561
 50
195.7501441082808924
 51
202.3415120899771864
  0
LINE
  5
B9CA
  8
0
 10
4265.0625614446253167
 20
183.8074327821061047
 30
0.0
 11
4265.0625614446253167
 21
184.7651555280058062
 31
0.0
  0
ARC
  5
B9CB
  8
0
 10
4267.8371678715266171
 20
183.601683685564808
 30
0.0
 40
2.7655432423894339
 50
181.4652298054712105
 51
191.1941079226162117
  0
ARC
  5
B9CC
  8
0
 10
4544.6203505232097086
 20
193.7479745888805098
 30
0.0
 40
279.7344666034542229
 50
182.0364706445843979
 51
182.0931335290349864
  0
ARC
  5
B9CD
  8
0
 10
4267.1604125881740401
 20
183.4177028074902012
 30
0.0
 40
2.066529674336123
 50
189.8326579696052931
 51
212.9623458777971905
  0
ARC
  5
B9CE
  8
0
 10
4267.3253767241903915
 20
183.5246777024015046
 30
0.0
 40
2.2631429859721881
 50
212.9623458777971905
 51
229.3655262110302999
  0
ARC
  5
B9CF
  8
0
 10
4265.8335827791606789
 20
181.7862897634429089
 30
0.0
 40
0.027586548639819
 50
335.9098743397045155
 51
49.3655262110313018
  0
LINE
  5
B9D0
  8
0
 10
4265.8587666645253194
 20
181.775029675353494
 30
0.0
 11
4265.7863357310998254
 21
181.6130334005680993
 31
0.0
  0
ARC
  5
B9D1
  8
0
 10
4265.7605929972787635
 20
181.6254508804736929
 30
0.0
 40
0.0285811502887847
 50
270.7653947038874094
 51
334.2488098949426103
  0
LINE
  5
B9D2
  8
0
 10
4265.0609481120227429
 20
185.8108722803534931
 30
0.0
 11
4265.0609481120227429
 21
185.128359319753514
 31
0.0
  0
LINE
  5
B9D3
  8
0
 10
4255.4825311346239687
 20
185.8615565293534928
 30
0.0
 11
4256.6120234252239243
 21
185.4945622373535059
 31
0.0
  0
ARC
  5
B9D4
  8
0
 10
4263.3732350134805529
 20
185.8108722801104022
 30
0.0
 40
1.68771309854306
 50
0.0000000082513257
 51
89.999999991766586
  0
LINE
  5
B9D5
  8
0
 10
4257.211151052322748
 20
187.4985853786535017
 30
0.0
 11
4263.373235013723388
 21
187.4985853786535017
 31
0.0
  0
LINE
  5
B9D6
  8
0
 10
4257.2111510522190656
 20
187.0600812873535119
 30
0.0
 11
4263.373235013723388
 21
187.0600812873535119
 31
0.0
  0
LINE
  5
B9D7
  8
0
 10
4257.2111510508411811
 20
186.2553722803534981
 30
0.0
 11
4263.373235013723388
 21
186.2553722803534981
 31
0.0
  0
ARC
  5
B9D8
  8
0
 10
4256.6205396414407005
 20
185.5207724566053002
 30
0.0
 40
0.02755905535176
 50
252.0000005148606874
 51
341.999999619727987
  0
LINE
  5
B9D9
  8
0
 10
4256.6467498605597939
 20
185.5122562399787114
 30
0.0
 11
4256.7884064337476957
 21
185.9482303333678033
 31
0.0
  0
ARC
  5
B9DA
  8
0
 10
4257.2111510508411811
 20
185.8108722868506959
 30
0.0
 40
0.4444999935027472
 50
89.999999808859755
 51
162.0000007336749093
  0
ARC
  5
B9DB
  8
0
 10
4257.2111510522190656
 20
185.8108722806541095
 30
0.0
 40
1.2492090065993771
 50
89.9999999951016463
 51
162.0000000105698916
  0
LINE
  5
B9DC
  8
0
 10
4256.0230826862061804
 20
186.1968990930002974
 30
0.0
 11
4255.8814261156985594
 21
185.7609249977433876
 31
0.0
  0
ARC
  5
B9DD
  8
0
 10
4255.9250445569714429
 20
185.7467525070638033
 30
0.0
 40
0.0458631432755911
 50
162.0000000105698916
 51
198.9342130019894057
  0
ARC
  5
B9DE
  8
0
 10
4257.2163285217911834
 20
185.8037461049831904
 30
0.0
 40
1.694847181732438
 50
90.175029119866025
 51
161.8249708794947992
  0
LINE
  5
B9DF
  8
0
 10
4255.6060405126499973
 20
186.3324043093450086
 30
0.0
 11
4255.4643839423133613
 21
185.8964302149192065
 31
0.0
  0
ARC
  5
B9E0
  8
0
 10
4255.4905986027069957
 20
185.8879130542634073
 30
0.0
 40
0.0275635710073173
 50
162.0009861673474916
 51
252.9811757090589879
  0
ARC
  5
B9E1
  8
0
 10
4255.9646734031693995
 20
185.7714726272504038
 30
0.0
 40
0.1969611922749873
 50
180.751281730830101
 51
203.8564031925857023
  0
LINE
  5
B9E2
  8
0
 10
4255.7845401879467317
 20
185.6918124989782939
 30
0.0
 11
4256.3199655189791883
 21
185.5175268231535028
 31
0.0
  0
ARC
  5
B9E3
  8
0
 10
4256.2162545660676187
 20
185.6925167855858945
 30
0.0
 40
0.203414475163052
 50
300.6538659291326212
 51
323.077023815228074
  0
ARC
  5
B9E4
  8
0
 10
4263.3729415996858734
 20
185.8097270224126873
 30
0.0
 40
0.4456453545330627
 50
0.1472438072581517
 51
89.9622763099639968
  0
ARC
  5
B9E5
  8
0
 10
4263.3724681675503234
 20
185.8090220034555955
 30
0.0
 40
0.5098936610410753
 50
0.2079130097261857
 51
89.9138309236128634
  0
LINE
  5
B9E6
  8
0
 10
4263.373235013723388
 20
186.3189150878534974
 30
0.0
 11
4257.211151052322748
 21
186.3189150878534974
 31
0.0
  0
ARC
  5
B9E7
  8
0
 10
4257.2111510523018296
 20
185.8108722804174988
 30
0.0
 40
0.5080428074360457
 50
89.9999999976550384
 51
162.0000000082652036
  0
LINE
  5
B9E8
  8
0
 10
4256.7279736297114141
 20
185.9678661417154899
 30
0.0
 11
4256.5863170594702751
 21
185.5318920473382889
 31
0.0
  0
ARC
  5
B9E9
  8
0
 10
4256.556499080352296
 20
185.5415804960510968
 30
0.0
 40
0.0313524786447878
 50
280.4771638924661943
 51
342.000000008258894
  0
ARC
  5
B9EA
  8
0
 10
4263.3725704723137824
 20
185.8088327557279058
 30
0.0
 40
1.25124870809546
 50
0.0933916688590448
 51
89.9695700625727142
  0
LINE
  5
B9EC
  8
0
 10
4262.7885109338258189
 20
185.128359319753514
 30
0.0
 11
4266.0380757224720583
 21
185.128359319753514
 31
0.0
  0
ENDSEC
  0
EOF
