  0
SECTION
  2
HEADER
  9
$ACADVER
  1
AC1009
  9
$INSBASE
 10
4244.4848532382320627
 20
181.5975426386127936
 30
0.0
  9
$EXTMIN
 10
4236.8627402606925898
 20
181.5975426386127936
 30
0.0
  9
$EXTMAX
 10
4252.106966222241681
 20
187.4992557369166946
 30
0.0
  9
$LIMMIN
 10
0.0
 20
0.0
  9
$LIMMAX
 10
11.6929133858000007
 20
8.2677165353999982
  9
$ORTHOMODE
 70
     1
  9
$REGENMODE
 70
     1
  9
$FILLMODE
 70
     1
  9
$QTEXTMODE
 70
     0
  9
$MIRRTEXT
 70
     0
  9
$DRAGMODE
 70
     2
  9
$LTSCALE
 40
0.6431102362
  9
$OSMODE
 70
  4095
  9
$ATTMODE
 70
     1
  9
$TEXTSIZE
 40
0.2
  9
$TRACEWID
 40
0.05
  9
$TEXTSTYLE
  7
STANDARD
  9
$CLAYER
  8
0
  9
$CELTYPE
  6
BYLAYER
  9
$CECOLOR
 62
   256
  9
$DIMSCALE
 40
1.0
  9
$DIMASZ
 40
0.1875
  9
$DIMEXO
 40
0.0625
  9
$DIMDLI
 40
0.4443307087
  9
$DIMRND
 40
0.0
  9
$DIMDLE
 40
0.0
  9
$DIMEXE
 40
0.125
  9
$DIMTP
 40
0.01
  9
$DIMTM
 40
0.01
  9
$DIMTXT
 40
2.0
  9
$DIMCEN
 40
0.1052362205
  9
$DIMTSZ
 40
0.0
  9
$DIMTOL
 70
     1
  9
$DIMLIM
 70
     0
  9
$DIMTIH
 70
     1
  9
$DIMTOH
 70
     1
  9
$DIMSE1
 70
     0
  9
$DIMSE2
 70
     0
  9
$DIMTAD
 70
     0
  9
$DIMZIN
 70
     0
  9
$DIMBLK
  1

  9
$DIMASO
 70
     1
  9
$DIMSHO
 70
     1
  9
$DIMPOST
  1
\X
  9
$DIMAPOST
  1

  9
$DIMALT
 70
     1
  9
$DIMALTD
 70
     2
  9
$DIMALTF
 40
25.3999999999999986
  9
$DIMLFAC
 40
1.0
  9
$DIMTOFL
 70
     0
  9
$DIMTVP
 40
0.0
  9
$DIMTIX
 70
     0
  9
$DIMSOXD
 70
     0
  9
$DIMSAH
 70
     0
  9
$DIMBLK1
  1

  9
$DIMBLK2
  1

  9
$DIMSTYLE
  2
STANDARD
  9
$DIMCLRD
 70
     0
  9
$DIMCLRE
 70
     0
  9
$DIMCLRT
 70
     0
  9
$DIMTFAC
 40
1.0
  9
$DIMGAP
 40
0.09
  9
$LUNITS
 70
     2
  9
$LUPREC
 70
     4
  9
$SKETCHINC
 40
0.1
  9
$FILLETRAD
 40
0.0
  9
$AUNITS
 70
     0
  9
$AUPREC
 70
     0
  9
$MENU
  1
.
  9
$ELEVATION
 40
0.0
  9
$PELEVATION
 40
0.0
  9
$THICKNESS
 40
0.0
  9
$LIMCHECK
 70
     0
  9
$BLIPMODE
 70
     0
  9
$CHAMFERA
 40
0.0
  9
$CHAMFERB
 40
0.0
  9
$SKPOLY
 70
     0
  9
$TDCREATE
 40
2458060.468368056230247
  9
$TDUPDATE
 40
2459455.4174999999813735
  9
$TDINDWG
 40
0.4218820602
  9
$TDUSRTIMER
 40
0.4218820602
  9
$USRTIMER
 70
     1
  9
$ANGBASE
 50
0.0
  9
$ANGDIR
 70
     0
  9
$PDMODE
 70
     0
  9
$PDSIZE
 40
0.3125
  9
$PLINEWID
 40
0.0
  9
$COORDS
 70
     1
  9
$SPLFRAME
 70
     0
  9
$SPLINETYPE
 70
     6
  9
$SPLINESEGS
 70
     8
  9
$ATTDIA
 70
     1
  9
$ATTREQ
 70
     1
  9
$HANDLING
 70
     1
  9
$HANDSEED
  5
BF51
  9
$SURFTAB1
 70
     6
  9
$SURFTAB2
 70
     6
  9
$SURFTYPE
 70
     6
  9
$SURFU
 70
     6
  9
$SURFV
 70
     6
  9
$UCSNAME
  2

  9
$UCSORG
 10
0.0
 20
0.0
 30
0.0
  9
$UCSXDIR
 10
1.0
 20
0.0
 30
0.0
  9
$UCSYDIR
 10
0.0
 20
1.0
 30
0.0
  9
$PUCSNAME
  2

  9
$PUCSORG
 10
0.0
 20
0.0
 30
0.0
  9
$PUCSXDIR
 10
1.0
 20
0.0
 30
0.0
  9
$PUCSYDIR
 10
0.0
 20
1.0
 30
0.0
  9
$USERI1
 70
     0
  9
$USERI2
 70
     0
  9
$USERI3
 70
     0
  9
$USERI4
 70
     0
  9
$USERI5
 70
     0
  9
$USERR1
 40
0.0
  9
$USERR2
 40
0.0
  9
$USERR3
 40
0.0
  9
$USERR4
 40
0.0
  9
$USERR5
 40
0.0
  9
$WORLDVIEW
 70
     1
  9
$SHADEDGE
 70
     3
  9
$SHADEDIF
 70
    70
  9
$TILEMODE
 70
     1
  9
$MAXACTVP
 70
    64
  9
$PLIMCHECK
 70
     0
  9
$PEXTMIN
 10
1.0000000000000000E+20
 20
1.0000000000000000E+20
 30
1.0000000000000000E+20
  9
$PEXTMAX
 10
-1.0000000000000000E+20
 20
-1.0000000000000000E+20
 30
-1.0000000000000000E+20
  9
$PLIMMIN
 10
0.0
 20
0.0
  9
$PLIMMAX
 10
12.0
 20
9.0
  9
$UNITMODE
 70
     0
  9
$VISRETAIN
 70
     1
  9
$PLINEGEN
 70
     0
  9
$PSLTSCALE
 70
     1
  0
ENDSEC
  0
SECTION
  2
TABLES
  0
TABLE
  2
VPORT
 70
     1
  0
VPORT
  2
*ACTIVE
 70
     0
 10
0.0
 20
0.0
 11
1.0
 21
1.0
 12
441.0815135274161207
 22
58.7483681724184166
 13
0.0
 23
0.0
 14
1.0
 24
1.0
 15
0.0
 25
0.0
 16
0.0
 26
0.0
 36
17.1152628219792007
 17
3803.5440673828129547
 27
125.9952621967499056
 37
0.0
 40
5.9682154381330346
 41
2.7718023255813948
 42
50.0
 43
0.0
 44
0.0
 50
0.0
 51
0.0
 71
     0
 72
   100
 73
     1
 74
     1
 75
     0
 76
     0
 77
     0
 78
     0
  0
ENDTAB
  0
TABLE
  2
LTYPE
 70
     2
  0
LTYPE
  2
CONTINUOUS
 70
     0
  3
Solid line
 72
    65
 73
     0
 40
0.0
  0
LTYPE
  2
PHANTOM2
 70
     0
  3
___ _ _ ___ _ _ ___ _ _ ___ _ _
 72
    65
 73
     6
 40
1.25
 49
0.625
 49
-0.125
 49
0.125
 49
-0.125
 49
0.125
 49
-0.125
  0
ENDTAB
  0
TABLE
  2
LAYER
 70
     2
  0
LAYER
  2
0
 70
     0
 62
   255
  6
CONTINUOUS
  0
LAYER
  2
DEFPOINTS
 70
     0
 62
     7
  6
CONTINUOUS
  0
ENDTAB
  0
TABLE
  2
STYLE
 70
     1
  0
STYLE
  2
STANDARD
 70
     0
 40
0.0
 41
0.8
 50
0.0
 71
     0
 42
0.2
  3
txt
  4

  0
ENDTAB
  0
TABLE
  2
VIEW
 70
     0
  0
ENDTAB
  0
TABLE
  2
UCS
 70
     0
  0
ENDTAB
  0
TABLE
  2
APPID
 70
     9
  0
APPID
  2
ACAD
 70
     0
  0
APPID
  2
ACAD_MLEADERVER
 70
     0
  0
APPID
  2
ACAD_EXEMPT_FROM_CAD_STANDARDS
 70
     0
  0
APPID
  2
ACAD_NAV_VCDISPLAY
 70
     0
  0
APPID
  2
ACAECLAYERSTANDARD
 70
     0
  0
APPID
  2
ACCMTRANSPARENCY
 70
     0
  0
APPID
  2
ACAD_DSTYLE_DIMJAG
 70
     0
  0
APPID
  2
ACAD_DSTYLE_DIMTALN
 70
     0
  0
APPID
  2
ACDBATTR
 70
     0
  0
ENDTAB
  0
TABLE
  2
DIMSTYLE
 70
     1
  0
DIMSTYLE
  2
STANDARD
 70
     0
  3

  4

  5

  6

  7

 40
1.0
 41
0.1875
 42
0.0625
 43
0.38
 44
0.125
 45
0.0
 46
0.0
 47
0.01
 48
0.01
140
0.15625
141
0.09
142
0.0
143
25.3999999999999986
144
1.0
145
0.0
146
1.0
147
0.09
 71
     1
 72
     0
 73
     1
 74
     1
 75
     0
 76
     0
 77
     0
 78
     4
170
     0
171
     2
172
     0
173
     0
174
     0
175
     0
176
     0
177
     0
178
     0
  0
ENDTAB
  0
ENDSEC
  0
SECTION
  2
BLOCKS
  0
BLOCK
  8
0
  2
$MODEL_SPACE
 70
     0
 10
0.0
 20
0.0
 30
0.0
  3
$MODEL_SPACE
  1

  0
ENDBLK
  5
21
  8
0
  0
BLOCK
 67
     1
  8
0
  2
$PAPER_SPACE
 70
     0
 10
0.0
 20
0.0
 30
0.0
  3
$PAPER_SPACE
  1

  0
ENDBLK
  5
1D
 67
     1
  8
0
  0
ENDSEC
  0
SECTION
  2
ENTITIES
  0
ATTDEF
  5
B480
  8
DEFPOINTS
 10
4244.485370150892777
 20
181.6020278650331079
 30
0.0
 40
0.001
  1
K-EX27105T-3
  3

  2
MODELNUMBER
 70
     0
1001
ACDBATTR
1070
     0
1070
     1
  0
ATTDEF
  5
B481
  8
DEFPOINTS
 10
4244.485370150892777
 20
181.6003611983664996
 30
0.0
 40
0.001
  1

  3

  2
TRADENAME
 70
     0
1001
ACDBATTR
1070
     0
1070
     1
  0
ATTDEF
  5
B482
  8
DEFPOINTS
 10
4244.485370150892777
 20
181.598694531699806
 30
0.0
 40
0.001
  1
BATH SPOUT
  3

  2
PRODUCT
 70
     0
1001
ACDBATTR
1070
     0
1070
     1
  0
LINE
  5
BB57
  8
0
 10
4240.203877444142563
 20
185.1290296780128131
 30
0.0
 11
4236.9548054189417599
 21
185.1290296780128131
 31
0.0
  0
LINE
  5
BB58
  8
0
 10
4237.6410187874253097
 20
184.8438346780127972
 30
0.0
 11
4236.9021103415416292
 21
184.8438346780127972
 31
0.0
  0
LINE
  5
BB59
  8
0
 10
4238.9192278701430041
 20
184.2670676780128076
 30
0.0
 11
4238.2394549929422283
 21
184.2670676780128076
 31
0.0
  0
LINE
  5
BB5A
  8
0
 10
4238.9191583763322342
 20
184.2473826386128053
 30
0.0
 11
4238.2395244867529982
 21
184.2473826386128053
 31
0.0
  0
LINE
  5
BB5B
  8
0
 10
4239.7747727447431316
 20
181.5975426386127936
 30
0.0
 11
4237.3839101141420542
 21
181.5975426386127936
 31
0.0
  0
LINE
  5
BB5C
  8
0
 10
4243.2022219214632059
 20
181.5975426386127936
 30
0.0
 11
4245.7674845550009195
 21
181.5975426386127936
 31
0.0
  0
LINE
  5
BB5D
  8
0
 10
4239.8556352003779466
 20
181.8076051766128103
 30
0.0
 11
4237.3030457230361208
 21
181.8076051766128103
 31
0.0
  0
LINE
  5
BB5E
  8
0
 10
4243.1145689026861874
 20
181.8076051766128103
 30
0.0
 11
4245.8551382049117819
 21
181.8076051766128103
 31
0.0
  0
ARC
  5
BB5F
  8
0
 10
4243.2023564605106003
 20
181.6252913108710914
 30
0.0
 40
0.0277489917836417
 50
203.2581521284307939
 51
269.7250415435735249
  0
LINE
  5
BB60
  8
0
 10
4243.1768624895430548
 20
181.614333939412802
 30
0.0
 11
4243.1078237848341814
 21
181.7761739768887992
 31
0.0
  0
ARC
  5
BB61
  8
0
 10
4243.1341146521262999
 20
181.7865309147219079
 30
0.0
 40
0.0287430128468001
 50
132.7106746945028988
 51
179.9979804038669897
  0
ARC
  5
BB62
  8
0
 10
4241.8536182843563438
 20
183.2801491351667096
 30
0.0
 40
1.938652142766103
 50
310.5756861770983051
 51
334.6776737129425214
  0
ARC
  5
BB63
  8
0
 10
4241.3021247036340355
 20
183.5411019216286945
 30
0.0
 40
2.54876813693377
 50
334.6776737129425214
 51
356.6135324205425263
  0
ARC
  5
BB64
  8
0
 10
4190.955186341989247
 20
185.4741981301602038
 30
0.0
 40
52.9322827591946918
 50
357.7439967089837864
 51
358.3256108483915909
  0
LINE
  5
BB65
  8
0
 10
4243.8648681218492129
 20
187.0393955828166952
 30
0.0
 11
4243.8648681218492129
 21
183.9275462451936107
 31
0.0
  0
ARC
  5
BB66
  8
0
 10
4244.4848532425430676
 20
187.4602557369167073
 30
0.0
 40
0.0390000000000347
 50
73.463553723912753
 51
106.5364462757628985
  0
ARC
  5
BB67
  8
0
 10
4244.7913837241649162
 20
186.4278382386798967
 30
0.0
 40
1.1159618502197859
 50
106.5364462757628985
 51
145.4634971289507064
  0
ARC
  5
BB68
  8
0
 10
4243.9086840338522961
 20
187.0361977456093996
 30
0.0
 40
0.0439324516445007
 50
146.3965524863212124
 51
175.8257563069225
  0
LINE
  5
BB69
  8
0
 10
4244.095045816567108
 20
183.7343339893963901
 30
0.0
 11
4244.095045816567108
 21
185.5208253342237867
 31
0.0
  0
ARC
  5
BB6A
  8
0
 10
4243.6928876825859334
 20
181.6221634262319071
 30
0.0
 40
0.0256748992536332
 50
197.7551771166438073
 51
253.5250637670795868
  0
LINE
  5
BB6B
  8
0
 10
4243.6684357237418226
 20
181.6143338566128023
 30
0.0
 11
4243.6256713525426676
 21
181.7763294682127935
 31
0.0
  0
ARC
  5
BB6C
  8
0
 10
4243.6686882809663075
 20
181.7859954596879959
 30
0.0
 40
0.0440895398272428
 50
150.6388843058865064
 51
192.6641331005164091
  0
ARC
  5
BB6D
  8
0
 10
4241.8121353713340795
 20
183.0575194300178055
 30
0.0
 40
2.2063206763922238
 50
325.4926724190933101
 51
341.1663936019891139
  0
ARC
  5
BB6E
  8
0
 10
4240.7492540401126462
 20
183.4212739250210973
 30
0.0
 40
3.329723171987883
 50
341.1464535343218927
 51
355.385028951404081
  0
ARC
  5
BB6F
  8
0
 10
4235.0665682926291993
 20
183.8607059324843078
 30
0.0
 40
9.0293618970698812
 50
355.5069768985878227
 51
359.1980811633900998
  0
LINE
  5
BB70
  8
0
 10
4244.4848532425430676
 20
185.897102896812811
 30
0.0
 11
4244.4848532425430676
 21
187.4992557369166946
 31
0.0
  0
ARC
  5
BB71
  8
0
 10
4236.9548054189535833
 20
185.0896595991767981
 30
0.0
 40
0.0393700788359841
 50
90.0000000175611063
 51
133.9999993991856115
  0
LINE
  5
BB72
  8
0
 10
4236.9274566644417064
 20
185.1179800641127997
 30
0.0
 11
4236.8803837266395931
 21
185.0725222574334907
 31
0.0
  0
ARC
  5
BB73
  8
0
 10
4236.9077323023821009
 20
185.04420192053351
 30
0.0
 40
0.0393698625507069
 50
133.9999416886865902
 51
177.9966742119956109
  0
LINE
  5
BB74
  8
0
 10
4236.868386502708745
 20
185.0455781927884971
 30
0.0
 11
4236.8627402606925898
 21
184.8832047568128019
 31
0.0
  0
ARC
  5
BB75
  8
0
 10
4236.9021103430632138
 20
184.8832047604830962
 30
0.0
 40
0.039370082370286
 50
180.0000053414102865
 51
269.9999977875048103
  0
ARC
  5
BB76
  8
0
 10
4238.2394549928876586
 20
184.286752717281189
 30
0.0
 40
0.0196850392683706
 50
180.8472015457001021
 51
270.0000001570601853
  0
ARC
  5
BB77
  8
0
 10
4237.6487294898252003
 20
184.2780173437442954
 30
0.0
 40
0.5711050475813751
 50
0.8472015457001488
 51
34.128255501187482
  0
ARC
  5
BB78
  8
0
 10
4237.6658453189393185
 20
184.2712336158249968
 30
0.0
 40
0.5609493038473287
 50
35.682849545585178
 51
68.5426797921937805
  0
ARC
  5
BB79
  8
0
 10
4237.5644595336189013
 20
183.9464963370458008
 30
0.0
 40
0.9005983663724919
 50
70.0972738366333914
 51
85.1234392522078167
  0
LINE
  5
BB7A
  8
0
 10
4238.2769022924567253
 20
185.0762835060567966
 30
0.0
 11
4238.3179697507757737
 21
185.1162896526643067
 31
0.0
  0
LINE
  5
BB7B
  8
0
 10
4238.2556018964251052
 20
184.7495429153620989
 30
0.0
 11
4238.2633463605598081
 21
185.0452920707517137
 31
0.0
  0
ARC
  5
BB7C
  8
0
 10
4238.3082379606221366
 20
185.0441165428410955
 30
0.0
 40
0.0449069885641677
 50
134.2499999382287115
 51
178.5000000098754924
  0
ARC
  5
BB7D
  8
0
 10
4238.3493054189420945
 20
185.0841226894486908
 30
0.0
 40
0.0449069885641677
 50
89.9999999999478888
 51
134.2499999382287115
  0
ARC
  5
BB7E
  8
0
 10
4238.1980396580747765
 20
184.7451944294670056
 30
0.0
 40
0.0577262558413616
 50
317.6947050614388104
 51
4.320150746386064
  0
ARC
  5
BB7F
  8
0
 10
4238.2111877070556147
 20
184.7317736278187112
 30
0.0
 40
0.0389839326867493
 50
234.2484713553160134
 51
319.2761970199301231
  0
ARC
  5
BB80
  8
0
 10
4237.8606981730008556
 20
184.2558413559349901
 30
0.0
 40
0.5520806200288694
 50
53.5874567237902397
 51
64.4339781453852254
  0
ARC
  5
BB81
  8
0
 10
4237.6934269650510032
 20
183.849055966058188
 30
0.0
 40
0.9915297011216422
 50
65.8588277354191121
 51
84.5598718111160963
  0
ARC
  5
BB82
  8
0
 10
4237.5571923133484233
 20
181.8598596803263092
 30
0.0
 40
2.9851519955562331
 50
85.5765294152230922
 51
88.3909982563254886
  0
LINE
  5
BB83
  8
0
 10
4236.8683863863416263
 20
185.0455757883127887
 30
0.0
 11
4240.2902945043169893
 21
185.0455757883127887
 31
0.0
  0
ARC
  5
BB84
  8
0
 10
4238.2395264707711249
 20
184.2276975993835038
 30
0.0
 40
0.0196850392292899
 50
89.9999983388829037
 51
180.0000002058108919
  0
LINE
  5
BB85
  8
0
 10
4238.2198414315425907
 20
184.2276975993835038
 30
0.0
 11
4238.2198414315425907
 21
183.4472697209816943
 31
0.0
  0
ARC
  5
BB86
  8
0
 10
4225.1583082208389897
 20
183.4919297402578025
 30
0.0
 40
13.0616095612918404
 50
359.3527489677935023
 51
359.804094924801916
  0
ARC
  5
BB87
  8
0
 10
4234.0010967260323014
 20
183.3920315013974971
 30
0.0
 40
4.2182567917988818
 50
358.1827628313195078
 51
359.3527489677935023
  0
ARC
  5
BB88
  8
0
 10
4235.9627454859828504
 20
183.3069802542669038
 30
0.0
 40
2.2550127979234489
 50
350.0782086612549051
 51
358.7621234128412198
  0
ARC
  5
BB89
  8
0
 10
4236.941782055107069
 20
183.1357272946783894
 30
0.0
 40
1.2611113038853221
 50
326.7277529483263265
 51
350.0782086612549051
  0
ARC
  5
BB8A
  8
0
 10
4236.4296428647594439
 20
183.471784867080288
 30
0.0
 40
1.8736643564933271
 50
313.7199946971426812
 51
326.7277529483263265
  0
ARC
  5
BB8B
  8
0
 10
4236.1815863587044078
 20
183.7740563628626091
 30
0.0
 40
2.2637582410121508
 50
299.6959417839510138
 51
312.9699505978509819
  0
ARC
  5
BB8C
  8
0
 10
4237.3169444191944422
 20
181.7820328980234876
 30
0.0
 40
0.0291052432925202
 50
118.5243616313394028
 51
205.0168395103659122
  0
LINE
  5
BB8D
  8
0
 10
4237.2905697268433869
 20
181.7697247385127923
 30
0.0
 11
4237.3562445417210256
 21
181.6158207048127906
 31
0.0
  0
ARC
  5
BB8E
  8
0
 10
4237.3839692161700441
 20
181.6277083512285913
 30
0.0
 40
0.0301657705134104
 50
203.2084421521097966
 51
269.8877436622524897
  0
ARC
  5
BB8F
  8
0
 10
4237.842570842328314
 20
181.6233221447263873
 30
0.0
 40
0.0263783532082276
 50
196.521713678168112
 51
257.7680182083113891
  0
LINE
  5
BB90
  8
0
 10
4237.8172815977432037
 20
181.6158207031128029
 30
0.0
 11
4237.7766446729428935
 21
181.7697763960127872
 31
0.0
  0
ARC
  5
BB91
  8
0
 10
4237.8223192741888852
 20
181.7795646503325031
 30
0.0
 40
0.0467116862188762
 50
143.0240000602071007
 51
192.0956520013403974
  0
ARC
  5
BB92
  8
0
 10
4236.788134194012855
 20
182.8966851565483864
 30
0.0
 40
1.4763872186175739
 50
312.4702644605937962
 51
317.2385872143008214
  0
ARC
  5
BB93
  8
0
 10
4236.5812786515998596
 20
183.0791630596073105
 30
0.0
 40
1.752162701969578
 50
317.4501894298016964
 51
329.2110635490953996
  0
ARC
  5
BB94
  8
0
 10
4236.4727306748118281
 20
183.1462257247744958
 30
0.0
 40
1.8797407423046959
 50
329.1486525880486056
 51
338.3480623415226205
  0
ARC
  5
BB95
  8
0
 10
4236.3324069733025681
 20
183.1982735455096076
 30
0.0
 40
2.0293703282512601
 50
338.4440384689203256
 51
354.7622700479544733
  0
ARC
  5
BB96
  8
0
 10
4233.450728028420599
 20
183.3966909443460054
 30
0.0
 40
4.917565923398179
 50
355.5251562298948897
 51
0.5906319555737632
  0
LINE
  5
BB97
  8
0
 10
4238.3680330843417323
 20
183.4473826391127886
 30
0.0
 11
4238.3680330843417323
 21
184.2473826386128053
 31
0.0
  0
LINE
  5
BB98
  8
0
 10
4239.5176621359896671
 20
184.8438346780127972
 30
0.0
 11
4240.2565705818724382
 21
184.8438346780127972
 31
0.0
  0
ARC
  5
BB99
  8
0
 10
4240.2038755042767662
 20
185.0896595988965032
 30
0.0
 40
0.0393700791641478
 50
46.0000006936661521
 51
89.9971768900905147
  0
LINE
  5
BB9A
  8
0
 10
4240.231224258972361
 20
185.1179800641127997
 30
0.0
 11
4240.2782971967753838
 21
185.0725222574334907
 31
0.0
  0
ARC
  5
BB9B
  8
0
 10
4240.2509486210319665
 20
185.04420192053351
 30
0.0
 40
0.0393698625507069
 50
2.0033257880044331
 51
46.0000583113133175
  0
LINE
  5
BB9C
  8
0
 10
4240.2902944207062319
 20
185.0455781927884971
 30
0.0
 11
4240.2959406584222961
 21
184.8832047568128019
 31
0.0
  0
ARC
  5
BB9D
  8
0
 10
4240.2565705833922038
 20
184.8832047531425076
 30
0.0
 40
0.0393700750297237
 50
269.9999977875048103
 51
0.0000053414005303
  0
ARC
  5
BB9E
  8
0
 10
4238.9192259303608807
 20
184.2867527173517033
 30
0.0
 40
0.0196850394344795
 50
270.0056459782430238
 51
359.1527982561253225
  0
ARC
  5
BB9F
  8
0
 10
4239.5099514335879576
 20
184.2780173437442954
 30
0.0
 40
0.5711050475813751
 50
145.8717444988124896
 51
179.1527984542998126
  0
ARC
  5
BBA0
  8
0
 10
4239.4928356044756583
 20
184.2712336158249968
 30
0.0
 40
0.5609493038473287
 50
111.4573202077577037
 51
144.3171504544135075
  0
ARC
  5
BBA1
  8
0
 10
4239.5942213897960755
 20
183.9464963370458008
 30
0.0
 40
0.9005983663724919
 50
94.8765607477921833
 51
109.9027261633665944
  0
LINE
  5
BBA2
  8
0
 10
4238.8817786309582516
 20
185.0762835060567966
 30
0.0
 11
4238.8407111726382936
 21
185.1162896526643067
 31
0.0
  0
LINE
  5
BBA3
  8
0
 10
4238.9030790269889621
 20
184.7495429153620989
 30
0.0
 11
4238.8953345628542593
 21
185.0452920707517137
 31
0.0
  0
ARC
  5
BBA4
  8
0
 10
4238.8504429627919308
 20
185.0441165428410955
 30
0.0
 40
0.0449069885641677
 50
1.499999990124502
 51
45.750000061771253
  0
ARC
  5
BBA5
  8
0
 10
4238.8093755044719728
 20
185.0841226894486908
 30
0.0
 40
0.0449069885641677
 50
45.750000061771253
 51
90.0000000000521254
  0
ARC
  5
BBA6
  8
0
 10
4238.9606412653392908
 20
184.7451944294670056
 30
0.0
 40
0.0577262558413616
 50
175.6798492536138951
 51
222.3052949385611896
  0
ARC
  5
BBA7
  8
0
 10
4238.9474932163584526
 20
184.7317736278187112
 30
0.0
 40
0.0389839326867493
 50
220.7238029800699053
 51
305.751528644684015
  0
ARC
  5
BBA8
  8
0
 10
4239.2979827504141213
 20
184.2558413559349901
 30
0.0
 40
0.5520806200288694
 50
115.566021854614803
 51
126.4125432762098029
  0
ARC
  5
BBA9
  8
0
 10
4239.4652539583630642
 20
183.849055966058188
 30
0.0
 40
0.9915297011216422
 50
95.4401281888839037
 51
114.1411722645809022
  0
ARC
  5
BBAA
  8
0
 10
4239.601488610069282
 20
181.8598596803263092
 30
0.0
 40
2.9851519955562331
 50
91.6090017436745114
 51
94.4234705847769078
  0
ARC
  5
BBAB
  8
0
 10
4238.9191544519753734
 20
184.2276975991069037
 30
0.0
 40
0.0196850398970672
 50
0.0000005992755331
 51
89.988577665540447
  0
LINE
  5
BBAC
  8
0
 10
4238.9388394918723861
 20
184.2276975993835038
 30
0.0
 11
4238.9388394918723861
 21
183.4472697209816943
 31
0.0
  0
ARC
  5
BBAD
  8
0
 10
4252.0003727025759872
 20
183.4919297402578025
 30
0.0
 40
13.0616095612918404
 50
180.1959050751981124
 51
180.6472510322064124
  0
ARC
  5
BBAE
  8
0
 10
4243.157584197381766
 20
183.3920315013974971
 30
0.0
 40
4.2182567917988818
 50
180.6472510322064124
 51
181.8172371686804922
  0
ARC
  5
BBAF
  8
0
 10
4241.1959354374303075
 20
183.3069802542669038
 30
0.0
 40
2.2550127979234489
 50
181.2378765871588087
 51
189.9217913387450096
  0
ARC
  5
BBB0
  8
0
 10
4240.2168988683069983
 20
183.1357272946783894
 30
0.0
 40
1.2611113038853221
 50
189.9217913387450096
 51
213.2722470516735882
  0
ARC
  5
BBB1
  8
0
 10
4240.7290380586546235
 20
183.471784867080288
 30
0.0
 40
1.8736643564933271
 50
213.2722470516735882
 51
226.2800053028572904
  0
ARC
  5
BBB2
  8
0
 10
4240.9770945647096596
 20
183.7740563628626944
 30
0.0
 40
2.2637582410121939
 50
227.0300494021489897
 51
240.3040582160489862
  0
ARC
  5
BBB3
  8
0
 10
4239.8417365042214442
 20
181.7820328980234876
 30
0.0
 40
0.0291052432925198
 50
334.9831604896356225
 51
61.4756383686605901
  0
LINE
  5
BBB4
  8
0
 10
4239.868111196573409
 20
181.7697247385127923
 30
0.0
 11
4239.8024363816948608
 21
181.6158207048127906
 31
0.0
  0
ARC
  5
BBB5
  8
0
 10
4239.7747116978625854
 20
181.6277083590669008
 30
0.0
 40
0.0301657822247856
 50
270.1159502824751257
 51
336.7915511870803016
  0
ARC
  5
BBB6
  8
0
 10
4239.3161100810857533
 20
181.6233221447263873
 30
0.0
 40
0.0263783532082276
 50
282.2319817916886109
 51
343.4782863218317743
  0
LINE
  5
BBB7
  8
0
 10
4239.3413993256726826
 20
181.6158207031128029
 30
0.0
 11
4239.3820362504711738
 21
181.7697763960127872
 31
0.0
  0
ARC
  5
BBB8
  8
0
 10
4239.3363616492251822
 20
181.7795646503325031
 30
0.0
 40
0.0467116862188762
 50
347.9043479986596026
 51
36.9759999397928425
  0
ARC
  5
BBB9
  8
0
 10
4240.3705467294003029
 20
182.8966851565483864
 30
0.0
 40
1.4763872186175739
 50
222.761412785699207
 51
227.5297355394050101
  0
ARC
  5
BBBA
  8
0
 10
4240.5774022718151173
 20
183.0791630596073105
 30
0.0
 40
1.752162701969578
 50
210.7889364509046004
 51
222.5498105701983036
  0
ARC
  5
BBBB
  8
0
 10
4240.6859502486031488
 20
183.1462257247744958
 30
0.0
 40
1.8797407423046959
 50
201.6519376584774079
 51
210.8513474119513091
  0
ARC
  5
BBBC
  8
0
 10
4240.8262739501124088
 20
183.1982735455096076
 30
0.0
 40
2.0293703282512601
 50
185.2377299520454983
 51
201.5559615310797028
  0
ARC
  5
BBBD
  8
0
 10
4243.7079528949925589
 20
183.3966909443460054
 30
0.0
 40
4.917565923398179
 50
179.409368044426202
 51
184.4748437701051103
  0
LINE
  5
BBBE
  8
0
 10
4238.790647839072335
 20
183.4473826391127886
 30
0.0
 11
4238.790647839072335
 21
184.2473826386128053
 31
0.0
  0
LINE
  5
BBBF
  8
0
 10
4238.2801288331420437
 20
184.2473826386128053
 30
0.0
 11
4238.2801288331420437
 21
184.2670676780128076
 31
0.0
  0
LINE
  5
BBC0
  8
0
 10
4238.8785540303415473
 20
184.2473826386128053
 30
0.0
 11
4238.8785540303415473
 21
184.2670676780128076
 31
0.0
  0
ARC
  5
BBC1
  8
0
 10
4238.2966103415419639
 20
184.8832047568128019
 30
0.0
 40
0.0393700786999993
 50
196.2517381479337075
 51
270.0
  0
LINE
  5
BBC2
  8
0
 10
4238.2966103415419639
 20
184.8438346781128132
 30
0.0
 11
4238.8620725215432685
 21
184.8438346781128132
 31
0.0
  0
ARC
  5
BBC3
  8
0
 10
4238.8620725215432685
 20
184.8832047568128019
 30
0.0
 40
0.0393700787000029
 50
270.0
 51
343.7390089444622276
  0
ARC
  5
BBC4
  8
0
 10
4245.7673505741886402
 20
181.6252913108710914
 30
0.0
 40
0.0277489917836417
 50
270.2749584564264751
 51
336.7418478715691776
  0
LINE
  5
BBC5
  8
0
 10
4245.7928445451580046
 20
181.614333939412802
 30
0.0
 11
4245.8619173856523048
 21
181.7761739768887992
 31
0.0
  0
ARC
  5
BBC6
  8
0
 10
4245.8355924038869489
 20
181.7865309299054957
 30
0.0
 40
0.0287429872340735
 50
0.001989331164234
 51
47.2893359918937932
  0
ARC
  5
BBC7
  8
0
 10
4247.1160887503438062
 20
183.2801491351667096
 30
0.0
 40
1.938652142766103
 50
205.322326287057507
 51
229.4243138229016949
  0
ARC
  5
BBC8
  8
0
 10
4247.6675823310661144
 20
183.5411019216286945
 30
0.0
 40
2.54876813693377
 50
183.3864675794575021
 51
205.322326287057507
  0
ARC
  5
BBC9
  8
0
 10
4298.0146874284491787
 20
185.474204274969992
 30
0.0
 40
52.9324496075853119
 50
181.6743905264411865
 51
182.2560028326890915
  0
LINE
  5
BBCA
  8
0
 10
4245.1048389085508461
 20
187.0393955828166952
 30
0.0
 11
4245.1048389085508461
 21
183.9275462451936107
 31
0.0
  0
ARC
  5
BBCB
  8
0
 10
4244.1783243049549128
 20
186.4278392080177014
 30
0.0
 40
1.115960481504535
 50
34.5364908190024167
 51
73.4636155541314366
  0
ARC
  5
BBCC
  8
0
 10
4245.0610230599750139
 20
187.0361977747627122
 30
0.0
 40
0.0439323862634437
 50
4.174211793874651
 51
33.6034585235312022
  0
LINE
  5
BBCD
  8
0
 10
4244.874661218133042
 20
183.7343339893963901
 30
0.0
 11
4244.874661218133042
 21
185.5208255577296086
 31
0.0
  0
ARC
  5
BBCE
  8
0
 10
4245.2768193521151261
 20
181.6221634262319071
 30
0.0
 40
0.0256748992536332
 50
286.4749362329204132
 51
342.2448228833562212
  0
LINE
  5
BBCF
  8
0
 10
4245.3012713109592369
 20
181.6143338566128023
 30
0.0
 11
4245.3440356821583919
 21
181.7763294682127935
 31
0.0
  0
ARC
  5
BBD0
  8
0
 10
4245.301018753734752
 20
181.7859954596879959
 30
0.0
 40
0.0440895398272428
 50
347.3358668994836194
 51
29.3611156941134688
  0
ARC
  5
BBD1
  8
0
 10
4247.1575716633669799
 20
183.0575194300178055
 30
0.0
 40
2.2063206763922238
 50
198.8336063980108861
 51
214.5073275809068036
  0
ARC
  5
BBD2
  8
0
 10
4248.2204529945884133
 20
183.4212739250210973
 30
0.0
 40
3.329723171987883
 50
184.6149710485958906
 51
198.8535464656781073
  0
ARC
  5
BBD3
  8
0
 10
4253.9031387420718602
 20
183.8607059324843078
 30
0.0
 40
9.0293618970698812
 50
180.8019188366099002
 51
184.4930231014122057
  0
LINE
  5
BBD4
  8
0
 10
4244.4848537921570824
 20
185.8971028968115888
 30
0.0
 11
4244.4848537921570824
 21
187.4992557369166946
 31
0.0
  0
LINE
  5
BBD5
  8
0
 10
4248.7658290409426627
 20
185.1290296780128131
 30
0.0
 11
4252.0149010661416469
 21
185.1290296780128131
 31
0.0
  0
LINE
  5
BBD6
  8
0
 10
4251.328687697659916
 20
184.8438346780127972
 30
0.0
 11
4252.0675961435417776
 21
184.8438346780127972
 31
0.0
  0
LINE
  5
BBD7
  8
0
 10
4250.0504786149440406
 20
184.2670676780128076
 30
0.0
 11
4250.730251492142088
 21
184.2670676780128076
 31
0.0
  0
LINE
  5
BBD8
  8
0
 10
4250.050548108752082
 20
184.2473826386128053
 30
0.0
 11
4250.7301819983322275
 21
184.2473826386128053
 31
0.0
  0
LINE
  5
BBD9
  8
0
 10
4249.1949337403430036
 20
181.5975426386127936
 30
0.0
 11
4251.585796370942262
 21
181.5975426386127936
 31
0.0
  0
LINE
  5
BBDA
  8
0
 10
4249.1140712847063696
 20
181.8076051766128103
 30
0.0
 11
4251.666660762049105
 21
181.8076051766128103
 31
0.0
  0
ARC
  5
BBDB
  8
0
 10
4252.0149010661307329
 20
185.0896595991767981
 30
0.0
 40
0.0393700788359841
 50
46.0000006008144382
 51
89.9999999824388652
  0
LINE
  5
BBDC
  8
0
 10
4252.0422498206417004
 20
185.1179800641127997
 30
0.0
 11
4252.0893227584456326
 21
185.0725222574334907
 31
0.0
  0
ARC
  5
BBDD
  8
0
 10
4252.0619741827031248
 20
185.04420192053351
 30
0.0
 40
0.0393698625507069
 50
2.0033257880044331
 51
46.0000583113133175
  0
LINE
  5
BBDE
  8
0
 10
4252.1013199823755713
 20
185.0455781927884971
 30
0.0
 11
4252.106966222241681
 21
184.8832047568128019
 31
0.0
  0
ARC
  5
BBDF
  8
0
 10
4252.0675961435417776
 20
184.8832047568128019
 30
0.0
 40
0.0393700787000011
 50
270.0
 51
359.9999999999984084
  0
ARC
  5
BBE0
  8
0
 10
4250.7302514921957481
 20
184.286752717281189
 30
0.0
 40
0.0196850392683706
 50
269.9999998429398147
 51
359.1527984542997842
  0
ARC
  5
BBE1
  8
0
 10
4251.3209769952600254
 20
184.2780173437442954
 30
0.0
 40
0.5711050475813751
 50
145.8717444988124896
 51
179.1527984542998126
  0
ARC
  5
BBE2
  8
0
 10
4251.3038611661468167
 20
184.2712336158249968
 30
0.0
 40
0.5609493038473287
 50
111.4573202077577037
 51
144.3171504544147865
  0
ARC
  5
BBE3
  8
0
 10
4251.4052469514663244
 20
183.9464963370458008
 30
0.0
 40
0.9005983663724919
 50
94.8765607477921833
 51
109.9027261633665944
  0
LINE
  5
BBE4
  8
0
 10
4250.69280419262941
 20
185.0762835060567966
 30
0.0
 11
4250.651736734307633
 21
185.1162896526643067
 31
0.0
  0
LINE
  5
BBE5
  8
0
 10
4250.7141045886601205
 20
184.7495429153620989
 30
0.0
 11
4250.7063601245235986
 21
185.0452920707517137
 31
0.0
  0
ARC
  5
BBE6
  8
0
 10
4250.6614685244630891
 20
185.0441165428410955
 30
0.0
 40
0.0449069885641677
 50
1.499999990124502
 51
45.750000061771253
  0
ARC
  5
BBE7
  8
0
 10
4250.6204010661431312
 20
185.0841226894486908
 30
0.0
 40
0.0449069885641677
 50
45.750000061771253
 51
90.0000000000521254
  0
ARC
  5
BBE8
  8
0
 10
4250.7716668270104492
 20
184.7451944294670056
 30
0.0
 40
0.0577262558413616
 50
175.6798492536138951
 51
222.3052949385611896
  0
ARC
  5
BBE9
  8
0
 10
4250.758518778029611
 20
184.7317736278187112
 30
0.0
 40
0.0389839326867493
 50
220.7238029800699053
 51
305.751528644684015
  0
ARC
  5
BBEA
  8
0
 10
4251.1090083120825511
 20
184.2558413559349901
 30
0.0
 40
0.5520806200288694
 50
115.566021854614803
 51
126.4125432762098029
  0
ARC
  5
BBEB
  8
0
 10
4251.2762795200342225
 20
183.849055966058188
 30
0.0
 40
0.9915297011216422
 50
95.4401281888839037
 51
114.1411722645809022
  0
ARC
  5
BBEC
  8
0
 10
4251.4125141717386214
 20
181.8598596803263092
 30
0.0
 40
2.9851519955562331
 50
91.6090017436745114
 51
94.4234705847769078
  0
LINE
  5
BBED
  8
0
 10
4252.1013200987417804
 20
185.0455757883127887
 30
0.0
 11
4248.6794119807682364
 21
185.0455757883127887
 31
0.0
  0
ARC
  5
BBEE
  8
0
 10
4250.7301800143131914
 20
184.2276975993835038
 30
0.0
 40
0.0196850392292899
 50
359.9999997941890797
 51
90.0000016611171105
  0
LINE
  5
BBEF
  8
0
 10
4250.7498650535417255
 20
184.2276975993835038
 30
0.0
 11
4250.7498650535417255
 21
183.4472697209816943
 31
0.0
  0
ARC
  5
BBF0
  8
0
 10
4263.8113982642462361
 20
183.4919297402578025
 30
0.0
 40
13.0616095612918404
 50
180.1959050751981124
 51
180.6472510322064124
  0
ARC
  5
BBF1
  8
0
 10
4254.9686097590520149
 20
183.3920315013974971
 30
0.0
 40
4.2182567917988818
 50
180.6472510322064124
 51
181.8172371686804922
  0
ARC
  5
BBF2
  8
0
 10
4253.0069609991023754
 20
183.3069802542669038
 30
0.0
 40
2.2550127979234489
 50
181.2378765871588087
 51
189.9217913387450096
  0
ARC
  5
BBF3
  8
0
 10
4252.0279244299772472
 20
183.1357272946783894
 30
0.0
 40
1.2611113038853221
 50
189.9217913387450096
 51
213.2722470516735882
  0
ARC
  5
BBF4
  8
0
 10
4252.5400636203248723
 20
183.471784867080288
 30
0.0
 40
1.8736643564933271
 50
213.2722470516735882
 51
226.2800053028572904
  0
ARC
  5
BBF5
  8
0
 10
4252.788120126380818
 20
183.7740563628626091
 30
0.0
 40
2.2637582410121508
 50
227.0300494021489897
 51
240.3040582160489862
  0
ARC
  5
BBF6
  8
0
 10
4251.6527620658926025
 20
181.7820328980234876
 30
0.0
 40
0.0291052432925202
 50
334.9831604896340878
 51
61.4756383686605901
  0
LINE
  5
BBF7
  8
0
 10
4251.6791367582427483
 20
181.7697247385127923
 30
0.0
 11
4251.6134619433651096
 21
181.6158207048127906
 31
0.0
  0
ARC
  5
BBF8
  8
0
 10
4251.5857372689151816
 20
181.6277083512285913
 30
0.0
 40
0.0301657705134104
 50
270.1122563377475103
 51
336.7915578478902034
  0
ARC
  5
BBF9
  8
0
 10
4251.1271356427569117
 20
181.6233221447263873
 30
0.0
 40
0.0263783532082276
 50
282.2319817916886109
 51
343.4782863218317743
  0
LINE
  5
BBFA
  8
0
 10
4251.1524248873429315
 20
181.6158207031128029
 30
0.0
 11
4251.1930618121432417
 21
181.7697763960127872
 31
0.0
  0
ARC
  5
BBFB
  8
0
 10
4251.14738721089725
 20
181.7795646503325031
 30
0.0
 40
0.0467116862188762
 50
347.9043479986596026
 51
36.9759999397928425
  0
ARC
  5
BBFC
  8
0
 10
4252.1815722910723707
 20
182.8966851565483864
 30
0.0
 40
1.4763872186175739
 50
222.761412785699207
 51
227.5297355394050101
  0
ARC
  5
BBFD
  8
0
 10
4252.3884278334862756
 20
183.0791630596073105
 30
0.0
 40
1.752162701969578
 50
210.7889364509046004
 51
222.5498105701983036
  0
ARC
  5
BBFE
  8
0
 10
4252.4969758102743072
 20
183.1462257247744958
 30
0.0
 40
1.8797407423046959
 50
201.6519376584774079
 51
210.8513474119513091
  0
ARC
  5
BBFF
  8
0
 10
4252.6372995117835671
 20
183.1982735455096076
 30
0.0
 40
2.0293703282512601
 50
185.2377299520454983
 51
201.5559615310797028
  0
ARC
  5
BC00
  8
0
 10
4255.5189784566646267
 20
183.3966909443460054
 30
0.0
 40
4.917565923398179
 50
179.409368044426202
 51
184.4748437701051103
  0
LINE
  5
BC01
  8
0
 10
4250.6016734007416744
 20
183.4473826391127886
 30
0.0
 11
4250.6016734007416744
 21
184.2473826386128053
 31
0.0
  0
LINE
  5
BC02
  8
0
 10
4249.4520443490946491
 20
184.8438346780127972
 30
0.0
 11
4248.713135903213697
 21
184.8438346780127972
 31
0.0
  0
ARC
  5
BC03
  8
0
 10
4248.7658309808066406
 20
185.0896595988965032
 30
0.0
 40
0.0393700791641478
 50
90.0028231099094995
 51
133.9999993063337911
  0
LINE
  5
BC04
  8
0
 10
4248.7384822261137742
 20
185.1179800641127997
 30
0.0
 11
4248.6914092883107514
 21
185.0725222574334907
 31
0.0
  0
ARC
  5
BC05
  8
0
 10
4248.7187578640532593
 20
185.04420192053351
 30
0.0
 40
0.0393698625507069
 50
133.9999416886865902
 51
177.9966742119956109
  0
LINE
  5
BC06
  8
0
 10
4248.6794120643799033
 20
185.0455781927884971
 30
0.0
 11
4248.6737658245137936
 21
184.8832047568128019
 31
0.0
  0
ARC
  5
BC07
  8
0
 10
4248.713135903213697
 20
184.8832047568128019
 30
0.0
 40
0.0393700787000011
 50
180.0000000000015916
 51
270.0
  0
ARC
  5
BC08
  8
0
 10
4250.050480554724345
 20
184.2867527173517033
 30
0.0
 40
0.0196850394344795
 50
180.8472017438747059
 51
269.9943540217569762
  0
ARC
  5
BC09
  8
0
 10
4249.4597550514963586
 20
184.2780173437442954
 30
0.0
 40
0.5711050475813751
 50
0.8472015457001488
 51
34.128255501187482
  0
ARC
  5
BC0A
  8
0
 10
4249.4768708806086579
 20
184.2712336158249968
 30
0.0
 40
0.5609493038473287
 50
35.6828495455864996
 51
68.5426797921937805
  0
ARC
  5
BC0B
  8
0
 10
4249.3754850952900597
 20
183.9464963370458008
 30
0.0
 40
0.9005983663724919
 50
70.0972738366333914
 51
85.1234392522078167
  0
LINE
  5
BC0C
  8
0
 10
4250.0879278541269741
 20
185.0762835060567966
 30
0.0
 11
4250.1289953124469321
 21
185.1162896526643067
 31
0.0
  0
LINE
  5
BC0D
  8
0
 10
4250.0666274580953541
 20
184.7495429153620989
 30
0.0
 11
4250.0743719222318759
 21
185.0452920707517137
 31
0.0
  0
ARC
  5
BC0E
  8
0
 10
4250.119263522293295
 20
185.0441165428410955
 30
0.0
 40
0.0449069885641677
 50
134.2499999382287115
 51
178.5000000098754924
  0
ARC
  5
BC0F
  8
0
 10
4250.1603309806132529
 20
185.0841226894486908
 30
0.0
 40
0.0449069885641677
 50
89.9999999999478888
 51
134.2499999382287115
  0
ARC
  5
BC10
  8
0
 10
4250.0090652197450254
 20
184.7451944294670056
 30
0.0
 40
0.0577262558413616
 50
317.6947050614388104
 51
4.320150746386064
  0
ARC
  5
BC11
  8
0
 10
4250.0222132687267731
 20
184.7317736278187112
 30
0.0
 40
0.0389839326867493
 50
234.2484713553160134
 51
319.2761970199301231
  0
ARC
  5
BC12
  8
0
 10
4249.671723734672014
 20
184.2558413559349901
 30
0.0
 40
0.5520806200288694
 50
53.5874567237902397
 51
64.4339781453852254
  0
ARC
  5
BC13
  8
0
 10
4249.5044525267221616
 20
183.849055966058188
 30
0.0
 40
0.9915297011216422
 50
65.8588277354191121
 51
84.5598718111160963
  0
ARC
  5
BC14
  8
0
 10
4249.3682178750177627
 20
181.8598596803263092
 30
0.0
 40
2.9851519955562331
 50
85.5765294152230922
 51
88.3909982563254886
  0
ARC
  5
BC15
  8
0
 10
4250.0505520331107618
 20
184.2276975991069037
 30
0.0
 40
0.0196850398970672
 50
90.011422334459553
 51
179.999999400724505
  0
LINE
  5
BC16
  8
0
 10
4250.0308669932128396
 20
184.2276975993835038
 30
0.0
 11
4250.0308669932128396
 21
183.4472697209816943
 31
0.0
  0
ARC
  5
BC17
  8
0
 10
4236.969333782510148
 20
183.4919297402578025
 30
0.0
 40
13.0616095612918404
 50
359.3527489677935023
 51
359.804094924801916
  0
ARC
  5
BC18
  8
0
 10
4245.8121222877016407
 20
183.3920315013974971
 30
0.0
 40
4.2182567917988818
 50
358.1827628313195078
 51
359.3527489677935023
  0
ARC
  5
BC19
  8
0
 10
4247.7737710476530992
 20
183.3069802542669038
 30
0.0
 40
2.2550127979234489
 50
350.0782086612549051
 51
358.7621234128412198
  0
ARC
  5
BC1A
  8
0
 10
4248.7528076167791369
 20
183.1357272946783894
 30
0.0
 40
1.2611113038853221
 50
326.7277529483263265
 51
350.0782086612549051
  0
ARC
  5
BC1B
  8
0
 10
4248.2406684264296928
 20
183.471784867080288
 30
0.0
 40
1.8736643564933271
 50
313.7199946971426812
 51
326.7277529483263265
  0
ARC
  5
BC1C
  8
0
 10
4247.9926119203746566
 20
183.7740563628626944
 30
0.0
 40
2.2637582410121939
 50
299.6959417839510138
 51
312.9699505978509819
  0
ARC
  5
BC1D
  8
0
 10
4249.1279699808637815
 20
181.7820328980234876
 30
0.0
 40
0.0291052432925198
 50
118.5243616313394028
 51
205.0168395103644059
  0
LINE
  5
BC1E
  8
0
 10
4249.1015952885136358
 20
181.7697247385127923
 30
0.0
 11
4249.1672701033912745
 21
181.6158207048127906
 31
0.0
  0
ARC
  5
BC1F
  8
0
 10
4249.1949947872226403
 20
181.6277083590669008
 30
0.0
 40
0.0301657822247856
 50
203.2084488129196984
 51
269.8840497175248743
  0
ARC
  5
BC20
  8
0
 10
4249.6535964039976534
 20
181.6233221447263873
 30
0.0
 40
0.0263783532082276
 50
196.521713678168112
 51
257.7680182083113891
  0
LINE
  5
BC21
  8
0
 10
4249.6283071594134526
 20
181.6158207031128029
 30
0.0
 11
4249.5876702346131424
 21
181.7697763960127872
 31
0.0
  0
ARC
  5
BC22
  8
0
 10
4249.633344835859134
 20
181.7795646503325031
 30
0.0
 40
0.0467116862188762
 50
143.0240000602071007
 51
192.0956520013403974
  0
ARC
  5
BC23
  8
0
 10
4248.5991597556831039
 20
182.8966851565483864
 30
0.0
 40
1.4763872186175739
 50
312.4702644605937962
 51
317.2385872143008214
  0
ARC
  5
BC24
  8
0
 10
4248.3923042132701084
 20
183.0791630596073105
 30
0.0
 40
1.752162701969578
 50
317.4501894298016964
 51
329.2110635490953996
  0
ARC
  5
BC25
  8
0
 10
4248.2837562364820769
 20
183.1462257247744958
 30
0.0
 40
1.8797407423046959
 50
329.1486525880471845
 51
338.3480623415226205
  0
ARC
  5
BC26
  8
0
 10
4248.1434325349719074
 20
183.1982735455096076
 30
0.0
 40
2.0293703282512601
 50
338.4440384689203256
 51
354.7622700479544733
  0
ARC
  5
BC27
  8
0
 10
4245.2617535900908479
 20
183.3966909443460054
 30
0.0
 40
4.917565923398179
 50
355.5251562298948897
 51
0.5906319555737632
  0
LINE
  5
BC28
  8
0
 10
4250.1790586460138002
 20
183.4473826391127886
 30
0.0
 11
4250.1790586460138002
 21
184.2473826386128053
 31
0.0
  0
LINE
  5
BC29
  8
0
 10
4250.689577651943182
 20
184.2473826386128053
 30
0.0
 11
4250.689577651943182
 21
184.2670676780128076
 31
0.0
  0
LINE
  5
BC2A
  8
0
 10
4250.0911524547418594
 20
184.2473826386128053
 30
0.0
 11
4250.0911524547418594
 21
184.2670676780128076
 31
0.0
  0
ARC
  5
BC2B
  8
0
 10
4250.6730961435423524
 20
184.8832047568128019
 30
0.0
 40
0.0393700786999993
 50
270.0
 51
343.7482618520662072
  0
LINE
  5
BC2C
  8
0
 10
4250.6730961435423524
 20
184.8438346781128132
 30
0.0
 11
4250.1076339635428667
 21
184.8438346781128132
 31
0.0
  0
ARC
  5
BC2D
  8
0
 10
4250.1076339635428667
 20
184.8832047568128019
 30
0.0
 40
0.0393700787000029
 50
196.2609910555378008
 51
270.0
  0
ARC
  5
BC2E
  8
0
 10
4244.4848532404930666
 20
185.7738417848127028
 30
0.0
 40
0.1232611120001477
 50
84.8155215665575071
 51
95.184478386769257
  0
ARC
  5
BC2F
  8
0
 10
4244.6144087681850579
 20
183.8632932306105943
 30
0.0
 40
2.0381672054212219
 50
93.9582491430942071
 51
111.3495030806561061
  0
ARC
  5
BC30
  8
0
 10
4243.8801271864222144
 20
185.7482298687365017
 30
0.0
 40
0.0154376329859999
 50
120.0288940004266038
 51
171.2769349599518875
  0
ARC
  5
BC31
  8
0
 10
4244.01585629589772
 20
185.7511573470050905
 30
0.0
 40
0.1512910435270494
 50
183.6260288370833109
 51
205.0594175863012936
  0
ARC
  5
BC32
  8
0
 10
4244.1262308417390159
 20
185.8232266720530106
 30
0.0
 40
0.2824103780838556
 50
208.8225998774470895
 51
230.3876613022212894
  0
ARC
  5
BC33
  8
0
 10
4244.3342261355091978
 20
186.1135876444820099
 30
0.0
 40
0.6391982332826901
 50
232.6198858813762058
 51
249.1542619613387046
  0
ARC
  5
BC34
  8
0
 10
4244.1275573401162546
 20
185.5750342787904117
 30
0.0
 40
0.0623717276241238
 50
250.5275104295861013
 51
262.4808135143994718
  0
ARC
  5
BC35
  8
0
 10
4244.5153499499538157
 20
189.5379424812722107
 30
0.0
 40
4.0441737097127914
 50
264.3813190717676207
 51
269.5679341608130244
  0
ARC
  5
BC36
  8
0
 10
4244.4773919991775983
 20
184.4294082765609915
 30
0.0
 40
1.392959472673392
 50
89.6930996989446641
 51
100.9242864272604976
  0
ARC
  5
BC37
  8
0
 10
4244.311778389634128
 20
185.2427188402359945
 30
0.0
 40
0.5630654992773046
 50
100.0612939947396995
 51
117.5001493399434054
  0
ARC
  5
BC38
  8
0
 10
4244.484481950990812
 20
187.0821896130472908
 30
0.0
 40
1.563992475706266
 50
266.0460854810041269
 51
270.0136019298346923
  0
ARC
  5
BC39
  8
0
 10
4244.4666963262789068
 20
186.8248691573049882
 30
0.0
 40
1.306058093760299
 50
257.9553334183307243
 51
266.0460854810041269
  0
ARC
  5
BC3A
  8
0
 10
4244.3225226984841356
 20
186.1491761544583881
 30
0.0
 40
0.6151550115212518
 50
246.6142038439641055
 51
257.9553334183307243
  0
ARC
  5
BC3B
  8
0
 10
4244.1704875523246301
 20
185.7976045654710049
 30
0.0
 40
0.2321181100994516
 50
227.2389919616730083
 51
246.6142038439641055
  0
ARC
  5
BC3C
  8
0
 10
4244.0557104560803054
 20
185.6734872507128102
 30
0.0
 40
0.0630651904414504
 50
182.9219448277978017
 51
227.2389919616718998
  0
ARC
  5
BC3D
  8
0
 10
4244.0430173007598569
 20
185.6700085923010022
 30
0.0
 40
0.0502907372139686
 50
154.5015220050009077
 51
179.6993519477105963
  0
ARC
  5
BC3E
  8
0
 10
4244.0799289327369479
 20
185.6503606042797969
 30
0.0
 40
0.0920837305374435
 50
127.5724367193757018
 51
153.3539446462563092
  0
ARC
  5
BC3F
  8
0
 10
4244.1844747530931272
 20
185.5144699072924084
 30
0.0
 40
0.263536668924801
 50
120.2322487511468978
 51
127.5724367193757018
  0
ARC
  5
BC40
  8
0
 10
4244.4833953532306623
 20
184.8173325952971027
 30
0.0
 40
0.9571955611570547
 50
89.9127338058681431
 51
100.1522263912731034
  0
ARC
  5
BC41
  8
0
 10
4244.392002592481731
 20
185.3277135666957918
 30
0.0
 40
0.4386964071718979
 50
100.1522263912731034
 51
115.1060287881645934
  0
ARC
  5
BC42
  8
0
 10
4244.2494203142332481
 20
185.6320107819121006
 30
0.0
 40
0.1026510214590273
 50
115.1060287881645934
 51
138.5302087400283142
  0
ARC
  5
BC43
  8
0
 10
4244.2045373064656815
 20
185.6716777454005864
 30
0.0
 40
0.0427515024411398
 50
138.5302087400283142
 51
173.2954592265571137
  0
ARC
  5
BC44
  8
0
 10
4244.1938529165972795
 20
185.6747951370184921
 30
0.0
 40
0.0318299557911389
 50
176.6250584763558891
 51
198.5439956476124905
  0
ARC
  5
BC45
  8
0
 10
4244.3686377337953672
 20
185.7324589906538961
 30
0.0
 40
0.2158808407566413
 50
198.3005218101201876
 51
220.4190690472663903
  0
ARC
  5
BC46
  8
0
 10
4244.3002965465357192
 20
185.6696757793339998
 30
0.0
 40
0.1231935728640562
 50
218.7967796040639996
 51
250.1167984933950095
  0
ARC
  5
BC47
  8
0
 10
4244.4183131432773735
 20
185.9638877702255968
 30
0.0
 40
0.4401403169964714
 50
248.6952922087872082
 51
261.6588532483273752
  0
ARC
  5
BC48
  8
0
 10
4244.5093335447572827
 20
186.5552544645074988
 30
0.0
 40
1.038464270302109
 50
261.4232664942775273
 51
266.5837639750686776
  0
ARC
  5
BC49
  8
0
 10
4244.4821398881422283
 20
184.867183485969008
 30
0.0
 40
0.8253038316014064
 50
89.8116282678042381
 51
99.3573956975319561
  0
ARC
  5
BC4A
  8
0
 10
4244.4219663348321774
 20
185.2323473835882055
 30
0.0
 40
0.4552152899759863
 50
99.3573956975319561
 51
111.0784314036702938
  0
ARC
  5
BC4B
  8
0
 10
4244.3058345747658677
 20
185.5336475322721128
 30
0.0
 40
0.1323091653936671
 50
111.0784314036702938
 51
135.054192703068793
  0
ARC
  5
BC4C
  8
0
 10
4244.2334651152341394
 20
185.6058802211094871
 30
0.0
 40
0.0300599599698661
 50
135.054192703068793
 51
175.4601499348777907
  0
ARC
  5
BC4D
  8
0
 10
4244.2382980362235685
 20
185.6054964796045113
 30
0.0
 40
0.0349080918610866
 50
175.460149934876199
 51
210.2122475032304862
  0
ARC
  5
BC4E
  8
0
 10
4244.0691967042721444
 20
185.6747853354706024
 30
0.0
 40
0.0670268337171198
 50
137.9370864790143969
 51
172.4577675344721115
  0
ARC
  5
BC4F
  8
0
 10
4244.0543830242913828
 20
185.6801162104505067
 30
0.0
 40
0.0517495217405532
 50
176.1586992802565135
 51
211.9539908715617003
  0
ARC
  5
BC50
  8
0
 10
4244.4339018251539528
 20
186.6028335986831053
 30
0.0
 40
1.0693053349858781
 50
256.5959289070819977
 51
262.1427348311441961
  0
ARC
  5
BC51
  8
0
 10
4244.327117991416344
 20
186.154743213037591
 30
0.0
 40
0.6086668858139869
 50
246.5732527482317948
 51
256.5959289070819977
  0
ARC
  5
BC52
  8
0
 10
4244.1774766969128905
 20
185.8093850049531
 30
0.0
 40
0.2322830273500084
 50
231.7476480581302951
 51
246.5732527482317948
  0
ARC
  5
BC53
  8
0
 10
4244.0970343194967427
 20
185.7073529506130001
 30
0.0
 40
0.10235413834803
 50
212.2545703581837984
 51
231.7476480581302951
  0
ARC
  5
BC54
  8
0
 10
4244.17327569587178
 20
185.637991361196498
 30
0.0
 40
0.1474698421685441
 50
123.2908439914528032
 51
132.115859298801297
  0
ARC
  5
BC55
  8
0
 10
4244.1239103372317913
 20
185.6905923836131933
 30
0.0
 40
0.0753568944012364
 50
131.0948293556228066
 51
155.4249998244845017
  0
ARC
  5
BC56
  8
0
 10
4244.2735675040394199
 20
185.9372776761192085
 30
0.0
 40
0.3411681343602227
 50
237.6634808169825988
 51
256.5179644722467174
  0
ARC
  5
BC57
  8
0
 10
4244.1486549118362746
 20
185.7399640495256961
 30
0.0
 40
0.1076390720789576
 50
213.5573630989019875
 51
237.6634808169825988
  0
ARC
  5
BC58
  8
0
 10
4244.0951517924468135
 20
185.7044740233789923
 30
0.0
 40
0.0434352891665388
 50
156.3009061645620079
 51
213.5573630989019875
  0
LINE
  5
BC59
  8
0
 10
4244.0517823743930421
 20
185.7421633602127997
 30
0.0
 11
4244.0517823743930421
 21
185.7068652411828964
 31
0.0
  0
ARC
  5
BC5A
  8
0
 10
4244.4846090297951378
 20
184.6653385098479987
 30
0.0
 40
1.1527690443324969
 50
89.9878620592292293
 51
96.008192988883593
  0
ARC
  5
BC5B
  8
0
 10
4244.446420765347284
 20
185.0281764728067913
 30
0.0
 40
0.7879269813714679
 50
96.008192988883593
 51
107.5502272921367961
  0
ARC
  5
BC5C
  8
0
 10
4244.2741267862229506
 20
185.5729574570738976
 30
0.0
 40
0.2165501039414734
 50
107.5502272921367961
 51
129.9949761570067039
  0
ARC
  5
BC5D
  8
0
 10
4244.1662724128036643
 20
185.7015161849051879
 30
0.0
 40
0.0487409493423899
 50
129.9949761570067039
 51
164.2971125450966099
  0
ARC
  5
BC5E
  8
0
 10
4244.1548584223155558
 20
185.7047251336084059
 30
0.0
 40
0.0368844519418537
 50
164.2971125450966099
 51
196.5786106353264984
  0
ARC
  5
BC5F
  8
0
 10
4244.5655565521019525
 20
185.8603570584187992
 30
0.0
 40
0.4759914122567707
 50
200.4306822787970077
 51
204.7882511305678861
  0
ARC
  5
BC60
  8
0
 10
4244.2111176716880436
 20
185.7032224558728899
 30
0.0
 40
0.0885281156374307
 50
208.6403227740287889
 51
238.5550264779701024
  0
ARC
  5
BC61
  8
0
 10
4244.3190632366458885
 20
185.8797539420245073
 30
0.0
 40
0.2954474491883392
 50
238.5550264779701024
 51
243.5152799193143949
  0
ARC
  5
BC62
  8
0
 10
4244.4820141049021913
 20
184.7374047631350038
 30
0.0
 40
1.046858951725862
 50
89.8446106992362843
 51
99.2108063525213737
  0
ARC
  5
BC63
  8
0
 10
4244.4060598918922551
 20
185.2058004688861104
 30
0.0
 40
0.5723449059486942
 50
99.2108063525213737
 51
111.4691893563550025
  0
ARC
  5
BC64
  8
0
 10
4244.2557029497029362
 20
185.5881065633018068
 30
0.0
 40
0.1615345362011096
 50
111.4691893563550025
 51
133.265808244229504
  0
ARC
  5
BC65
  8
0
 10
4244.1777361839313016
 20
185.6709418694323972
 30
0.0
 40
0.0477781978858429
 50
133.265808244229504
 51
162.3490804610744078
  0
ARC
  5
BC66
  8
0
 10
4244.1658128773269709
 20
185.674735831069313
 30
0.0
 40
0.0352658285960827
 50
162.3490804610744078
 51
189.9107396852542138
  0
ARC
  5
BC67
  8
0
 10
4244.1733979843502311
 20
185.6760611092936983
 30
0.0
 40
0.0429658422922803
 50
189.9107396852542138
 51
198.3157546424577902
  0
ARC
  5
BC68
  8
0
 10
4244.4846728780439662
 20
184.8654876389886965
 30
0.0
 40
0.8196949249848398
 50
90.2625863311323826
 51
94.1223844069644997
  0
ARC
  5
BC69
  8
0
 10
4244.4726744516847248
 20
185.0075473509278083
 30
0.0
 40
0.6771122082957448
 50
95.2654356766769155
 51
99.6354014540612667
  0
ARC
  5
BC6A
  8
0
 10
4244.4434742770681623
 20
185.1839777900563888
 30
0.0
 40
0.4982841868240625
 50
100.5172480306662948
 51
105.7569562437920041
  0
ARC
  5
BC6B
  8
0
 10
4244.3674101261776741
 20
185.4402742274878904
 30
0.0
 40
0.2308154262384159
 50
107.7543563201460017
 51
116.7494824733127956
  0
ARC
  5
BC6C
  8
0
 10
4244.3079081043179031
 20
185.5553599965303135
 30
0.0
 40
0.101203180087873
 50
118.5211347626974003
 51
133.7536249957121015
  0
ARC
  5
BC6D
  8
0
 10
4244.2574142775538348
 20
185.6044165290720969
 30
0.0
 40
0.0304915539905256
 50
140.6241682430205913
 51
175.6818243409115041
  0
ARC
  5
BC6E
  8
0
 10
4244.3072548197269498
 20
185.6048034903963071
 30
0.0
 40
0.0232289464101794
 50
141.7260506392603077
 51
175.2862476648082009
  0
ARC
  5
BC6F
  8
0
 10
4244.3414073581443517
 20
185.5740910257271139
 30
0.0
 40
0.0693852737098829
 50
117.8147665279421972
 51
134.1306181972938987
  0
ARC
  5
BC70
  8
0
 10
4244.3882181969493104
 20
185.4892448145517108
 30
0.0
 40
0.1663188923931135
 50
107.7850725966762013
 51
116.9006076854285965
  0
ARC
  5
BC71
  8
0
 10
4244.4466277049996279
 20
185.3026862596620958
 30
0.0
 40
0.3619122324649907
 50
100.4364312382008961
 51
105.7233535220160974
  0
ARC
  5
BC72
  8
0
 10
4244.4722982466673784
 20
185.1629604729261871
 30
0.0
 40
0.503986270190795
 50
95.3485075264692057
 51
99.6415910450646578
  0
ARC
  5
BC73
  8
0
 10
4244.4844431330348016
 20
185.0359922047877035
 30
0.0
 40
0.631548223943792
 50
90.3199717025672868
 51
93.9870158752431166
  0
ARC
  5
BC74
  8
0
 10
4244.484180817205015
 20
185.0786267051985874
 30
0.0
 40
0.5870876870780064
 50
90.3186029758032163
 51
99.1480809078512948
  0
ARC
  5
BC75
  8
0
 10
4244.4258078988159468
 20
185.4049306278211873
 30
0.0
 40
0.2555393074217889
 50
99.411150538036992
 51
114.9329251108355976
  0
ARC
  5
BC76
  8
0
 10
4244.335679569734566
 20
185.5914943954599892
 30
0.0
 40
0.048137246490557
 50
116.5722720016394049
 51
161.5704925613786997
  0
ARC
  5
BC77
  8
0
 10
4244.3718768588696548
 20
185.6018935798389009
 30
0.0
 40
0.0252271533768075
 50
109.1548994143169011
 51
168.9878651084092951
  0
ARC
  5
BC78
  8
0
 10
4244.4344707554291745
 20
185.4910582897265101
 30
0.0
 40
0.1522730101233669
 50
98.2676878558957441
 51
116.0763880414916969
  0
ARC
  5
BC79
  8
0
 10
4244.482489137909397
 20
185.2550045756788961
 30
0.0
 40
0.3930580597038642
 50
90.229281844028975
 51
99.237402018759866
  0
ARC
  5
BC7A
  8
0
 10
4244.4846938250420862
 20
185.2445486232280132
 30
0.0
 40
0.401703376716723
 50
89.9772622455658109
 51
98.928708548769535
  0
ARC
  5
BC7B
  8
0
 10
4244.4518588473647469
 20
185.4421076170943081
 30
0.0
 40
0.2013645724877212
 50
100.3943559603712004
 51
110.964561264608605
  0
ARC
  5
BC7C
  8
0
 10
4244.404026363596131
 20
185.5669462362768911
 30
0.0
 40
0.0676760264457006
 50
110.964561264608605
 51
133.440562305114014
  0
ARC
  5
BC7D
  8
0
 10
4244.3674260047409916
 20
185.6055951856830006
 30
0.0
 40
0.0144470159483019
 50
133.4405623051129055
 51
175.5648144560985884
  0
ARC
  5
BC7E
  8
0
 10
4244.4304803796858323
 20
185.6018874652988018
 30
0.0
 40
0.0151984013477483
 50
110.5544038433918956
 51
161.4904451056133041
  0
ARC
  5
BC7F
  8
0
 10
4244.4619922753672654
 20
185.5406690810062003
 30
0.0
 40
0.0839664439779386
 50
100.2498799889199006
 51
116.0300200986322068
  0
ARC
  5
BC80
  8
0
 10
4244.4837551274003999
 20
185.4295599715838989
 30
0.0
 40
0.1972294163316739
 50
89.6809929677921502
 51
98.7152190441678954
  0
ARC
  5
BC81
  8
0
 10
4244.4847766613338536
 20
185.5289976768382871
 30
0.0
 40
0.0850143639649635
 50
89.9483891543235075
 51
96.8583940953136846
  0
ARC
  5
BC82
  8
0
 10
4244.4839374160310399
 20
185.4433683666370882
 30
0.0
 40
0.1815953701396675
 50
89.7110438825271359
 51
98.5853815169050733
  0
ARC
  5
BC83
  8
0
 10
4244.4667213822076519
 20
185.536469546149192
 30
0.0
 40
0.0868655194956938
 50
101.0923757039115003
 51
113.4234841090501931
  0
ARC
  5
BC84
  8
0
 10
4244.4423867370487642
 20
185.5926404159106937
 30
0.0
 40
0.0256499858073208
 50
113.4234841090501931
 51
135.8183048019866987
  0
ARC
  5
BC85
  8
0
 10
4244.4294697364020976
 20
185.6051936234283914
 30
0.0
 40
0.0076379918953665
 50
135.8183048019843966
 51
168.530632373456001
  0
ARC
  5
BC86
  8
0
 10
4244.4745474302053481
 20
185.5823258592886873
 30
0.0
 40
0.0306128655582223
 50
102.7226623347641947
 51
115.0565817610620059
  0
ARC
  5
BC87
  8
0
 10
4244.4659056672890074
 20
185.6008104991435914
 30
0.0
 40
0.0102079157452014
 50
115.0565817610612953
 51
144.6781873706327985
  0
LINE
  5
BC88
  8
0
 10
4244.4257473700927221
 20
185.6830618280127965
 30
0.0
 11
4244.4405313271918203
 21
185.6660119762823911
 31
0.0
  0
LINE
  5
BC89
  8
0
 10
4244.48091623259279
 20
185.6851739556128109
 30
0.0
 11
4244.48091623259279
 21
185.6675305806128051
 31
0.0
  0
LINE
  5
BC8A
  8
0
 10
4244.48091623259279
 20
185.6657053156127972
 30
0.0
 11
4244.48091623259279
 21
185.6480594882127946
 31
0.0
  0
LINE
  5
BC8B
  8
0
 10
4244.3908417303928218
 20
185.6582470699127896
 30
0.0
 11
4244.4193932787929953
 21
185.6429653351127911
 31
0.0
  0
LINE
  5
BC8C
  8
0
 10
4244.4105359397926804
 20
185.681802308612788
 30
0.0
 11
4244.4253198968926881
 21
185.6647524569127938
 31
0.0
  0
LINE
  5
BC8D
  8
0
 10
4244.3593408090928278
 20
185.6751074067128116
 30
0.0
 11
4244.3878883894931278
 21
185.6598277958127881
 31
0.0
  0
LINE
  5
BC8E
  8
0
 10
4244.3525217113929102
 20
185.6738908044127925
 30
0.0
 11
4244.3810692917932101
 21
185.6586111934128098
 31
0.0
  0
LINE
  5
BC8F
  8
0
 10
4244.3840226326929042
 20
185.6570304675128114
 30
0.0
 11
4244.4125741810594263
 21
185.6417487328305924
 31
0.0
  0
LINE
  5
BC90
  8
0
 10
4244.308161569191725
 20
185.6635375902127976
 30
0.0
 11
4244.3485520911917774
 21
185.6510562325127864
 31
0.0
  0
LINE
  5
BC91
  8
0
 10
4244.337416551291426
 20
185.6476151614135972
 30
0.0
 11
4244.2970260292922831
 21
185.6600965191128125
 31
0.0
  0
LINE
  5
BC92
  8
0
 10
4244.2635223243923974
 20
185.6463884813128118
 30
0.0
 11
4244.3129681840919147
 21
185.6375667938127947
 31
0.0
  0
LINE
  5
BC93
  8
0
 10
4244.3090311761916382
 20
185.6354595767128046
 30
0.0
 11
4244.2595853165930748
 21
185.6442812642127933
 31
0.0
  0
LINE
  5
BC94
  8
0
 10
4244.2379201588928481
 20
185.6284610988128065
 30
0.0
 11
4244.2930946379929082
 21
185.6238926048127951
 31
0.0
  0
LINE
  5
BC95
  8
0
 10
4244.2890187475641142
 20
185.6191920144150913
 30
0.0
 11
4244.2338442683931135
 21
185.623760508312813
 31
0.0
  0
LINE
  5
BC96
  8
0
 10
4244.2270092799926715
 20
185.6067123923128008
 30
0.0
 11
4244.2841044407932714
 21
185.6067123923128008
 31
0.0
  0
LINE
  5
BC97
  8
0
 10
4244.2900111225153523
 20
185.6067123923128008
 30
0.0
 11
4244.3471142193930064
 21
185.6067123923128008
 31
0.0
  0
LINE
  5
BC98
  8
0
 10
4244.3141465126918774
 20
185.6345469442127865
 30
0.0
 11
4244.3635992451918355
 21
185.6257240305127993
 31
0.0
  0
LINE
  5
BC99
  8
0
 10
4244.3180835205921539
 20
185.6366541613128049
 30
0.0
 11
4244.3675362530930215
 21
185.6278312476127894
 31
0.0
  0
LINE
  5
BC9A
  8
0
 10
4244.3530222510917156
 20
185.6067123923128008
 30
0.0
 11
4244.4160681805924469
 21
185.6067123923247095
 31
0.0
  0
LINE
  5
BC9B
  8
0
 10
4244.4219842663924283
 20
185.6067123923128008
 30
0.0
 11
4244.4575768497916215
 21
185.6067123923128008
 31
0.0
  0
LINE
  5
BC9C
  8
0
 10
4244.4500092045927886
 20
185.6217122678127964
 30
0.0
 11
4244.4678054962923852
 21
185.6121871028128112
 31
0.0
  0
LINE
  5
BC9D
  8
0
 10
4244.4568283022917967
 20
185.6229288701127871
 30
0.0
 11
4244.4746245939932123
 21
185.6134037051128018
 31
0.0
  0
LINE
  5
BC9E
  8
0
 10
4244.4538702593927155
 20
185.6245121127128073
 30
0.0
 11
4244.4223472946923721
 21
185.6413842479128107
 31
0.0
  0
LINE
  5
BC9F
  8
0
 10
4244.4155281969924545
 20
185.6401676456127916
 30
0.0
 11
4244.4470511616918884
 21
185.6232955104127882
 31
0.0
  0
ARC
  5
BCA0
  8
0
 10
4244.4846728780439662
 20
186.3455039409369931
 30
0.0
 40
0.8196949249848398
 50
265.8776155930355003
 51
269.737413668867589
  0
ARC
  5
BCA1
  8
0
 10
4244.4726744516847248
 20
186.2034442289979097
 30
0.0
 40
0.6771122082957448
 50
260.3645985459388044
 51
264.7345643233231272
  0
ARC
  5
BCA2
  8
0
 10
4244.4434742770681623
 20
186.0270137898693008
 30
0.0
 40
0.4982841868240625
 50
254.2430437562080101
 51
259.4827519693337194
  0
ARC
  5
BCA3
  8
0
 10
4244.3674101261776741
 20
185.7707173524377993
 30
0.0
 40
0.2308154262384159
 50
243.2505175266871049
 51
252.245643679853913
  0
ARC
  5
BCA4
  8
0
 10
4244.3079081043179031
 20
185.6556315833954045
 30
0.0
 40
0.101203180087873
 50
226.2463750042878985
 51
241.4788652373025002
  0
ARC
  5
BCA5
  8
0
 10
4244.2574142775538348
 20
185.6065750508535928
 30
0.0
 40
0.0304915539905256
 50
184.3181756590884959
 51
219.3758317569794087
  0
ARC
  5
BCA6
  8
0
 10
4244.3072548197269498
 20
185.6061880895292973
 30
0.0
 40
0.0232289464101794
 50
184.7137523351917991
 51
218.2739493607396071
  0
ARC
  5
BCA7
  8
0
 10
4244.3414073581443517
 20
185.6369005541984905
 30
0.0
 40
0.0693852737098829
 50
225.8693818027061013
 51
242.1852334720576891
  0
ARC
  5
BCA8
  8
0
 10
4244.3882181969493104
 20
185.7217467653740073
 30
0.0
 40
0.1663188923931135
 50
243.0993923145713893
 51
252.2149274033237987
  0
ARC
  5
BCA9
  8
0
 10
4244.4466277049996279
 20
185.9083053202635938
 30
0.0
 40
0.3619122324649907
 50
254.2766464779838884
 51
259.5635687617991039
  0
ARC
  5
BCAA
  8
0
 10
4244.4722982466673784
 20
186.0480311069995025
 30
0.0
 40
0.503986270190795
 50
260.358408954935328
 51
264.6514924735308227
  0
ARC
  5
BCAB
  8
0
 10
4244.4844431330348016
 20
186.1749993751379009
 30
0.0
 40
0.631548223943792
 50
266.0129841247568834
 51
269.6800282974327274
  0
ARC
  5
BCAC
  8
0
 10
4244.484180817205015
 20
186.1323648747271022
 30
0.0
 40
0.5870876870780064
 50
260.8519190921487052
 51
269.6813970241968264
  0
ARC
  5
BCAD
  8
0
 10
4244.4258078988159468
 20
185.8060609521045023
 30
0.0
 40
0.2555393074217889
 50
245.0670748891643029
 51
260.5888494619629796
  0
ARC
  5
BCAE
  8
0
 10
4244.335679569734566
 20
185.6194971844655868
 30
0.0
 40
0.048137246490557
 50
198.4295074386211866
 51
243.4277279983606093
  0
ARC
  5
BCAF
  8
0
 10
4244.3718768588696548
 20
185.6090980000867035
 30
0.0
 40
0.0252271533768075
 50
191.0121348915905912
 51
250.8451005856830989
  0
ARC
  5
BCB0
  8
0
 10
4244.4344707554291745
 20
185.7199332901990942
 30
0.0
 40
0.1522730101233669
 50
243.9236119585081894
 51
261.7323121441041849
  0
ARC
  5
BCB1
  8
0
 10
4244.482489137909397
 20
185.9559870042467082
 30
0.0
 40
0.3930580597038642
 50
260.7625979812401056
 51
269.7707181559711103
  0
ARC
  5
BCB2
  8
0
 10
4244.4846938250420862
 20
185.9664429566977049
 30
0.0
 40
0.401703376716723
 50
261.0712914512304792
 51
270.0227377544342175
  0
ARC
  5
BCB3
  8
0
 10
4244.4518588473647469
 20
185.7688839628312962
 30
0.0
 40
0.2013645724877212
 50
249.0354387353912955
 51
259.6056440396288281
  0
ARC
  5
BCB4
  8
0
 10
4244.404026363596131
 20
185.6440453436487985
 30
0.0
 40
0.0676760264457006
 50
226.559437694885986
 51
249.0354387353912955
  0
ARC
  5
BCB5
  8
0
 10
4244.3674260047409916
 20
185.605396394242689
 30
0.0
 40
0.0144470159483019
 50
184.4351855439014116
 51
226.5594376948870945
  0
ARC
  5
BCB6
  8
0
 10
4244.4304803796858323
 20
185.6091041146268878
 30
0.0
 40
0.0151984013477483
 50
198.5095548943866959
 51
249.4455961566081044
  0
ARC
  5
BCB7
  8
0
 10
4244.4619922753672654
 20
185.6703224989194041
 30
0.0
 40
0.0839664439779386
 50
243.969979901367708
 51
259.7501200110801278
  0
ARC
  5
BCB8
  8
0
 10
4244.4837551274003999
 20
185.7814316083417907
 30
0.0
 40
0.1972294163316739
 50
261.2847809558321046
 51
270.3190070322078213
  0
ARC
  5
BCB9
  8
0
 10
4244.4847766613338536
 20
185.6819939030872888
 30
0.0
 40
0.0850143639649635
 50
263.141605904686287
 51
270.051610845676521
  0
ARC
  5
BCBA
  8
0
 10
4244.4839374160310399
 20
185.7676232132886014
 30
0.0
 40
0.1815953701396675
 50
261.4146184830948982
 51
270.2889561174728783
  0
ARC
  5
BCBB
  8
0
 10
4244.4667213822076519
 20
185.6745220337764977
 30
0.0
 40
0.0868655194956938
 50
246.5765158909497927
 51
258.9076242960884997
  0
ARC
  5
BCBC
  8
0
 10
4244.4423867370487642
 20
185.6183511640149959
 30
0.0
 40
0.0256499858073208
 50
224.1816951980133013
 51
246.5765158909497927
  0
ARC
  5
BCBD
  8
0
 10
4244.4294697364020976
 20
185.6057979564972982
 30
0.0
 40
0.0076379918953665
 50
191.469367626543999
 51
224.1816951980156034
  0
ARC
  5
BCBE
  8
0
 10
4244.4745474302053481
 20
185.6286657206368886
 30
0.0
 40
0.0306128655582223
 50
244.9434182389379941
 51
257.2773376652357911
  0
ARC
  5
BCBF
  8
0
 10
4244.4659056672890074
 20
185.6101810807820129
 30
0.0
 40
0.0102079157452014
 50
215.3218126293670878
 51
244.9434182389387047
  0
LINE
  5
BCC0
  8
0
 10
4244.4257473700927221
 20
185.5279297519128079
 30
0.0
 11
4244.4405313271918203
 21
185.5449796036432133
 31
0.0
  0
LINE
  5
BCC1
  8
0
 10
4244.48091623259279
 20
185.5258176243127934
 30
0.0
 11
4244.48091623259279
 21
185.5434609993127992
 31
0.0
  0
LINE
  5
BCC2
  8
0
 10
4244.48091623259279
 20
185.5452862643128071
 30
0.0
 11
4244.48091623259279
 21
185.5629320917128098
 31
0.0
  0
LINE
  5
BCC3
  8
0
 10
4244.3908417303928218
 20
185.5527445100127863
 30
0.0
 11
4244.4193932787929953
 21
185.5680262448128133
 31
0.0
  0
LINE
  5
BCC4
  8
0
 10
4244.4105359397926804
 20
185.5291892713127879
 30
0.0
 11
4244.4253198968926881
 21
185.5462391230128105
 31
0.0
  0
LINE
  5
BCC5
  8
0
 10
4244.3593408090928278
 20
185.5358841732127928
 30
0.0
 11
4244.3878883894931278
 21
185.5511637841127879
 31
0.0
  0
LINE
  5
BCC6
  8
0
 10
4244.3525217113929102
 20
185.5371007755128119
 30
0.0
 11
4244.3810692917932101
 21
185.5523803865127945
 31
0.0
  0
LINE
  5
BCC7
  8
0
 10
4244.3840226326929042
 20
185.553961112412793
 30
0.0
 11
4244.4125741810594263
 21
185.5692428470950972
 31
0.0
  0
LINE
  5
BCC8
  8
0
 10
4244.308161569191725
 20
185.5474539897128068
 30
0.0
 11
4244.3485520911917774
 21
185.5599353474127895
 31
0.0
  0
LINE
  5
BCC9
  8
0
 10
4244.337416551291426
 20
185.5633764185120071
 30
0.0
 11
4244.2970260292922831
 21
185.5508950608127918
 31
0.0
  0
LINE
  5
BCCA
  8
0
 10
4244.2635223243923974
 20
185.5646030986127926
 30
0.0
 11
4244.3129681840919147
 21
185.5734247861128097
 31
0.0
  0
LINE
  5
BCCB
  8
0
 10
4244.3090311761916382
 20
185.5755320032127997
 30
0.0
 11
4244.2595853165930748
 21
185.5667103157128111
 31
0.0
  0
LINE
  5
BCCC
  8
0
 10
4244.2379201588928481
 20
185.5825304811127978
 30
0.0
 11
4244.2930946379929082
 21
185.5870989751128093
 31
0.0
  0
LINE
  5
BCCD
  8
0
 10
4244.2890187475641142
 20
185.591799565510513
 30
0.0
 11
4244.2338442683931135
 21
185.5872310716127913
 31
0.0
  0
LINE
  5
BCCE
  8
0
 10
4244.2270092799926715
 20
185.6042791876128035
 30
0.0
 11
4244.2841044407932714
 21
185.6042791876128035
 31
0.0
  0
LINE
  5
BCCF
  8
0
 10
4244.2900111225153523
 20
185.6042791876128035
 30
0.0
 11
4244.3471142193930064
 21
185.6042791876128035
 31
0.0
  0
LINE
  5
BCD0
  8
0
 10
4244.3141465126918774
 20
185.5764446357127895
 30
0.0
 11
4244.3635992451918355
 21
185.585267549412805
 31
0.0
  0
LINE
  5
BCD1
  8
0
 10
4244.3180835205921539
 20
185.5743374186127994
 30
0.0
 11
4244.3675362530930215
 21
185.5831603323127865
 31
0.0
  0
LINE
  5
BCD2
  8
0
 10
4244.3530222510917156
 20
185.6042791876128035
 30
0.0
 11
4244.4160681805924469
 21
185.6042791876010085
 31
0.0
  0
LINE
  5
BCD3
  8
0
 10
4244.4219842663924283
 20
185.6042791876128035
 30
0.0
 11
4244.4575768497916215
 21
185.6042791876128035
 31
0.0
  0
LINE
  5
BCD4
  8
0
 10
4244.4500092045927886
 20
185.5892793121128079
 30
0.0
 11
4244.4678054962923852
 21
185.5988044771127932
 31
0.0
  0
LINE
  5
BCD5
  8
0
 10
4244.4568283022917967
 20
185.5880627098127889
 30
0.0
 11
4244.4746245939932123
 21
185.5975878748128025
 31
0.0
  0
LINE
  5
BCD6
  8
0
 10
4244.4538702593927155
 20
185.5864794672127971
 30
0.0
 11
4244.4223472946923721
 21
185.5696073320127937
 31
0.0
  0
LINE
  5
BCD7
  8
0
 10
4244.4155281969924545
 20
185.5708239343128128
 30
0.0
 11
4244.4470511616918884
 21
185.5876960695127877
 31
0.0
  0
ARC
  5
BCD8
  8
0
 10
4244.4850336027402591
 20
184.8654876389886965
 30
0.0
 40
0.8196949249848398
 50
85.8776155930355145
 51
89.7374136688676032
  0
ARC
  5
BCD9
  8
0
 10
4244.49703202910041
 20
185.0075473509278083
 30
0.0
 40
0.6771122082957448
 50
80.3645985459387333
 51
84.7345643233230845
  0
ARC
  5
BCDA
  8
0
 10
4244.5262322037160629
 20
185.1839777900563888
 30
0.0
 40
0.4982841868240625
 50
74.2430437562079533
 51
79.4827519693337194
  0
ARC
  5
BCDB
  8
0
 10
4244.6022963546065512
 20
185.4402742274878904
 30
0.0
 40
0.2308154262384159
 50
63.2505175266871333
 51
72.2456436798539414
  0
ARC
  5
BCDC
  8
0
 10
4244.6617983764663222
 20
185.5553599965303135
 30
0.0
 40
0.101203180087873
 50
46.2463750042878772
 51
61.4788652373025712
  0
ARC
  5
BCDD
  8
0
 10
4244.7122922032312999
 20
185.6044165290720969
 30
0.0
 40
0.0304915539905256
 50
4.318175659088463
 51
39.3758317569794585
  0
ARC
  5
BCDE
  8
0
 10
4244.662451661058185
 20
185.6048034903963071
 30
0.0
 40
0.0232289464101794
 50
4.7137523351917938
 51
38.2739493607396781
  0
ARC
  5
BCDF
  8
0
 10
4244.628299122640783
 20
185.5740910257271139
 30
0.0
 40
0.0693852737098829
 50
45.8693818027061013
 51
62.1852334720577389
  0
ARC
  5
BCE0
  8
0
 10
4244.5814882838349149
 20
185.4892448145517108
 30
0.0
 40
0.1663188923931135
 50
63.0993923145713893
 51
72.2149274033237702
  0
ARC
  5
BCE1
  8
0
 10
4244.5230787757845974
 20
185.3026862596620958
 30
0.0
 40
0.3619122324649907
 50
74.276646477983931
 51
79.5635687617990328
  0
ARC
  5
BCE2
  8
0
 10
4244.4974082341168469
 20
185.1629604729261871
 30
0.0
 40
0.503986270190795
 50
80.358408954935328
 51
84.6514924735307943
  0
ARC
  5
BCE3
  8
0
 10
4244.4852633477512427
 20
185.0359922047877035
 30
0.0
 40
0.631548223943792
 50
86.0129841247568976
 51
89.6800282974327274
  0
ARC
  5
BCE4
  8
0
 10
4244.4855256635792102
 20
185.0786267051985874
 30
0.0
 40
0.5870876870780064
 50
80.8519190921487194
 51
89.6813970241968264
  0
ARC
  5
BCE5
  8
0
 10
4244.5438985819691879
 20
185.4049306278211873
 30
0.0
 40
0.2555393074217889
 50
65.0670748891644024
 51
80.5888494619630364
  0
ARC
  5
BCE6
  8
0
 10
4244.6340269110496592
 20
185.5914943954599892
 30
0.0
 40
0.048137246490557
 50
18.4295074386212789
 51
63.4277279983606093
  0
ARC
  5
BCE7
  8
0
 10
4244.5978296219163894
 20
185.6018935798389009
 30
0.0
 40
0.0252271533768075
 50
11.0121348915906605
 51
70.8451005856831131
  0
ARC
  5
BCE8
  8
0
 10
4244.5352357253559603
 20
185.4910582897265101
 30
0.0
 40
0.1522730101233669
 50
63.9236119585082534
 51
81.7323121441042559
  0
ARC
  5
BCE9
  8
0
 10
4244.4872173428766473
 20
185.2550045756788961
 30
0.0
 40
0.3930580597038642
 50
80.762597981240134
 51
89.7707181559710392
  0
ARC
  5
BCEA
  8
0
 10
4244.4850126557430485
 20
185.2445486232280132
 30
0.0
 40
0.401703376716723
 50
81.071291451230465
 51
90.0227377544341749
  0
ARC
  5
BCEB
  8
0
 10
4244.5178476334212974
 20
185.4421076170943081
 30
0.0
 40
0.2013645724877212
 50
69.0354387353913239
 51
79.6056440396288139
  0
ARC
  5
BCEC
  8
0
 10
4244.5656801171890038
 20
185.5669462362768911
 30
0.0
 40
0.0676760264457006
 50
46.5594376948859576
 51
69.0354387353913239
  0
ARC
  5
BCED
  8
0
 10
4244.6022804760450526
 20
185.6055951856830006
 30
0.0
 40
0.0144470159483019
 50
4.4351855439014054
 51
46.5594376948870732
  0
ARC
  5
BCEE
  8
0
 10
4244.5392261010993025
 20
185.6018874652988018
 30
0.0
 40
0.0151984013477483
 50
18.5095548943867314
 51
69.4455961566080759
  0
ARC
  5
BCEF
  8
0
 10
4244.5077142054178694
 20
185.5406690810062003
 30
0.0
 40
0.0839664439779386
 50
63.9699799013677932
 51
79.7501200110800852
  0
ARC
  5
BCF0
  8
0
 10
4244.4859513533856443
 20
185.4295599715838989
 30
0.0
 40
0.1972294163316739
 50
81.2847809558321046
 51
90.3190070322078356
  0
ARC
  5
BCF1
  8
0
 10
4244.4849298194521907
 20
185.5289976768382871
 30
0.0
 40
0.0850143639649635
 50
83.1416059046863296
 51
90.0516108456764925
  0
ARC
  5
BCF2
  8
0
 10
4244.4857690647550044
 20
185.4433683666370882
 30
0.0
 40
0.1815953701396675
 50
81.4146184830949267
 51
90.2889561174728641
  0
ARC
  5
BCF3
  8
0
 10
4244.5029850985765734
 20
185.536469546149192
 30
0.0
 40
0.0868655194956938
 50
66.5765158909498354
 51
78.9076242960884855
  0
ARC
  5
BCF4
  8
0
 10
4244.5273197437363706
 20
185.5926404159106937
 30
0.0
 40
0.0256499858073208
 50
44.1816951980132799
 51
66.5765158909498354
  0
ARC
  5
BCF5
  8
0
 10
4244.5402367443830371
 20
185.6051936234283914
 30
0.0
 40
0.0076379918953665
 50
11.4693676265439706
 51
44.1816951980156105
  0
ARC
  5
BCF6
  8
0
 10
4244.4951590505806962
 20
185.5823258592886873
 30
0.0
 40
0.0306128655582223
 50
64.9434182389379941
 51
77.2773376652357484
  0
ARC
  5
BCF7
  8
0
 10
4244.5038008134970369
 20
185.6008104991435914
 30
0.0
 40
0.0102079157452014
 50
35.3218126293671517
 51
64.9434182389386905
  0
LINE
  5
BCF8
  8
0
 10
4244.5439591106924127
 20
185.6830618280127965
 30
0.0
 11
4244.529175153592405
 21
185.6660119762823911
 31
0.0
  0
LINE
  5
BCF9
  8
0
 10
4244.4887902481932542
 20
185.6851739556128109
 30
0.0
 11
4244.4887902481932542
 21
185.6675305806128051
 31
0.0
  0
LINE
  5
BCFA
  8
0
 10
4244.4887902481932542
 20
185.6657053156127972
 30
0.0
 11
4244.4887902481932542
 21
185.6480594882127946
 31
0.0
  0
LINE
  5
BCFB
  8
0
 10
4244.5788647503932225
 20
185.6582470699127896
 30
0.0
 11
4244.550313201993049
 21
185.6429653351127911
 31
0.0
  0
LINE
  5
BCFC
  8
0
 10
4244.5591705409924543
 20
185.681802308612788
 30
0.0
 11
4244.5443865838924467
 21
185.6647524569127938
 31
0.0
  0
LINE
  5
BCFD
  8
0
 10
4244.6103656716932164
 20
185.6751074067128116
 30
0.0
 11
4244.5818180912929165
 21
185.6598277958127881
 31
0.0
  0
LINE
  5
BCFE
  8
0
 10
4244.617184769393134
 20
185.6738908044127925
 30
0.0
 11
4244.5886371889919246
 21
185.6586111934128098
 31
0.0
  0
LINE
  5
BCFF
  8
0
 10
4244.5856838480931401
 20
185.6570304675128114
 30
0.0
 11
4244.5571322997257084
 21
185.6417487328305924
 31
0.0
  0
LINE
  5
BD00
  8
0
 10
4244.6615449115915908
 20
185.6635375902127976
 30
0.0
 11
4244.6211543895933573
 21
185.6510562325127864
 31
0.0
  0
LINE
  5
BD01
  8
0
 10
4244.6322899294946183
 20
185.6476151614135972
 30
0.0
 11
4244.6726804514919422
 21
185.6600965191128125
 31
0.0
  0
LINE
  5
BD02
  8
0
 10
4244.7061841563927373
 20
185.6463884813128118
 30
0.0
 11
4244.65673829669322
 21
185.6375667938127947
 31
0.0
  0
LINE
  5
BD03
  8
0
 10
4244.6606753045925871
 20
185.6354595767128046
 30
0.0
 11
4244.71012116419206
 21
185.6442812642127933
 31
0.0
  0
LINE
  5
BD04
  8
0
 10
4244.7317863218931961
 20
185.6284610988128065
 30
0.0
 11
4244.676611842793136
 21
185.6238926048127951
 31
0.0
  0
LINE
  5
BD05
  8
0
 10
4244.6806877332201111
 20
185.6191920144150913
 30
0.0
 11
4244.7358622123929308
 21
185.623760508312813
 31
0.0
  0
LINE
  5
BD06
  8
0
 10
4244.7426972007915538
 20
185.6067123923128008
 30
0.0
 11
4244.6856020399918634
 21
185.6067123923128008
 31
0.0
  0
LINE
  5
BD07
  8
0
 10
4244.6796953582706919
 20
185.6067123923128008
 30
0.0
 11
4244.6225922613930379
 21
185.6067123923128008
 31
0.0
  0
LINE
  5
BD08
  8
0
 10
4244.6555599680932573
 20
185.6345469442127865
 30
0.0
 11
4244.6061072355923898
 21
185.6257240305127993
 31
0.0
  0
LINE
  5
BD09
  8
0
 10
4244.6516229601929808
 20
185.6366541613128049
 30
0.0
 11
4244.6021702276921133
 21
185.6278312476127894
 31
0.0
  0
LINE
  5
BD0A
  8
0
 10
4244.6166842296934192
 20
185.6067123923128008
 30
0.0
 11
4244.5536383001917784
 21
185.6067123923247095
 31
0.0
  0
LINE
  5
BD0B
  8
0
 10
4244.5477222143927065
 20
185.6067123923128008
 30
0.0
 11
4244.5121296309926038
 21
185.6067123923128008
 31
0.0
  0
LINE
  5
BD0C
  8
0
 10
4244.5196972761932557
 20
185.6217122678127964
 30
0.0
 11
4244.5019009844918401
 21
185.6121871028128112
 31
0.0
  0
LINE
  5
BD0D
  8
0
 10
4244.5128781784924286
 20
185.6229288701127871
 30
0.0
 11
4244.4950818867928319
 21
185.6134037051128018
 31
0.0
  0
LINE
  5
BD0E
  8
0
 10
4244.5158362213924192
 20
185.6245121127128073
 30
0.0
 11
4244.5473591860927627
 21
185.6413842479128107
 31
0.0
  0
LINE
  5
BD0F
  8
0
 10
4244.5541782837926803
 20
185.6401676456127916
 30
0.0
 11
4244.5226553190941559
 21
185.6232955104127882
 31
0.0
  0
ARC
  5
BD10
  8
0
 10
4244.4850336027402591
 20
186.3455039409369931
 30
0.0
 40
0.8196949249848398
 50
270.262586331132411
 51
274.1223844069644997
  0
ARC
  5
BD11
  8
0
 10
4244.49703202910041
 20
186.2034442289979097
 30
0.0
 40
0.6771122082957448
 50
275.2654356766768728
 51
279.6354014540613093
  0
ARC
  5
BD12
  8
0
 10
4244.5262322037160629
 20
186.0270137898693008
 30
0.0
 40
0.4982841868240625
 50
280.5172480306662806
 51
285.7569562437919899
  0
ARC
  5
BD13
  8
0
 10
4244.6022963546065512
 20
185.7707173524377993
 30
0.0
 40
0.2308154262384159
 50
287.754356320146087
 51
296.7494824733129235
  0
ARC
  5
BD14
  8
0
 10
4244.6617983764663222
 20
185.6556315833954045
 30
0.0
 40
0.101203180087873
 50
298.5211347626973861
 51
313.7536249957120731
  0
ARC
  5
BD15
  8
0
 10
4244.7122922032312999
 20
185.6065750508535928
 30
0.0
 40
0.0304915539905256
 50
320.624168243020506
 51
355.6818243409114757
  0
ARC
  5
BD16
  8
0
 10
4244.662451661058185
 20
185.6061880895292973
 30
0.0
 40
0.0232289464101794
 50
321.7260506392602792
 51
355.2862476648081724
  0
ARC
  5
BD17
  8
0
 10
4244.628299122640783
 20
185.6369005541984905
 30
0.0
 40
0.0693852737098829
 50
297.8147665279421972
 51
314.1306181972939271
  0
ARC
  5
BD18
  8
0
 10
4244.5814882838349149
 20
185.7217467653740073
 30
0.0
 40
0.1663188923931135
 50
287.7850725966761729
 51
296.9006076854286107
  0
ARC
  5
BD19
  8
0
 10
4244.5230787757845974
 20
185.9083053202635938
 30
0.0
 40
0.3619122324649907
 50
280.4364312382010098
 51
285.7233535220161116
  0
ARC
  5
BD1A
  8
0
 10
4244.4974082341168469
 20
186.0480311069995025
 30
0.0
 40
0.503986270190795
 50
275.3485075264691773
 51
279.641591045064672
  0
ARC
  5
BD1B
  8
0
 10
4244.4852633477512427
 20
186.1749993751379009
 30
0.0
 40
0.631548223943792
 50
270.3199717025672726
 51
273.9870158752431166
  0
ARC
  5
BD1C
  8
0
 10
4244.4855256635792102
 20
186.1323648747271022
 30
0.0
 40
0.5870876870780064
 50
270.3186029758031736
 51
279.1480809078512948
  0
ARC
  5
BD1D
  8
0
 10
4244.5438985819691879
 20
185.8060609521045023
 30
0.0
 40
0.2555393074217889
 50
279.4111505380370204
 51
294.9329251108355834
  0
ARC
  5
BD1E
  8
0
 10
4244.6340269110496592
 20
185.6194971844655868
 30
0.0
 40
0.048137246490557
 50
296.5722720016394192
 51
341.5704925613787282
  0
ARC
  5
BD1F
  8
0
 10
4244.5978296219163894
 20
185.6090980000867035
 30
0.0
 40
0.0252271533768075
 50
289.1548994143169011
 51
348.9878651084093235
  0
ARC
  5
BD20
  8
0
 10
4244.5352357253559603
 20
185.7199332901990942
 30
0.0
 40
0.1522730101233669
 50
278.2676878558957014
 51
296.0763880414917821
  0
ARC
  5
BD21
  8
0
 10
4244.4872173428766473
 20
185.9559870042467082
 30
0.0
 40
0.3930580597038642
 50
270.2292818440290034
 51
279.2374020187598944
  0
ARC
  5
BD22
  8
0
 10
4244.4850126557430485
 20
185.9664429566977049
 30
0.0
 40
0.401703376716723
 50
269.9772622455657825
 51
278.9287085487695208
  0
ARC
  5
BD23
  8
0
 10
4244.5178476334212974
 20
185.7688839628312962
 30
0.0
 40
0.2013645724877212
 50
280.3943559603711719
 51
290.9645612646086761
  0
ARC
  5
BD24
  8
0
 10
4244.5656801171890038
 20
185.6440453436487985
 30
0.0
 40
0.0676760264457006
 50
290.9645612646086761
 51
313.4405623051140992
  0
ARC
  5
BD25
  8
0
 10
4244.6022804760450526
 20
185.605396394242689
 30
0.0
 40
0.0144470159483019
 50
313.4405623051129055
 51
355.5648144560985884
  0
ARC
  5
BD26
  8
0
 10
4244.5392261010993025
 20
185.6091041146268878
 30
0.0
 40
0.0151984013477483
 50
290.5544038433919241
 51
341.4904451056132757
  0
ARC
  5
BD27
  8
0
 10
4244.5077142054178694
 20
185.6703224989194041
 30
0.0
 40
0.0839664439779386
 50
280.2498799889198722
 51
296.0300200986321784
  0
ARC
  5
BD28
  8
0
 10
4244.4859513533856443
 20
185.7814316083417907
 30
0.0
 40
0.1972294163316739
 50
269.6809929677921787
 51
278.7152190441678954
  0
ARC
  5
BD29
  8
0
 10
4244.4849298194521907
 20
185.6819939030872888
 30
0.0
 40
0.0850143639649635
 50
269.948389154323479
 51
276.858394095313713
  0
ARC
  5
BD2A
  8
0
 10
4244.4857690647550044
 20
185.7676232132886014
 30
0.0
 40
0.1815953701396675
 50
269.7110438825271217
 51
278.5853815169051018
  0
ARC
  5
BD2B
  8
0
 10
4244.5029850985765734
 20
185.6745220337764977
 30
0.0
 40
0.0868655194956938
 50
281.092375703911614
 51
293.4234841090502073
  0
ARC
  5
BD2C
  8
0
 10
4244.5273197437363706
 20
185.6183511640149959
 30
0.0
 40
0.0256499858073208
 50
293.4234841090502073
 51
315.8183048019866987
  0
ARC
  5
BD2D
  8
0
 10
4244.5402367443830371
 20
185.6057979564972982
 30
0.0
 40
0.0076379918953665
 50
315.818304801984425
 51
348.530632373456001
  0
ARC
  5
BD2E
  8
0
 10
4244.4951590505806962
 20
185.6286657206368886
 30
0.0
 40
0.0306128655582223
 50
282.7226623347642089
 51
295.0565817610619774
  0
ARC
  5
BD2F
  8
0
 10
4244.5038008134970369
 20
185.6101810807820129
 30
0.0
 40
0.0102079157452014
 50
295.0565817610612953
 51
324.6781873706328838
  0
LINE
  5
BD30
  8
0
 10
4244.5439591106924127
 20
185.5279297519128079
 30
0.0
 11
4244.529175153592405
 21
185.5449796036432133
 31
0.0
  0
LINE
  5
BD31
  8
0
 10
4244.4887902481932542
 20
185.5258176243127934
 30
0.0
 11
4244.4887902481932542
 21
185.5434609993127992
 31
0.0
  0
LINE
  5
BD32
  8
0
 10
4244.4887902481932542
 20
185.5452862643128071
 30
0.0
 11
4244.4887902481932542
 21
185.5629320917128098
 31
0.0
  0
LINE
  5
BD33
  8
0
 10
4244.5788647503932225
 20
185.5527445100127863
 30
0.0
 11
4244.550313201993049
 21
185.5680262448128133
 31
0.0
  0
LINE
  5
BD34
  8
0
 10
4244.5591705409924543
 20
185.5291892713127879
 30
0.0
 11
4244.5443865838924467
 21
185.5462391230128105
 31
0.0
  0
LINE
  5
BD35
  8
0
 10
4244.6103656716932164
 20
185.5358841732127928
 30
0.0
 11
4244.5818180912929165
 21
185.5511637841127879
 31
0.0
  0
LINE
  5
BD36
  8
0
 10
4244.617184769393134
 20
185.5371007755128119
 30
0.0
 11
4244.5886371889919246
 21
185.5523803865127945
 31
0.0
  0
LINE
  5
BD37
  8
0
 10
4244.5856838480931401
 20
185.553961112412793
 30
0.0
 11
4244.5571322997257084
 21
185.5692428470950972
 31
0.0
  0
LINE
  5
BD38
  8
0
 10
4244.6615449115915908
 20
185.5474539897128068
 30
0.0
 11
4244.6211543895933573
 21
185.5599353474127895
 31
0.0
  0
LINE
  5
BD39
  8
0
 10
4244.6322899294946183
 20
185.5633764185120071
 30
0.0
 11
4244.6726804514919422
 21
185.5508950608127918
 31
0.0
  0
LINE
  5
BD3A
  8
0
 10
4244.7061841563927373
 20
185.5646030986127926
 30
0.0
 11
4244.65673829669322
 21
185.5734247861128097
 31
0.0
  0
LINE
  5
BD3B
  8
0
 10
4244.6606753045925871
 20
185.5755320032127997
 30
0.0
 11
4244.71012116419206
 21
185.5667103157128111
 31
0.0
  0
LINE
  5
BD3C
  8
0
 10
4244.7317863218931961
 20
185.5825304811127978
 30
0.0
 11
4244.676611842793136
 21
185.5870989751128093
 31
0.0
  0
LINE
  5
BD3D
  8
0
 10
4244.6806877332201111
 20
185.591799565510513
 30
0.0
 11
4244.7358622123929308
 21
185.5872310716127913
 31
0.0
  0
LINE
  5
BD3E
  8
0
 10
4244.7426972007915538
 20
185.6042791876128035
 30
0.0
 11
4244.6856020399918634
 21
185.6042791876128035
 31
0.0
  0
LINE
  5
BD3F
  8
0
 10
4244.6796953582706919
 20
185.6042791876128035
 30
0.0
 11
4244.6225922613930379
 21
185.6042791876128035
 31
0.0
  0
LINE
  5
BD40
  8
0
 10
4244.6555599680932573
 20
185.5764446357127895
 30
0.0
 11
4244.6061072355923898
 21
185.585267549412805
 31
0.0
  0
LINE
  5
BD41
  8
0
 10
4244.6516229601929808
 20
185.5743374186127994
 30
0.0
 11
4244.6021702276921133
 21
185.5831603323127865
 31
0.0
  0
LINE
  5
BD42
  8
0
 10
4244.6166842296934192
 20
185.6042791876128035
 30
0.0
 11
4244.5536383001917784
 21
185.6042791876010085
 31
0.0
  0
LINE
  5
BD43
  8
0
 10
4244.5477222143927065
 20
185.6042791876128035
 30
0.0
 11
4244.5121296309926038
 21
185.6042791876128035
 31
0.0
  0
LINE
  5
BD44
  8
0
 10
4244.5196972761932557
 20
185.5892793121128079
 30
0.0
 11
4244.5019009844918401
 21
185.5988044771127932
 31
0.0
  0
LINE
  5
BD45
  8
0
 10
4244.5128781784924286
 20
185.5880627098127889
 30
0.0
 11
4244.4950818867928319
 21
185.5975878748128025
 31
0.0
  0
LINE
  5
BD46
  8
0
 10
4244.5158362213924192
 20
185.5864794672127971
 30
0.0
 11
4244.5473591860927627
 21
185.5696073320127937
 31
0.0
  0
LINE
  5
BD47
  8
0
 10
4244.5541782837926803
 20
185.5708239343128128
 30
0.0
 11
4244.5226553190941559
 21
185.5876960695127877
 31
0.0
  0
ARC
  5
BD48
  8
0
 10
4244.4848532402929777
 20
185.7738417848127028
 30
0.0
 40
0.1232611120001477
 50
84.8155216132307572
 51
95.1844784334425071
  0
ARC
  5
BD49
  8
0
 10
4244.3552977125991674
 20
183.8632932306105943
 30
0.0
 40
2.0381672054212219
 50
68.6504969193439081
 51
86.0417508569058356
  0
ARC
  5
BD4A
  8
0
 10
4245.0903180530813188
 20
185.7487323791638971
 30
0.0
 40
0.0146380173872919
 50
7.2540381091140249
 51
61.4904651515152381
  0
ARC
  5
BD4B
  8
0
 10
4244.9538353143052518
 20
185.75116267175801
 30
0.0
 40
0.1513067696758858
 50
334.9411409654243243
 51
356.3723281541267056
  0
ARC
  5
BD4C
  8
0
 10
4244.8434756390461189
 20
185.8232266720530106
 30
0.0
 40
0.2824103780838556
 50
309.6123386977786822
 51
331.1774001225529105
  0
ARC
  5
BD4D
  8
0
 10
4244.6354803452768465
 20
186.1135876444820099
 30
0.0
 40
0.6391982332826901
 50
290.8457380386611817
 51
307.3801141186239079
  0
ARC
  5
BD4E
  8
0
 10
4244.8421491406697896
 20
185.5750342787904117
 30
0.0
 40
0.0623717276241238
 50
277.5191864856005282
 51
289.4724895704139271
  0
ARC
  5
BD4F
  8
0
 10
4244.4543565308322286
 20
189.5379424812724096
 30
0.0
 40
4.0441737097129939
 50
270.4320658391869756
 51
275.6186809282323793
  0
ARC
  5
BD50
  8
0
 10
4244.4923144816066269
 20
184.4294082765609915
 30
0.0
 40
1.392959472673392
 50
79.0757135727395308
 51
90.3069003010553502
  0
ARC
  5
BD51
  8
0
 10
4244.6579280911510068
 20
185.2427188402359945
 30
0.0
 40
0.5630654992773046
 50
62.4998506600565307
 51
79.938706005260272
  0
ARC
  5
BD52
  8
0
 10
4244.4852245297943227
 20
187.0821896130472908
 30
0.0
 40
1.563992475706266
 50
269.986398070165194
 51
273.9539145189958731
  0
ARC
  5
BD53
  8
0
 10
4244.5030101545071375
 20
186.8248691573049882
 30
0.0
 40
1.306058093760299
 50
273.9539145189958731
 51
282.0446665816692757
  0
ARC
  5
BD54
  8
0
 10
4244.6471837823009992
 20
186.1491761544583881
 30
0.0
 40
0.6151550115212518
 50
282.0446665816692757
 51
293.3857961560358945
  0
ARC
  5
BD55
  8
0
 10
4244.7992189284614142
 20
185.7976045654710049
 30
0.0
 40
0.2321181100994516
 50
293.3857961560358945
 51
312.7610080383270201
  0
ARC
  5
BD56
  8
0
 10
4244.9139960247048293
 20
185.6734872507128102
 30
0.0
 40
0.0630651904414504
 50
312.7610080383281002
 51
357.0780551722021983
  0
ARC
  5
BD57
  8
0
 10
4244.9266891800252779
 20
185.6700085923010022
 30
0.0
 40
0.0502907372139686
 50
0.3006480522893379
 51
25.4984779949991314
  0
ARC
  5
BD58
  8
0
 10
4244.8897775480481869
 20
185.6503606042797969
 30
0.0
 40
0.0920837305374435
 50
26.6460553537436908
 51
52.4275632806242697
  0
ARC
  5
BD59
  8
0
 10
4244.785231727692917
 20
185.5144699072924084
 30
0.0
 40
0.263536668924801
 50
52.4275632806242697
 51
59.7677512488530169
  0
ARC
  5
BD5A
  8
0
 10
4244.486311127553563
 20
184.8173325952971027
 30
0.0
 40
0.9571955611570547
 50
79.8477736087268681
 51
90.0872661941318569
  0
ARC
  5
BD5B
  8
0
 10
4244.5777038883043133
 20
185.3277135666957918
 30
0.0
 40
0.4386964071718979
 50
64.8939712118353924
 51
79.8477736087268681
  0
ARC
  5
BD5C
  8
0
 10
4244.7202861665527962
 20
185.6320107819121006
 30
0.0
 40
0.1026510214590273
 50
41.4697912599717
 51
64.8939712118353924
  0
ARC
  5
BD5D
  8
0
 10
4244.7651691743203628
 20
185.6716777454005864
 30
0.0
 40
0.0427515024411398
 50
6.7045407734429174
 51
41.4697912599717
  0
ARC
  5
BD5E
  8
0
 10
4244.7758535641869457
 20
185.6747951370184921
 30
0.0
 40
0.0318299557911389
 50
341.4560043523874242
 51
3.3749415236440701
  0
ARC
  5
BD5F
  8
0
 10
4244.6010687469897675
 20
185.7324589906538961
 30
0.0
 40
0.2158808407566413
 50
319.5809309527335813
 51
341.6994781898798124
  0
ARC
  5
BD60
  8
0
 10
4244.6694099342494155
 20
185.6696757793339998
 30
0.0
 40
0.1231935728640562
 50
289.8832015066050189
 51
321.2032203959360004
  0
ARC
  5
BD61
  8
0
 10
4244.5513933375086708
 20
185.9638877702255968
 30
0.0
 40
0.4401403169964714
 50
278.3411467516726248
 51
291.3047077912128202
  0
ARC
  5
BD62
  8
0
 10
4244.4603729360287616
 20
186.5552544645074988
 30
0.0
 40
1.038464270302109
 50
273.4162360249313224
 51
278.5767335057224727
  0
ARC
  5
BD63
  8
0
 10
4244.4875665926429065
 20
184.867183485969008
 30
0.0
 40
0.8253038316014064
 50
80.6426043024680723
 51
90.1883717321957619
  0
ARC
  5
BD64
  8
0
 10
4244.5477401459529574
 20
185.2323473835882055
 30
0.0
 40
0.4552152899759863
 50
68.921568596329692
 51
80.6426043024680723
  0
ARC
  5
BD65
  8
0
 10
4244.6638719060183575
 20
185.5336475322721128
 30
0.0
 40
0.1323091653936671
 50
44.9458072969311502
 51
68.921568596329692
  0
ARC
  5
BD66
  8
0
 10
4244.7362413655519049
 20
185.6058802211094871
 30
0.0
 40
0.0300599599698661
 50
4.5398500651222014
 51
44.9458072969311502
  0
ARC
  5
BD67
  8
0
 10
4244.7314084445606568
 20
185.6054964796045113
 30
0.0
 40
0.0349080918610866
 50
329.787752496769599
 51
4.5398500651238241
  0
ARC
  5
BD68
  8
0
 10
4244.9005097765129904
 20
185.6747853354706024
 30
0.0
 40
0.0670268337171198
 50
7.5422324655278343
 51
42.0629135209855605
  0
ARC
  5
BD69
  8
0
 10
4244.9153234564946615
 20
185.6801162104505067
 30
0.0
 40
0.0517495217405532
 50
328.0460091284382997
 51
3.8413007197434612
  0
ARC
  5
BD6A
  8
0
 10
4244.535804655631182
 20
186.6028335986831053
 30
0.0
 40
1.0693053349858781
 50
277.8572651688559176
 51
283.4040710929178886
  0
ARC
  5
BD6B
  8
0
 10
4244.6425884893687908
 20
186.154743213037591
 30
0.0
 40
0.6086668858139869
 50
283.4040710929178886
 51
293.4267472517681767
  0
ARC
  5
BD6C
  8
0
 10
4244.7922297838731538
 20
185.8093850049531
 30
0.0
 40
0.2322830273500084
 50
293.4267472517681767
 51
308.2523519418696765
  0
ARC
  5
BD6D
  8
0
 10
4244.8726721612893016
 20
185.7073529506130001
 30
0.0
 40
0.10235413834803
 50
308.2523519418696765
 51
327.7454296418162016
  0
ARC
  5
BD6E
  8
0
 10
4244.7964307849133547
 20
185.637991361196498
 30
0.0
 40
0.1474698421685441
 50
47.8841407011986391
 51
56.7091560085471471
  0
ARC
  5
BD6F
  8
0
 10
4244.8457961435542529
 20
185.6905923836131933
 30
0.0
 40
0.0753568944012364
 50
24.5750001755154592
 51
48.9051706443772005
  0
ARC
  5
BD70
  8
0
 10
4244.6961389767466244
 20
185.9372776761192085
 30
0.0
 40
0.3411681343602227
 50
283.4820355277532826
 51
302.3365191830174012
  0
ARC
  5
BD71
  8
0
 10
4244.8210515689488602
 20
185.7399640495256961
 30
0.0
 40
0.1076390720789576
 50
302.3365191830174012
 51
326.4426369010980125
  0
ARC
  5
BD72
  8
0
 10
4244.8745546883392308
 20
185.7044740233789923
 30
0.0
 40
0.0434352891665388
 50
326.4426369010980125
 51
23.6990938354379708
  0
LINE
  5
BD73
  8
0
 10
4244.9179241063930021
 20
185.7421633602127997
 30
0.0
 11
4244.9179241063930021
 21
185.7068652411828964
 31
0.0
  0
ARC
  5
BD74
  8
0
 10
4244.4850974509890875
 20
184.6653385098479987
 30
0.0
 40
1.1527690443324969
 50
83.991807011116407
 51
90.0121379407707565
  0
ARC
  5
BD75
  8
0
 10
4244.5232857154378507
 20
185.0281764728067913
 30
0.0
 40
0.7879269813714679
 50
72.4497727078632039
 51
83.991807011116407
  0
ARC
  5
BD76
  8
0
 10
4244.6955796945630937
 20
185.5729574570738976
 30
0.0
 40
0.2165501039414734
 50
50.0050238429933387
 51
72.4497727078632039
  0
ARC
  5
BD77
  8
0
 10
4244.8034340679823799
 20
185.7015161849051879
 30
0.0
 40
0.0487409493423899
 50
15.7028874549034292
 51
50.0050238429933387
  0
ARC
  5
BD78
  8
0
 10
4244.81484805846776
 20
185.7047251336084059
 30
0.0
 40
0.0368844519418537
 50
343.4213893646734732
 51
15.7028874549034292
  0
ARC
  5
BD79
  8
0
 10
4244.4041499286831822
 20
185.8603570584187992
 30
0.0
 40
0.4759914122567707
 50
335.2117488694321992
 51
339.5693177212029923
  0
ARC
  5
BD7A
  8
0
 10
4244.7585888090970911
 20
185.7032224558728899
 30
0.0
 40
0.0885281156374307
 50
301.4449735220300113
 51
331.3596772259712111
  0
ARC
  5
BD7B
  8
0
 10
4244.6506432441374272
 20
185.8797539420245073
 30
0.0
 40
0.2954474491883392
 50
296.4847200806855767
 51
301.4449735220300113
  0
ARC
  5
BD7C
  8
0
 10
4244.4876923758838529
 20
184.7374047631350038
 30
0.0
 40
1.046858951725862
 50
80.7891936474786405
 51
90.1553893007637157
  0
ARC
  5
BD7D
  8
0
 10
4244.5636465888919702
 20
185.2058004688861104
 30
0.0
 40
0.5723449059486942
 50
68.5308106436449691
 51
80.7891936474786405
  0
ARC
  5
BD7E
  8
0
 10
4244.7140035310821986
 20
185.5881065633018068
 30
0.0
 40
0.1615345362011096
 50
46.7341917557705102
 51
68.5308106436449691
  0
ARC
  5
BD7F
  8
0
 10
4244.7919702968547426
 20
185.6709418694323972
 30
0.0
 40
0.0477781978858429
 50
17.6509195389255602
 51
46.7341917557705102
  0
ARC
  5
BD80
  8
0
 10
4244.8038936034581639
 20
185.674735831069313
 30
0.0
 40
0.0352658285960827
 50
350.0892603147456725
 51
17.6509195389255602
  0
ARC
  5
BD81
  8
0
 10
4244.7963084964349036
 20
185.6760611092936983
 30
0.0
 40
0.0429658422922803
 50
341.6842453575421814
 51
350.0892603147456725
  0
ARC
  5
BD82
  8
0
 10
4243.1381215963856448
 20
181.788815929602805
 30
0.0
 40
0.0328295043101911
 50
183.9893827701889961
 51
202.64864481101921
  0
ARC
  5
BD83
  8
0
 10
4245.8346311589875768
 20
181.7880050035549004
 30
0.0
 40
0.0297407356583107
 50
336.5589420808266254
 51
357.1609455642288822
  0
ENDSEC
  0
EOF
