  0
SECTION
  2
HEADER
  9
$ACADVER
  1
AC1009
  9
$INSBASE
 10
4245.6280029763347557
 20
181.5978913953690039
 30
0.0
  9
$EXTMIN
 10
4237.0850396819041634
 20
181.5862475228962865
 30
-0.0015258207003583
  9
$EXTMAX
 10
4247.1296668228142153
 20
194.0200116470115859
 30
0.0000000349246037
  9
$LIMMIN
 10
0.0
 20
0.0
  9
$LIMMAX
 10
11.6929133858000007
 20
8.2677165353999982
  9
$ORTHOMODE
 70
     1
  9
$REGENMODE
 70
     1
  9
$FILLMODE
 70
     1
  9
$QTEXTMODE
 70
     0
  9
$MIRRTEXT
 70
     0
  9
$DRAGMODE
 70
     2
  9
$LTSCALE
 40
0.6431102362
  9
$OSMODE
 70
  4095
  9
$ATTMODE
 70
     1
  9
$TEXTSIZE
 40
0.2
  9
$TRACEWID
 40
0.05
  9
$TEXTSTYLE
  7
STANDARD
  9
$CLAYER
  8
0
  9
$CELTYPE
  6
BYLAYER
  9
$CECOLOR
 62
   256
  9
$DIMSCALE
 40
1.0
  9
$DIMASZ
 40
0.1875
  9
$DIMEXO
 40
0.0625
  9
$DIMDLI
 40
0.4443307087
  9
$DIMRND
 40
0.0
  9
$DIMDLE
 40
0.0
  9
$DIMEXE
 40
0.125
  9
$DIMTP
 40
0.01
  9
$DIMTM
 40
0.01
  9
$DIMTXT
 40
2.0
  9
$DIMCEN
 40
0.1052362205
  9
$DIMTSZ
 40
0.0
  9
$DIMTOL
 70
     1
  9
$DIMLIM
 70
     0
  9
$DIMTIH
 70
     1
  9
$DIMTOH
 70
     1
  9
$DIMSE1
 70
     0
  9
$DIMSE2
 70
     0
  9
$DIMTAD
 70
     0
  9
$DIMZIN
 70
     0
  9
$DIMBLK
  1

  9
$DIMASO
 70
     1
  9
$DIMSHO
 70
     1
  9
$DIMPOST
  1
\X
  9
$DIMAPOST
  1

  9
$DIMALT
 70
     1
  9
$DIMALTD
 70
     2
  9
$DIMALTF
 40
25.3999999999999986
  9
$DIMLFAC
 40
1.0
  9
$DIMTOFL
 70
     0
  9
$DIMTVP
 40
0.0
  9
$DIMTIX
 70
     0
  9
$DIMSOXD
 70
     0
  9
$DIMSAH
 70
     0
  9
$DIMBLK1
  1

  9
$DIMBLK2
  1

  9
$DIMSTYLE
  2
STANDARD
  9
$DIMCLRD
 70
     0
  9
$DIMCLRE
 70
     0
  9
$DIMCLRT
 70
     0
  9
$DIMTFAC
 40
1.0
  9
$DIMGAP
 40
0.09
  9
$LUNITS
 70
     2
  9
$LUPREC
 70
     4
  9
$SKETCHINC
 40
0.1
  9
$FILLETRAD
 40
0.0
  9
$AUNITS
 70
     0
  9
$AUPREC
 70
     0
  9
$MENU
  1
.
  9
$ELEVATION
 40
0.0
  9
$PELEVATION
 40
0.0
  9
$THICKNESS
 40
0.0
  9
$LIMCHECK
 70
     0
  9
$BLIPMODE
 70
     0
  9
$CHAMFERA
 40
0.0
  9
$CHAMFERB
 40
0.0
  9
$SKPOLY
 70
     0
  9
$TDCREATE
 40
2458060.468368056230247
  9
$TDUPDATE
 40
2459463.3828125
  9
$TDINDWG
 40
0.4257246528
  9
$TDUSRTIMER
 40
0.4257246528
  9
$USRTIMER
 70
     1
  9
$ANGBASE
 50
0.0
  9
$ANGDIR
 70
     0
  9
$PDMODE
 70
     0
  9
$PDSIZE
 40
0.3125
  9
$PLINEWID
 40
0.0
  9
$COORDS
 70
     1
  9
$SPLFRAME
 70
     0
  9
$SPLINETYPE
 70
     6
  9
$SPLINESEGS
 70
     8
  9
$ATTDIA
 70
     1
  9
$ATTREQ
 70
     1
  9
$HANDLING
 70
     1
  9
$HANDSEED
  5
C857
  9
$SURFTAB1
 70
     6
  9
$SURFTAB2
 70
     6
  9
$SURFTYPE
 70
     6
  9
$SURFU
 70
     6
  9
$SURFV
 70
     6
  9
$UCSNAME
  2

  9
$UCSORG
 10
0.0
 20
0.0
 30
0.0
  9
$UCSXDIR
 10
1.0
 20
0.0
 30
0.0
  9
$UCSYDIR
 10
0.0
 20
1.0
 30
0.0
  9
$PUCSNAME
  2

  9
$PUCSORG
 10
0.0
 20
0.0
 30
0.0
  9
$PUCSXDIR
 10
1.0
 20
0.0
 30
0.0
  9
$PUCSYDIR
 10
0.0
 20
1.0
 30
0.0
  9
$USERI1
 70
     0
  9
$USERI2
 70
     0
  9
$USERI3
 70
     0
  9
$USERI4
 70
     0
  9
$USERI5
 70
     0
  9
$USERR1
 40
0.0
  9
$USERR2
 40
0.0
  9
$USERR3
 40
0.0
  9
$USERR4
 40
0.0
  9
$USERR5
 40
0.0
  9
$WORLDVIEW
 70
     1
  9
$SHADEDGE
 70
     3
  9
$SHADEDIF
 70
    70
  9
$TILEMODE
 70
     1
  9
$MAXACTVP
 70
    64
  9
$PLIMCHECK
 70
     0
  9
$PEXTMIN
 10
1.0000000000000000E+20
 20
1.0000000000000000E+20
 30
1.0000000000000000E+20
  9
$PEXTMAX
 10
-1.0000000000000000E+20
 20
-1.0000000000000000E+20
 30
-1.0000000000000000E+20
  9
$PLIMMIN
 10
0.0
 20
0.0
  9
$PLIMMAX
 10
12.0
 20
9.0
  9
$UNITMODE
 70
     0
  9
$VISRETAIN
 70
     1
  9
$PLINEGEN
 70
     0
  9
$PSLTSCALE
 70
     1
  0
ENDSEC
  0
SECTION
  2
TABLES
  0
TABLE
  2
VPORT
 70
     1
  0
VPORT
  2
*ACTIVE
 70
     0
 10
0.0
 20
0.0
 11
1.0
 21
1.0
 12
438.5632858695461778
 22
61.807867388204059
 13
0.0
 23
0.0
 14
1.0
 24
1.0
 15
0.0
 25
0.0
 16
0.0
 26
0.0
 36
17.1152628219792007
 17
3803.5440673828129547
 27
125.9952621967499056
 37
0.0
 40
12.5420407347752594
 41
2.7718023255813948
 42
50.0
 43
0.0
 44
0.0
 50
0.0
 51
0.0
 71
     0
 72
   100
 73
     1
 74
     1
 75
     0
 76
     0
 77
     0
 78
     0
  0
ENDTAB
  0
TABLE
  2
LTYPE
 70
     2
  0
LTYPE
  2
CONTINUOUS
 70
     0
  3
Solid line
 72
    65
 73
     0
 40
0.0
  0
LTYPE
  2
PHANTOM2
 70
     0
  3
___ _ _ ___ _ _ ___ _ _ ___ _ _
 72
    65
 73
     6
 40
1.25
 49
0.625
 49
-0.125
 49
0.125
 49
-0.125
 49
0.125
 49
-0.125
  0
ENDTAB
  0
TABLE
  2
LAYER
 70
     2
  0
LAYER
  2
0
 70
     0
 62
   255
  6
CONTINUOUS
  0
LAYER
  2
DEFPOINTS
 70
     0
 62
     7
  6
CONTINUOUS
  0
ENDTAB
  0
TABLE
  2
STYLE
 70
     1
  0
STYLE
  2
STANDARD
 70
     0
 40
0.0
 41
0.8
 50
0.0
 71
     0
 42
0.2
  3
txt
  4

  0
ENDTAB
  0
TABLE
  2
VIEW
 70
     0
  0
ENDTAB
  0
TABLE
  2
UCS
 70
     0
  0
ENDTAB
  0
TABLE
  2
APPID
 70
     9
  0
APPID
  2
ACAD
 70
     0
  0
APPID
  2
ACAD_MLEADERVER
 70
     0
  0
APPID
  2
ACAD_EXEMPT_FROM_CAD_STANDARDS
 70
     0
  0
APPID
  2
ACAD_NAV_VCDISPLAY
 70
     0
  0
APPID
  2
ACAECLAYERSTANDARD
 70
     0
  0
APPID
  2
ACCMTRANSPARENCY
 70
     0
  0
APPID
  2
ACAD_DSTYLE_DIMJAG
 70
     0
  0
APPID
  2
ACAD_DSTYLE_DIMTALN
 70
     0
  0
APPID
  2
ACDBATTR
 70
     0
  0
ENDTAB
  0
TABLE
  2
DIMSTYLE
 70
     1
  0
DIMSTYLE
  2
STANDARD
 70
     0
  3

  4

  5

  6

  7

 40
1.0
 41
0.1875
 42
0.0625
 43
0.38
 44
0.125
 45
0.0
 46
0.0
 47
0.01
 48
0.01
140
0.15625
141
0.09
142
0.0
143
25.3999999999999986
144
1.0
145
0.0
146
1.0
147
0.09
 71
     1
 72
     0
 73
     1
 74
     1
 75
     0
 76
     0
 77
     0
 78
     4
170
     0
171
     2
172
     0
173
     0
174
     0
175
     0
176
     0
177
     0
178
     0
  0
ENDTAB
  0
ENDSEC
  0
SECTION
  2
BLOCKS
  0
BLOCK
  8
0
  2
$MODEL_SPACE
 70
     0
 10
0.0
 20
0.0
 30
0.0
  3
$MODEL_SPACE
  1

  0
ENDBLK
  5
21
  8
0
  0
BLOCK
 67
     1
  8
0
  2
$PAPER_SPACE
 70
     0
 10
0.0
 20
0.0
 30
0.0
  3
$PAPER_SPACE
  1

  0
ENDBLK
  5
1D
 67
     1
  8
0
  0
BLOCK
  8
0
  2
_FILLED
 70
     0
 10
0.0
 20
0.0
 30
0.0
  3
_FILLED
  1

  0
SOLID
  5
AD0B
  8
0
  6
BYBLOCK
 62
     0
 10
0.0
 20
0.0
 30
0.0
 11
-1.0
 21
0.1666666667
 31
0.0
 12
-1.0
 22
-0.1666666667
 32
0.0
 13
-1.0
 23
-0.1666666667
 33
0.0
  0
ENDBLK
  5
AD0C
  8
0
  6
BYBLOCK
 62
     0
  0
ENDSEC
  0
SECTION
  2
ENTITIES
  0
ATTDEF
  5
B4FD
  8
DEFPOINTS
 10
4245.6287689958580813
 20
181.6020278650331079
 30
0.0
 40
0.001
  1
K-EX27104T-9
  3

  2
MODELNUMBER
 70
     0
1001
ACDBATTR
1070
     0
1070
     1
  0
ATTDEF
  5
B4FE
  8
DEFPOINTS
 10
4245.6287689958580813
 20
181.6003611983664996
 30
0.0
 40
0.001
  1

  3

  2
TRADENAME
 70
     0
1001
ACDBATTR
1070
     0
1070
     1
  0
ATTDEF
  5
B4FF
  8
DEFPOINTS
 10
4245.6287689958580813
 20
181.598694531699806
 30
0.0
 40
0.001
  1
DECH-MOUNT BATH FAUCET TRIM
  3

  2
PRODUCT
 70
     0
1001
ACDBATTR
1070
     0
1070
     1
  0
LINE
  5
C6ED
  8
0
 10
4238.3338255048147403
 20
189.4717025953690097
 30
0.0
 11
4237.1443176530247001
 21
189.4717025953690097
 31
0.0
  0
LINE
  5
C6EE
  8
0
 10
4237.4852633071632226
 20
189.4035923591690107
 30
0.0
 11
4238.0482554331410938
 21
189.4035923591690107
 31
0.0
  0
LINE
  5
C6EF
  8
0
 10
4244.3435516705412738
 20
181.5978913953690039
 30
0.0
 11
4246.9124542821300565
 21
181.5978913953690039
 31
0.0
  0
LINE
  5
C6F0
  8
0
 10
4244.9580277576505978
 20
183.9278914324036123
 30
0.0
 11
4244.9580277576505978
 21
189.4718385036597965
 31
0.0
  0
ARC
  5
C6F1
  8
0
 10
4244.3444198084289383
 20
181.6255286083361966
 30
0.0
 40
0.0276508445437599
 50
203.0956323358780082
 51
268.2008212306905079
  0
LINE
  5
C6F2
  8
0
 10
4244.3189851402930799
 20
181.6146820945724869
 30
0.0
 11
4244.2500617867508481
 21
181.7770522153689967
 31
0.0
  0
ARC
  5
C6F3
  8
0
 10
4244.2755601063709037
 20
181.7877894964273935
 30
0.0
 40
0.0276668334802083
 50
133.2115451510161961
 51
202.8336938529569125
  0
ARC
  5
C6F4
  8
0
 10
4242.8920512506119849
 20
183.2604820042139124
 30
0.0
 40
1.9929568267921109
 50
313.2115451510161961
 51
325.8011593682930993
  0
ARC
  5
C6F5
  8
0
 10
4242.7636621275787547
 20
183.3477313643851971
 30
0.0
 40
2.1481863915130508
 50
325.8011593682930993
 51
327.8539275863947182
  0
ARC
  5
C6F6
  8
0
 10
4241.2237566046896973
 20
183.6681041275923008
 30
0.0
 40
3.7267903052815128
 50
351.4872372123408013
 51
357.9068664709649852
  0
ARC
  5
C6F7
  8
0
 10
4232.7513292597923282
 20
184.0439443905956978
 30
0.0
 40
12.2074710212198507
 50
357.5964226483790753
 51
358.8947585944707157
  0
ARC
  5
C6F8
  8
0
 10
4237.6318638133752756
 20
189.5349468730991873
 30
0.0
 40
0.196839162108791
 50
198.746994107378498
 51
221.8604800732547915
  0
ARC
  5
C6F9
  8
0
 10
4237.9016449024520625
 20
189.5349522837690017
 30
0.0
 40
0.1968503936999498
 50
318.1403345148432891
 51
341.2579291321677033
  0
ARC
  5
C6FA
  8
0
 10
4237.1450762249678519
 20
189.4994389502172965
 30
0.0
 40
0.0277467261431141
 50
180.0187421373856012
 51
268.4333868210480887
  0
ARC
  5
C6FB
  8
0
 10
4241.6588200821743158
 20
189.4725200491753867
 30
0.0
 40
4.5415703059453092
 50
359.989687123582712
 51
179.6605076429650865
  0
ARC
  5
C6FC
  8
0
 10
4238.3337761467519158
 20
189.4992616046691012
 30
0.0
 40
0.0275590535000011
 50
269.9991784056056758
 51
359.525328662097877
  0
ARC
  5
C6FD
  8
0
 10
4241.6596244118536561
 20
189.4717077245840926
 30
0.0
 40
3.2984033483906079
 50
0.0022717321981211
 51
179.5253286396147132
  0
ARC
  5
C6FE
  8
0
 10
4237.5994388429826358
 20
189.4989210061042115
 30
0.0
 40
0.0433590715965122
 50
179.4102172670569075
 51
218.8838976272620016
  0
ARC
  5
C6FF
  8
0
 10
4241.6596242955993148
 20
189.471702577564912
 30
0.0
 40
4.1036354817524847
 50
0.000000248585233
 51
179.6137457809115006
  0
LINE
  5
C700
  8
0
 10
4245.7632597773508678
 20
189.4717025953690097
 30
0.0
 11
4245.7632598014042742
 21
183.9278951666663033
 31
0.0
  0
ARC
  5
C701
  8
0
 10
4248.9766101465538668
 20
183.602702800580289
 30
0.0
 40
2.7655432423894339
 50
181.4652298054712105
 51
190.1271500072481899
  0
ARC
  5
C702
  8
0
 10
4264.4995445111389927
 20
184.2650466299427023
 30
0.0
 40
18.3022598415985485
 50
181.0555343925786929
 51
182.2954793132875864
  0
LINE
  5
C703
  8
0
 10
4246.2003903870499926
 20
189.4725140831380088
 30
0.0
 11
4246.2003903870499926
 21
183.927891395368988
 31
0.0
  0
ARC
  5
C705
  8
0
 10
4239.4414035041709212
 20
183.9290135334811112
 30
0.0
 40
5.5164426716486714
 50
358.7479499493588264
 51
359.9883449231542158
  0
LINE
  5
C706
  8
0
 10
4244.3224906084624308
 20
181.8079539333689922
 30
0.0
 11
4244.2566167920449516
 21
181.8079539333689922
 31
0.0
  0
LINE
  5
C707
  8
0
 10
4244.7177546209913999
 20
181.9615404268689929
 30
0.0
 11
4246.4901306829578971
 21
181.9615404268689929
 31
0.0
  0
ARC
  5
C708
  8
0
 10
4244.7178421504622747
 20
182.0009104101690127
 30
0.0
 40
0.0393700805999904
 50
234.8930214805928927
 51
270.0000139014921956
  0
LINE
  5
C709
  8
0
 10
4244.6952002243187962
 20
181.9687025473567985
 30
0.0
 11
4244.61936139777481
 21
182.0220167681557939
 31
0.0
  0
ARC
  5
C70A
  8
0
 10
4244.6417005545972643
 20
182.0537939453130036
 30
0.0
 40
0.0388436212987123
 50
187.4572878569551904
 51
234.8930214805928927
  0
ARC
  5
C70B
  8
0
 10
4253.4461582043277303
 20
183.2997852263277139
 30
0.0
 40
8.9310273443199613
 50
182.0327412591335872
 51
188.0523094659727121
  0
ARC
  5
C70C
  8
0
 10
4244.559698838870645
 20
182.9847839801051919
 30
0.0
 40
0.0389888668483937
 50
89.4167510352087049
 51
182.6277628681453962
  0
LINE
  5
C70D
  8
0
 10
4244.3920523654587669
 20
181.9221919627964041
 30
0.0
 11
4246.8450104429630301
 21
181.9221919627964041
 31
0.0
  0
ARC
  5
C70E
  8
0
 10
4244.3920531840267358
 20
181.8828208123510137
 30
0.0
 40
0.0393711504538674
 50
90.0011912388837345
 51
149.6280077058414975
  0
LINE
  5
C70F
  8
0
 10
4244.3580852936865995
 20
181.9027273417808033
 30
0.0
 11
4244.3278938168068635
 21
181.8512108379472068
 31
0.0
  0
ARC
  5
C710
  8
0
 10
4244.3618492827636146
 20
181.8313110856514072
 30
0.0
 40
0.0393570045843061
 50
149.6273746219588929
 51
180.0080883728757897
  0
LINE
  5
C711
  8
0
 10
4244.3224922785720992
 20
181.8313055296727043
 30
0.0
 11
4244.3225056037390459
 21
181.7369137602948115
 31
0.0
  0
ARC
  5
C712
  8
0
 10
4244.3619947286442766
 20
181.7369193349248064
 30
0.0
 40
0.0394891252991246
 50
180.0080883728741981
 51
210.1346592135631965
  0
ARC
  5
C713
  8
0
 10
4262.7038699546719727
 20
192.3841613789091127
 30
0.0
 40
21.2476986195096416
 50
210.1346592135631965
 51
210.4544963369349091
  0
ARC
  5
C714
  8
0
 10
4244.4170254741356985
 20
181.6319400098034009
 30
0.0
 40
0.0340486406499854
 50
210.4544963369376944
 51
270.0710996557335193
  0
LINE
  5
C715
  8
0
 10
4244.3278946758337042
 20
181.8512123047146076
 30
0.0
 11
4246.9076189410870938
 21
181.8512123047146076
 31
0.0
  0
LINE
  5
C716
  8
0
 10
4244.3278425173257347
 20
181.7170946664816995
 30
0.0
 11
4246.9109417183472033
 21
181.7170946664816995
 31
0.0
  0
ARC
  5
C717
  8
0
 10
4242.8917258973206117
 20
183.2282358226308077
 30
0.0
 40
2.0592777760994911
 50
320.6375292983933036
 51
326.0137054899294071
  0
LINE
  5
C718
  8
0
 10
4244.5593497616291643
 20
183.023785636369098
 30
0.0
 11
4246.6485351299515969
 21
183.023785636369098
 31
0.0
  0
LINE
  5
C719
  8
0
 10
4244.8149081690989988
 20
183.1164284268689926
 30
0.0
 11
4246.3929769773067164
 21
183.1164284268689926
 31
0.0
  0
ARC
  5
C71A
  8
0
 10
4244.8149082445406748
 20
183.0770581987258936
 30
0.0
 40
0.0393702281432454
 50
90.0001097899027087
 51
127.9055175478569026
  0
LINE
  5
C71B
  8
0
 10
4244.7907207045027462
 20
183.1081222900689909
 30
0.0
 11
4244.6930803112227295
 21
183.0320961180900952
 31
0.0
  0
ARC
  5
C71C
  8
0
 10
4244.6685617032399023
 20
183.0635853600689131
 30
0.0
 40
0.0399090778875236
 50
274.2424693140051204
 51
307.905553170177825
  0
ARC
  5
C71D
  8
0
 10
4244.6612897467794028
 20
182.9851678702312938
 30
0.0
 40
0.0387591978128361
 50
94.8961614752054459
 51
183.1999276126057907
  0
ARC
  5
C71E
  8
0
 10
4256.0436548255665912
 20
183.3681949549826129
 30
0.0
 40
11.4275575328234407
 50
181.9316445196180041
 51
186.6285465487430884
  0
ARC
  5
C71F
  8
0
 10
4244.7330575394616972
 20
182.0528951174480028
 30
0.0
 40
0.0407495311078252
 50
185.3602634557564102
 51
229.2337465775266026
  0
LINE
  5
C720
  8
0
 10
4244.7064491295050175
 20
182.0220322464689957
 30
0.0
 11
4244.7715747489774003
 21
181.9687214852029058
 31
0.0
  0
ARC
  5
C721
  8
0
 10
4244.794224065221897
 20
181.9998593190184124
 30
0.0
 40
0.0385054745358604
 50
234.0130873912287086
 51
264.3572964241247973
  0
ARC
  5
C722
  8
0
 10
4262.1449179450937663
 20
183.8403694593783939
 30
0.0
 40
16.381893746479971
 50
179.6937083775912072
 51
182.5329046483923889
  0
ARC
  5
C723
  8
0
 10
4244.7492036361372811
 20
183.0614635054836015
 30
0.0
 40
0.0378763629284874
 50
275.8683610921960963
 51
309.1196278461769111
  0
ARC
  5
C724
  8
0
 10
4235.7750137923476359
 20
193.0761615551978139
 30
0.0
 40
13.4851473016683894
 50
311.855873746739519
 51
312.3373472437236273
  0
ARC
  5
C725
  8
0
 10
4244.8774082913905659
 20
183.087874959510998
 30
0.0
 40
0.0285617744596448
 50
91.381911804372848
 51
135.0735931442787034
  0
ARC
  5
C726
  8
0
 10
4245.8071655657186056
 20
183.0949618836453112
 30
0.0
 40
0.0215893536639625
 50
37.5168318303185728
 51
83.8857732380915593
  0
LINE
  5
C727
  8
0
 10
4245.8242896898627805
 20
183.1081096805689867
 30
0.0
 11
4245.8560559652623851
 21
183.0320424737689962
 31
0.0
  0
ARC
  5
C728
  8
0
 10
4245.8735817564256649
 20
183.0454411253726903
 30
0.0
 40
0.0220595619315
 50
217.3997402455800909
 51
259.0166649910365777
  0
ARC
  5
C729
  8
0
 10
4246.9035222430202339
 20
181.6255286083361966
 30
0.0
 40
0.0276508445437599
 50
271.7991787693096057
 51
336.9043676641218781
  0
LINE
  5
C72A
  8
0
 10
4246.9289569111551828
 20
181.6146820945724869
 30
0.0
 11
4246.9978802646974145
 21
181.7770522153689967
 31
0.0
  0
ARC
  5
C72B
  8
0
 10
4246.9723819450782685
 20
181.7877894964273935
 30
0.0
 40
0.0276668334802083
 50
337.1663061470429739
 51
46.7884548489838323
  0
ARC
  5
C72C
  8
0
 10
4250.6731760710954404
 20
185.5906661808361946
 30
0.0
 40
5.2787249735795978
 50
219.9269983691482935
 51
225.7741354559937008
  0
LINE
  5
C72D
  8
0
 10
4246.9134092609838262
 20
181.8079539333689922
 30
0.0
 11
4246.9913252594033111
 21
181.8079539333689922
 31
0.0
  0
ARC
  5
C72E
  8
0
 10
4246.4900431534870222
 20
182.0009104101690127
 30
0.0
 40
0.0393700805999931
 50
270.127382857713485
 51
305.1069785194032988
  0
LINE
  5
C72F
  8
0
 10
4246.5126850796323197
 20
181.9687025473567985
 30
0.0
 11
4246.5885239061753964
 21
182.0220167681557939
 31
0.0
  0
ARC
  5
C730
  8
0
 10
4246.5661847493520327
 20
182.0537939453130036
 30
0.0
 40
0.0388436212987123
 50
305.1069785194071073
 51
352.5427121430448096
  0
ARC
  5
C731
  8
0
 10
4237.7617270996233856
 20
183.2997852263277139
 30
0.0
 40
8.9310273443199613
 50
351.9476905340272879
 51
357.9672587408663276
  0
ARC
  5
C732
  8
0
 10
4246.6481623551189841
 20
182.9847748817356887
 30
0.0
 40
0.0390125356537947
 50
357.3872088085022938
 51
90.5474842703371081
  0
ARC
  5
C733
  8
0
 10
4246.8438005837761011
 20
181.8827692261405105
 30
0.0
 40
0.0394412971984039
 50
30.3991369242413505
 51
88.2421800029955676
  0
LINE
  5
C734
  8
0
 10
4246.8778195423828947
 20
181.9027273417808033
 30
0.0
 11
4246.9080110192644497
 21
181.8512108379472068
 31
0.0
  0
ARC
  5
C735
  8
0
 10
4246.8740555533058796
 20
181.8313110856514072
 30
0.0
 40
0.0393570045843061
 50
359.9919116271241819
 51
30.3726253780410893
  0
LINE
  5
C736
  8
0
 10
4246.913412557499214
 20
181.8313055296727043
 30
0.0
 11
4246.9133992323322673
 21
181.7369137602948115
 31
0.0
  0
ARC
  5
C737
  8
0
 10
4246.8739101074261271
 20
181.7369193349248064
 30
0.0
 40
0.0394891252991246
 50
329.865340786436775
 51
359.9919116271257735
  0
ARC
  5
C738
  8
0
 10
4228.5320348813993405
 20
192.3841613789091127
 30
0.0
 40
21.2476986195096416
 50
329.5455036630650056
 51
329.865340786436775
  0
ARC
  5
C739
  8
0
 10
4246.8188793619347052
 20
181.6319400098034009
 30
0.0
 40
0.0340486406499854
 50
269.9289003442664807
 51
329.5455036630622772
  0
ARC
  5
C73A
  8
0
 10
4246.3929770594077127
 20
183.0770581987256946
 30
0.0
 40
0.0393702281433739
 50
52.094482452158033
 51
90.0001194825056103
  0
LINE
  5
C73B
  8
0
 10
4246.4171645994465507
 20
183.1081222900689909
 30
0.0
 11
4246.5148049927265674
 21
183.0320961180900952
 31
0.0
  0
ARC
  5
C73C
  8
0
 10
4246.5393236007103042
 20
183.0635853600689131
 30
0.0
 40
0.0399090778875236
 50
232.0944468298222034
 51
265.7575306859948228
  0
ARC
  5
C73D
  8
0
 10
4246.4586816678129253
 20
183.0614635054836015
 30
0.0
 40
0.0378763629284874
 50
230.8803721538230889
 51
264.1316389078036764
  0
ARC
  5
C73E
  8
0
 10
4255.4328715116007515
 20
193.0761615551978139
 30
0.0
 40
13.4851473016683894
 50
227.6626527562762874
 51
228.1441262532605094
  0
ARC
  5
C73F
  8
0
 10
4246.3304770125578216
 20
183.087874959510998
 30
0.0
 40
0.0285617744596448
 50
44.9264068557212468
 51
88.6180881956271662
  0
ARC
  5
C740
  8
0
 10
4245.9538451051857919
 20
181.8963885246249106
 30
0.0
 40
0.0268336169673862
 50
13.6650252681656603
 51
74.0722790295654505
  0
LINE
  5
C741
  8
0
 10
4245.9799191566617083
 20
181.9027278336689903
 30
0.0
 11
4245.9897921390547708
 21
181.8512123047146076
 31
0.0
  0
ARC
  5
C742
  8
0
 10
4245.9313873111013891
 20
181.8314588614553031
 30
0.0
 40
0.0616548655734454
 50
359.8577149597427933
 51
18.6863559647825603
  0
LINE
  5
C743
  8
0
 10
4245.9930419865631848
 20
181.8313057514691025
 30
0.0
 11
4245.9930419865631848
 21
181.7369136584665057
 31
0.0
  0
ARC
  5
C744
  8
0
 10
4245.9289388478673573
 20
181.7372009654943952
 30
0.0
 40
0.0641037825397584
 50
341.7210829636359222
 51
359.7432049313699167
  0
LINE
  5
C745
  8
0
 10
4245.9898080145831045
 20
181.7170952578690049
 30
0.0
 11
4245.9708102676631825
 21
181.6174430823689931
 31
0.0
  0
ARC
  5
C746
  8
0
 10
4245.9389432171255976
 20
181.6270803457070997
 30
0.0
 40
0.0332924278854182
 50
298.7478958827895212
 51
343.1735842224563839
  0
ARC
  5
C747
  8
0
 10
4245.8961275040710461
 20
183.0048266774286105
 30
0.0
 40
0.0193115370559052
 50
41.4864206557943618
 51
79.0347164895558336
  0
ARC
  5
C748
  8
0
 10
4245.8467568931109781
 20
182.9787240456406039
 30
0.0
 40
0.0747531431912556
 50
3.1920078657425539
 51
31.3535929619770712
  0
ARC
  5
C749
  8
0
 10
4213.633153857625075
 20
183.4257831986587064
 30
0.0
 40
32.2912776593281166
 50
357.5566020346187202
 51
359.214124959330718
  0
ARC
  5
C74A
  8
0
 10
4245.7078031480150457
 20
182.0962877528629065
 30
0.0
 40
0.1931167347398272
 50
337.3290572858949758
 51
345.8652596739618161
  0
LINE
  5
C74B
  8
0
 10
4245.8859984635728324
 20
182.0218531993955082
 30
0.0
 11
4245.8604671858847723
 21
181.9684204505877858
 31
0.0
  0
ARC
  5
C74C
  8
0
 10
4245.8482789761919776
 20
181.9754110380069108
 30
0.0
 40
0.0140506500913116
 50
279.1820043168212919
 51
330.1634326601773068
  0
ARC
  5
C74E
  8
0
 10
4245.0895870855447356
 20
181.9619807076921916
 30
0.0
 40
0.0398497215452512
 50
273.1700211315259139
 51
359.3669530113490964
  0
ARC
  5
C74F
  8
0
 10
4246.0152401885161453
 20
181.9616633431286061
 30
0.0
 40
0.0395473407957193
 50
180.178080096060711
 51
266.4381485146834052
  0
ENDSEC
  0
EOF
